ISO-10303-21;
HEADER;
FILE_DESCRIPTION (( 'STEP AP214' ),
    '1' );
FILE_NAME ('59478.STEP',
    '2023-07-24T15:07:19',
    ( '' ),
    ( '' ),
    'SwSTEP 2.0',
    'SolidWorks 2023',
    '' );
FILE_SCHEMA (( 'AUTOMOTIVE_DESIGN' ));
ENDSEC;

DATA;
#1 = STYLED_ITEM ( 'NONE', ( #87 ), #38 ) ;
#2 = ADVANCED_FACE ( 'NONE', ( #11 ), #156, .T. ) ;
#3 = FACE_OUTER_BOUND ( 'NONE', #7, .T. ) ;
#4 = CIRCLE ( 'NONE', #120, 2.999999999999996891 ) ;
#5 = EDGE_CURVE ( 'NONE', #359, #127, #368, .T. ) ;
#6 = ORIENTED_EDGE ( 'NONE', *, *, #291, .T. ) ;
#7 = EDGE_LOOP ( 'NONE', ( #34, #242 ) ) ;
#8 = VECTOR ( 'NONE', #364, 1000.000000000000000 ) ;
#9 = COLOUR_RGB ( '',0.7921568627450980005, 0.8196078431372548767, 0.9333333333333333481 ) ;
#10 =( GEOMETRIC_REPRESENTATION_CONTEXT ( 3 ) GLOBAL_UNCERTAINTY_ASSIGNED_CONTEXT ( ( #236 ) ) GLOBAL_UNIT_ASSIGNED_CONTEXT ( ( #168, #211, #334 ) ) REPRESENTATION_CONTEXT ( 'NONE', 'WORKASPACE' ) );
#11 = FACE_OUTER_BOUND ( 'NONE', #323, .T. ) ;
#12 = CARTESIAN_POINT ( 'NONE',  ( 0.000000000000000000, 0.000000000000000000, 0.000000000000000000 ) ) ;
#13 = CARTESIAN_POINT ( 'NONE',  ( 0.000000000000000000, 1.000000000000000000, -3.000000000000000000 ) ) ;
#14 = EDGE_LOOP ( 'NONE', ( #71, #123, #179, #27 ) ) ;
#15 = CARTESIAN_POINT ( 'NONE',  ( 3.673940397442059868E-16, 12.00000000000000000, 3.000000000000000000 ) ) ;
#16 =( LENGTH_UNIT ( ) NAMED_UNIT ( * ) SI_UNIT ( .MILLI., .METRE. ) );
#17 = CIRCLE ( 'NONE', #96, 1.000000000000000000 ) ;
#18 = EDGE_CURVE ( 'NONE', #327, #210, #250, .T. ) ;
#19 =( NAMED_UNIT ( * ) SI_UNIT ( $, .STERADIAN. ) SOLID_ANGLE_UNIT ( ) );
#20 = MECHANICAL_DESIGN_GEOMETRIC_PRESENTATION_REPRESENTATION (  '', ( #177 ), #241 ) ;
#21 =( LENGTH_UNIT ( ) NAMED_UNIT ( * ) SI_UNIT ( .MILLI., .METRE. ) );
#22 = CARTESIAN_POINT ( 'NONE',  ( 0.000000000000000000, 12.00000000000000000, 0.000000000000000000 ) ) ;
#23 = DIRECTION ( 'NONE',  ( -1.000000000000000000, -1.203932746194552959E-16, 0.000000000000000000 ) ) ;
#24 = DIRECTION ( 'NONE',  ( -1.000000000000000000, 0.000000000000000000, 0.000000000000000000 ) ) ;
#25 =( NAMED_UNIT ( * ) PLANE_ANGLE_UNIT ( ) SI_UNIT ( $, .RADIAN. ) );
#26 = AXIS2_PLACEMENT_3D ( 'NONE', #104, #133, #257 ) ;
#27 = ORIENTED_EDGE ( 'NONE', *, *, #181, .F. ) ;
#28 = DIRECTION ( 'NONE',  ( 0.000000000000000000, 0.000000000000000000, -1.000000000000000000 ) ) ;
#29 = ADVANCED_FACE ( 'NONE', ( #159 ), #308, .T. ) ;
#30 = AXIS2_PLACEMENT_3D ( 'NONE', #130, #75, #187 ) ;
#31 =( GEOMETRIC_REPRESENTATION_CONTEXT ( 3 ) GLOBAL_UNCERTAINTY_ASSIGNED_CONTEXT ( ( #318 ) ) GLOBAL_UNIT_ASSIGNED_CONTEXT ( ( #203, #344, #171 ) ) REPRESENTATION_CONTEXT ( 'NONE', 'WORKASPACE' ) );
#32 =( NAMED_UNIT ( * ) SI_UNIT ( $, .STERADIAN. ) SOLID_ANGLE_UNIT ( ) );
#33 = EDGE_CURVE ( 'NONE', #327, #322, #121, .T. ) ;
#34 = ORIENTED_EDGE ( 'NONE', *, *, #220, .F. ) ;
#35 = COLOUR_RGB ( '',1.000000000000000000, 0.000000000000000000, 0.000000000000000000 ) ;
#36 = ORIENTED_EDGE ( 'NONE', *, *, #283, .F. ) ;
#37 = EDGE_LOOP ( 'NONE', ( #221, #6 ) ) ;
#38 = MANIFOLD_SOLID_BREP ( 'Revolve - Tool Body (Straight Shanked)', #178 ) ;
#39 = SURFACE_STYLE_FILL_AREA ( #329 ) ;
#40 = DIRECTION ( 'NONE',  ( -0.000000000000000000, -1.000000000000000000, -0.000000000000000000 ) ) ;
#41 = CIRCLE ( 'NONE', #26, 2.000000000000000000 ) ;
#42 = DIRECTION ( 'NONE',  ( -1.203932746194552959E-16, 1.000000000000000000, -0.000000000000000000 ) ) ;
#43 = FILL_AREA_STYLE_COLOUR ( '', #243 ) ;
#44 = FACE_OUTER_BOUND ( 'NONE', #14, .T. ) ;
#45 = FACE_OUTER_BOUND ( 'NONE', #275, .T. ) ;
#46 = DIRECTION ( 'NONE',  ( 0.000000000000000000, 0.000000000000000000, -1.000000000000000000 ) ) ;
#47 = DIRECTION ( 'NONE',  ( -1.000000000000000000, 0.000000000000000000, 0.000000000000000000 ) ) ;
#48 = PRODUCT_RELATED_PRODUCT_CATEGORY ( 'part', '', ( #338 ) ) ;
#49 = CARTESIAN_POINT ( 'NONE',  ( 0.000000000000000000, 0.000000000000000000, 0.000000000000000000 ) ) ;
#50 = PRESENTATION_STYLE_ASSIGNMENT (( #192 ) ) ;
#51 = SURFACE_STYLE_FILL_AREA ( #212 ) ;
#52 = VECTOR ( 'NONE', #299, 1000.000000000000000 ) ;
#53 = PRESENTATION_LAYER_ASSIGNMENT (  '', '', ( #177 ) ) ;
#54 = UNCERTAINTY_MEASURE_WITH_UNIT (LENGTH_MEASURE( 1.000000000000000082E-05 ), #365, 'distance_accuracy_value', 'NONE');
#55 = CARTESIAN_POINT ( 'NONE',  ( 0.000000000000000000, 1.000000000000000000, 0.000000000000000000 ) ) ;
#56 = FACE_OUTER_BOUND ( 'NONE', #239, .T. ) ;
#57 = PLANE ( 'NONE',  #347 ) ;
#58 = SURFACE_STYLE_FILL_AREA ( #282 ) ;
#59 =( GEOMETRIC_REPRESENTATION_CONTEXT ( 3 ) GLOBAL_UNCERTAINTY_ASSIGNED_CONTEXT ( ( #86 ) ) GLOBAL_UNIT_ASSIGNED_CONTEXT ( ( #284, #143, #32 ) ) REPRESENTATION_CONTEXT ( 'NONE', 'WORKASPACE' ) );
#60 = SURFACE_STYLE_USAGE ( .BOTH. , #147 ) ;
#61 = ORIENTED_EDGE ( 'NONE', *, *, #93, .T. ) ;
#62 = ADVANCED_FACE ( 'NONE', ( #119 ), #201, .T. ) ;
#63 = SURFACE_STYLE_USAGE ( .BOTH. , #231 ) ;
#64 = COLOUR_RGB ( '',1.000000000000000000, 0.000000000000000000, 0.000000000000000000 ) ;
#65 = PRODUCT_DEFINITION ( 'UNKNOWN', '', #131, #307 ) ;
#66 = DIRECTION ( 'NONE',  ( 0.000000000000000000, -0.000000000000000000, 1.000000000000000000 ) ) ;
#67 = PRESENTATION_LAYER_ASSIGNMENT (  '', '', ( #340 ) ) ;
#68 = MECHANICAL_DESIGN_GEOMETRIC_PRESENTATION_REPRESENTATION (  '', ( #91 ), #325 ) ;
#69 = STYLED_ITEM ( 'NONE', ( #153 ), #2 ) ;
#70 = ADVANCED_FACE ( 'NONE', ( #202 ), #88, .T. ) ;
#71 = ORIENTED_EDGE ( 'NONE', *, *, #220, .T. ) ;
#72 = SURFACE_SIDE_STYLE ('',( #51 ) ) ;
#73 = CIRCLE ( 'NONE', #125, 2.999999999999991562 ) ;
#74 = PRESENTATION_STYLE_ASSIGNMENT (( #361 ) ) ;
#75 = DIRECTION ( 'NONE',  ( 1.203932746194552959E-16, -1.000000000000000000, 0.000000000000000000 ) ) ;
#76 = ADVANCED_FACE ( 'NONE', ( #3 ), #160, .F. ) ;
#77 = CARTESIAN_POINT ( 'NONE',  ( -2.999999999999981792, 11.99999999999999645, 0.000000000000000000 ) ) ;
#78 = APPLICATION_PROTOCOL_DEFINITION ( 'draft international standard', 'automotive_design', 1998, #233 ) ;
#79 = SURFACE_SIDE_STYLE ('',( #336 ) ) ;
#80 = DIRECTION ( 'NONE',  ( -1.203932746194552959E-16, 1.000000000000000000, -0.000000000000000000 ) ) ;
#81 = DIRECTION ( 'NONE',  ( -1.203932746194552959E-16, 1.000000000000000000, -0.000000000000000000 ) ) ;
#82 = LINE ( 'NONE', #252, #8 ) ;
#83 =( GEOMETRIC_REPRESENTATION_CONTEXT ( 3 ) GLOBAL_UNCERTAINTY_ASSIGNED_CONTEXT ( ( #165 ) ) GLOBAL_UNIT_ASSIGNED_CONTEXT ( ( #258, #25, #226 ) ) REPRESENTATION_CONTEXT ( 'NONE', 'WORKASPACE' ) );
#84 = DIRECTION ( 'NONE',  ( 0.000000000000000000, 0.000000000000000000, 1.000000000000000000 ) ) ;
#85 = AXIS2_PLACEMENT_3D ( 'NONE', #132, #174, #140 ) ;
#86 = UNCERTAINTY_MEASURE_WITH_UNIT (LENGTH_MEASURE( 1.000000000000000082E-05 ), #284, 'distance_accuracy_value', 'NONE');
#87 = PRESENTATION_STYLE_ASSIGNMENT (( #260 ) ) ;
#88 = PLANE ( 'NONE',  #357 ) ;
#89 =( NAMED_UNIT ( * ) SI_UNIT ( $, .STERADIAN. ) SOLID_ANGLE_UNIT ( ) );
#90 = MECHANICAL_DESIGN_GEOMETRIC_PRESENTATION_REPRESENTATION (  '', ( #340 ), #215 ) ;
#91 = STYLED_ITEM ( 'NONE', ( #50 ), #29 ) ;
#92 =( LENGTH_UNIT ( ) NAMED_UNIT ( * ) SI_UNIT ( .MILLI., .METRE. ) );
#93 = EDGE_CURVE ( 'NONE', #262, #287, #73, .T. ) ;
#94 = ORIENTED_EDGE ( 'NONE', *, *, #101, .T. ) ;
#95 = UNCERTAINTY_MEASURE_WITH_UNIT (LENGTH_MEASURE( 1.000000000000000082E-05 ), #21, 'distance_accuracy_value', 'NONE');
#96 = AXIS2_PLACEMENT_3D ( 'NONE', #230, #24, #162 ) ;
#97 = ORIENTED_EDGE ( 'NONE', *, *, #18, .F. ) ;
#98 = ORIENTED_EDGE ( 'NONE', *, *, #283, .T. ) ;
#99 = COLOUR_RGB ( '',0.7921568627450980005, 0.8196078431372548767, 0.9333333333333333481 ) ;
#100 = ORIENTED_EDGE ( 'NONE', *, *, #18, .T. ) ;
#101 = EDGE_CURVE ( 'NONE', #322, #288, #41, .T. ) ;
#102 = MECHANICAL_DESIGN_GEOMETRIC_PRESENTATION_REPRESENTATION (  '', ( #290 ), #59 ) ;
#103 = ORIENTED_EDGE ( 'NONE', *, *, #345, .F. ) ;
#104 = CARTESIAN_POINT ( 'NONE',  ( 0.000000000000000000, 0.000000000000000000, 0.000000000000000000 ) ) ;
#105 = CARTESIAN_POINT ( 'NONE',  ( 0.000000000000000000, 0.000000000000000000, -2.000000000000000000 ) ) ;
#106 =( NAMED_UNIT ( * ) PLANE_ANGLE_UNIT ( ) SI_UNIT ( $, .RADIAN. ) );
#107 = DIRECTION ( 'NONE',  ( -0.000000000000000000, -1.000000000000000000, -0.000000000000000000 ) ) ;
#108 = CARTESIAN_POINT ( 'NONE',  ( 0.000000000000000000, 12.00000000000000000, 0.000000000000000000 ) ) ;
#109 = AXIS2_PLACEMENT_3D ( 'NONE', #342, #244, #186 ) ;
#110 = FILL_AREA_STYLE ('',( #251 ) ) ;
#111 = CARTESIAN_POINT ( 'NONE',  ( -2.999999999999993783, 63.00000000000000000, 0.000000000000000000 ) ) ;
#112 = CARTESIAN_POINT ( 'NONE',  ( 3.000000000000000444, 63.00000000000000000, 3.673940397442054938E-16 ) ) ;
#113 = SURFACE_STYLE_USAGE ( .BOTH. , #273 ) ;
#114 = AXIS2_PLACEMENT_3D ( 'NONE', #190, #161, #272 ) ;
#115 = APPLICATION_PROTOCOL_DEFINITION ( 'draft international standard', 'automotive_design', 1998, #234 ) ;
#116 = SURFACE_STYLE_FILL_AREA ( #315 ) ;
#117 = DIRECTION ( 'NONE',  ( -0.000000000000000000, -1.000000000000000000, -0.000000000000000000 ) ) ;
#118 = ADVANCED_FACE ( 'NONE', ( #56 ), #271, .T. ) ;
#119 = FACE_OUTER_BOUND ( 'NONE', #216, .T. ) ;
#120 = AXIS2_PLACEMENT_3D ( 'NONE', #191, #81, #194 ) ;
#121 = CIRCLE ( 'NONE', #85, 1.000000000000000000 ) ;
#122 = DIRECTION ( 'NONE',  ( 0.000000000000000000, 0.000000000000000000, -1.000000000000000000 ) ) ;
#123 = ORIENTED_EDGE ( 'NONE', *, *, #139, .T. ) ;
#124 = EDGE_CURVE ( 'NONE', #359, #210, #183, .T. ) ;
#125 = AXIS2_PLACEMENT_3D ( 'NONE', #141, #80, #306 ) ;
#126 = ORIENTED_EDGE ( 'NONE', *, *, #139, .F. ) ;
#127 = VERTEX_POINT ( 'NONE', #15 ) ;
#128 = DIRECTION ( 'NONE',  ( -0.000000000000000000, -1.000000000000000000, -0.000000000000000000 ) ) ;
#129 = DIRECTION ( 'NONE',  ( -1.203932746194552959E-16, 1.000000000000000000, -0.000000000000000000 ) ) ;
#130 = CARTESIAN_POINT ( 'NONE',  ( 3.000000000000000000, 63.00000000000000000, 0.000000000000000000 ) ) ;
#131 = PRODUCT_DEFINITION_FORMATION_WITH_SPECIFIED_SOURCE ( 'ANY', '', #338, .NOT_KNOWN. ) ;
#132 = CARTESIAN_POINT ( 'NONE',  ( 2.449293598294706414E-16, 1.000000000000000000, 2.000000000000000000 ) ) ;
#133 = DIRECTION ( 'NONE',  ( -0.000000000000000000, -1.000000000000000000, -0.000000000000000000 ) ) ;
#134 = MECHANICAL_DESIGN_GEOMETRIC_PRESENTATION_REPRESENTATION (  '', ( #1 ), #31 ) ;
#135 = DIRECTION ( 'NONE',  ( -1.000000000000000000, 0.000000000000000000, 0.000000000000000000 ) ) ;
#136 = UNCERTAINTY_MEASURE_WITH_UNIT (LENGTH_MEASURE( 1.000000000000000082E-05 ), #16, 'distance_accuracy_value', 'NONE');
#137 = ORIENTED_EDGE ( 'NONE', *, *, #124, .F. ) ;
#138 =( NAMED_UNIT ( * ) SI_UNIT ( $, .STERADIAN. ) SOLID_ANGLE_UNIT ( ) );
#139 = EDGE_CURVE ( 'NONE', #262, #144, #169, .T. ) ;
#140 = DIRECTION ( 'NONE',  ( -1.224646799147353207E-16, 0.000000000000000000, -1.000000000000000000 ) ) ;
#141 = CARTESIAN_POINT ( 'NONE',  ( 9.324138683375338132E-15, 11.99999999999999645, 0.000000000000000000 ) ) ;
#142 = DIRECTION ( 'NONE',  ( 0.000000000000000000, 0.000000000000000000, -1.000000000000000000 ) ) ;
#143 =( NAMED_UNIT ( * ) PLANE_ANGLE_UNIT ( ) SI_UNIT ( $, .RADIAN. ) );
#144 = VERTEX_POINT ( 'NONE', #112 ) ;
#145 = EDGE_CURVE ( 'NONE', #127, #327, #82, .T. ) ;
#146 = VERTEX_POINT ( 'NONE', #111 ) ;
#147 = SURFACE_SIDE_STYLE ('',( #116 ) ) ;
#148 = AXIS2_PLACEMENT_3D ( 'NONE', #310, #129, #247 ) ;
#149 = COLOUR_RGB ( '',1.000000000000000000, 0.000000000000000000, 0.000000000000000000 ) ;
#150 = ORIENTED_EDGE ( 'NONE', *, *, #151, .F. ) ;
#151 = EDGE_CURVE ( 'NONE', #127, #359, #263, .T. ) ;
#152 = ORIENTED_EDGE ( 'NONE', *, *, #101, .F. ) ;
#153 = PRESENTATION_STYLE_ASSIGNMENT (( #305 ) ) ;
#154 = DIRECTION ( 'NONE',  ( -0.000000000000000000, -1.000000000000000000, -0.000000000000000000 ) ) ;
#155 = CARTESIAN_POINT ( 'NONE',  ( 3.000000000000000000, 11.99999999999999645, 3.673940397442054938E-16 ) ) ;
#156 = CYLINDRICAL_SURFACE ( 'NONE', #218, 3.000000000000000000 ) ;
#157 = CYLINDRICAL_SURFACE ( 'NONE', #274, 2.999999999999993783 ) ;
#158 = CARTESIAN_POINT ( 'NONE',  ( 3.061616997868383141E-16, 0.000000000000000000, 2.000000000000000000 ) ) ;
#159 = FACE_OUTER_BOUND ( 'NONE', #293, .T. ) ;
#160 = PLANE ( 'NONE',  #228 ) ;
#161 = DIRECTION ( 'NONE',  ( -1.203932746194552959E-16, 1.000000000000000000, -0.000000000000000000 ) ) ;
#162 = DIRECTION ( 'NONE',  ( 0.000000000000000000, 0.000000000000000000, 1.000000000000000000 ) ) ;
#163 = DIRECTION ( 'NONE',  ( 0.000000000000000000, 0.000000000000000000, -1.000000000000000000 ) ) ;
#164 = AXIS2_PLACEMENT_3D ( 'NONE', #199, #117, #122 ) ;
#165 = UNCERTAINTY_MEASURE_WITH_UNIT (LENGTH_MEASURE( 1.000000000000000082E-05 ), #258, 'distance_accuracy_value', 'NONE');
#166 = MECHANICAL_DESIGN_GEOMETRIC_PRESENTATION_REPRESENTATION (  '', ( #69 ), #10 ) ;
#167 = EDGE_CURVE ( 'NONE', #210, #327, #366, .T. ) ;
#168 =( LENGTH_UNIT ( ) NAMED_UNIT ( * ) SI_UNIT ( .MILLI., .METRE. ) );
#169 = LINE ( 'NONE', #254, #52 ) ;
#170 = DIRECTION ( 'NONE',  ( 0.000000000000000000, -1.000000000000000000, -0.000000000000000000 ) ) ;
#171 =( NAMED_UNIT ( * ) SI_UNIT ( $, .STERADIAN. ) SOLID_ANGLE_UNIT ( ) );
#172 =( GEOMETRIC_REPRESENTATION_CONTEXT ( 3 ) GLOBAL_UNCERTAINTY_ASSIGNED_CONTEXT ( ( #362 ) ) GLOBAL_UNIT_ASSIGNED_CONTEXT ( ( #314, #106, #19 ) ) REPRESENTATION_CONTEXT ( 'NONE', 'WORKASPACE' ) );
#173 = ORIENTED_EDGE ( 'NONE', *, *, #167, .T. ) ;
#174 = DIRECTION ( 'NONE',  ( 1.000000000000000000, 0.000000000000000000, -1.224646799147353207E-16 ) ) ;
#175 = MECHANICAL_DESIGN_GEOMETRIC_PRESENTATION_REPRESENTATION (  '', ( #207 ), #348 ) ;
#176 = UNCERTAINTY_MEASURE_WITH_UNIT (LENGTH_MEASURE( 1.000000000000000082E-05 ), #92, 'distance_accuracy_value', 'NONE');
#177 = STYLED_ITEM ( 'NONE', ( #279 ), #62 ) ;
#178 = CLOSED_SHELL ( 'NONE', ( #204, #76, #238, #297 ) ) ;
#179 = ORIENTED_EDGE ( 'NONE', *, *, #349, .F. ) ;
#180 = ORIENTED_EDGE ( 'NONE', *, *, #345, .T. ) ;
#181 = EDGE_CURVE ( 'NONE', #287, #146, #277, .T. ) ;
#182 = CIRCLE ( 'NONE', #148, 2.999999999999991562 ) ;
#183 = LINE ( 'NONE', #294, #350 ) ;
#184 = CIRCLE ( 'NONE', #114, 2.999999999999996891 ) ;
#185 = EDGE_LOOP ( 'NONE', ( #298, #150 ) ) ;
#186 = DIRECTION ( 'NONE',  ( 0.000000000000000000, 0.000000000000000000, -1.000000000000000000 ) ) ;
#187 = DIRECTION ( 'NONE',  ( 1.000000000000000000, 1.203932746194552959E-16, 0.000000000000000000 ) ) ;
#188 = DIRECTION ( 'NONE',  ( 0.000000000000000000, 0.000000000000000000, -1.000000000000000000 ) ) ;
#189 = FACE_OUTER_BOUND ( 'NONE', #369, .T. ) ;
#190 = CARTESIAN_POINT ( 'NONE',  ( 3.184081677783117402E-15, 63.00000000000000000, 0.000000000000000000 ) ) ;
#191 = CARTESIAN_POINT ( 'NONE',  ( 3.184081677783117402E-15, 63.00000000000000000, 0.000000000000000000 ) ) ;
#192 = SURFACE_STYLE_USAGE ( .BOTH. , #79 ) ;
#193 = CARTESIAN_POINT ( 'NONE',  ( 0.000000000000000000, 1.000000000000000000, 0.000000000000000000 ) ) ;
#194 = DIRECTION ( 'NONE',  ( -1.000000000000000000, 0.000000000000000000, 0.000000000000000000 ) ) ;
#195 =( NAMED_UNIT ( * ) SI_UNIT ( $, .STERADIAN. ) SOLID_ANGLE_UNIT ( ) );
#196 = CIRCLE ( 'NONE', #259, 2.000000000000000000 ) ;
#197 = DIRECTION ( 'NONE',  ( -1.203932746194552959E-16, 1.000000000000000000, -0.000000000000000000 ) ) ;
#198 = ADVANCED_BREP_SHAPE_REPRESENTATION ( '59478', ( #276, #38, #330 ), #83 ) ;
#199 = CARTESIAN_POINT ( 'NONE',  ( 0.000000000000000000, 1.000000000000000000, 0.000000000000000000 ) ) ;
#200 = COLOUR_RGB ( '',1.000000000000000000, 0.000000000000000000, 0.000000000000000000 ) ;
#201 = TOROIDAL_SURFACE ( 'NONE', #320, 2.000000000000000000, 1.000000000000000000 ) ;
#202 = FACE_OUTER_BOUND ( 'NONE', #185, .T. ) ;
#203 =( LENGTH_UNIT ( ) NAMED_UNIT ( * ) SI_UNIT ( .MILLI., .METRE. ) );
#204 = ADVANCED_FACE ( 'NONE', ( #44 ), #157, .T. ) ;
#205 = AXIS2_PLACEMENT_3D ( 'NONE', #22, #107, #188 ) ;
#206 = CARTESIAN_POINT ( 'NONE',  ( 0.000000000000000000, 12.00000000000000000, 0.000000000000000000 ) ) ;
#207 = STYLED_ITEM ( 'NONE', ( #74 ), #276 ) ;
#208 = PRESENTATION_LAYER_ASSIGNMENT (  '', '', ( #69 ) ) ;
#209 = COLOUR_RGB ( '',1.000000000000000000, 0.000000000000000000, 0.000000000000000000 ) ;
#210 = VERTEX_POINT ( 'NONE', #13 ) ;
#211 =( NAMED_UNIT ( * ) PLANE_ANGLE_UNIT ( ) SI_UNIT ( $, .RADIAN. ) );
#212 = FILL_AREA_STYLE ('',( #339 ) ) ;
#213 = FILL_AREA_STYLE ('',( #303 ) ) ;
#214 = CARTESIAN_POINT ( 'NONE',  ( 3.673940397442059375E-16, 1.000000000000000000, 3.000000000000000000 ) ) ;
#215 =( GEOMETRIC_REPRESENTATION_CONTEXT ( 3 ) GLOBAL_UNCERTAINTY_ASSIGNED_CONTEXT ( ( #54 ) ) GLOBAL_UNIT_ASSIGNED_CONTEXT ( ( #365, #217, #138 ) ) REPRESENTATION_CONTEXT ( 'NONE', 'WORKASPACE' ) );
#216 = EDGE_LOOP ( 'NONE', ( #328, #100, #180, #152 ) ) ;
#217 =( NAMED_UNIT ( * ) PLANE_ANGLE_UNIT ( ) SI_UNIT ( $, .RADIAN. ) );
#218 = AXIS2_PLACEMENT_3D ( 'NONE', #12, #128, #246 ) ;
#219 =( NAMED_UNIT ( * ) SI_UNIT ( $, .STERADIAN. ) SOLID_ANGLE_UNIT ( ) );
#220 = EDGE_CURVE ( 'NONE', #287, #262, #182, .T. ) ;
#221 = ORIENTED_EDGE ( 'NONE', *, *, #349, .T. ) ;
#222 = DIRECTION ( 'NONE',  ( 0.000000000000000000, 0.000000000000000000, -1.000000000000000000 ) ) ;
#223 = SURFACE_STYLE_FILL_AREA ( #280 ) ;
#224 =( NAMED_UNIT ( * ) PLANE_ANGLE_UNIT ( ) SI_UNIT ( $, .RADIAN. ) );
#225 = CARTESIAN_POINT ( 'NONE',  ( 3.184081677783117402E-15, 63.00000000000000000, 0.000000000000000000 ) ) ;
#226 =( NAMED_UNIT ( * ) SI_UNIT ( $, .STERADIAN. ) SOLID_ANGLE_UNIT ( ) );
#227 = FILL_AREA_STYLE ('',( #346 ) ) ;
#228 = AXIS2_PLACEMENT_3D ( 'NONE', #331, #337, #23 ) ;
#229 = PRESENTATION_LAYER_ASSIGNMENT (  '', '', ( #290 ) ) ;
#230 = CARTESIAN_POINT ( 'NONE',  ( 0.000000000000000000, 1.000000000000000000, -2.000000000000000000 ) ) ;
#231 = SURFACE_SIDE_STYLE ('',( #317 ) ) ;
#232 = SURFACE_SIDE_STYLE ('',( #58 ) ) ;
#233 = APPLICATION_CONTEXT ( 'automotive_design' ) ;
#234 = APPLICATION_CONTEXT ( 'automotive_design' ) ;
#235 =( NAMED_UNIT ( * ) PLANE_ANGLE_UNIT ( ) SI_UNIT ( $, .RADIAN. ) );
#236 = UNCERTAINTY_MEASURE_WITH_UNIT (LENGTH_MEASURE( 1.000000000000000082E-05 ), #168, 'distance_accuracy_value', 'NONE');
#237 = ORIENTED_EDGE ( 'NONE', *, *, #124, .T. ) ;
#238 = ADVANCED_FACE ( 'NONE', ( #189 ), #332, .T. ) ;
#239 = EDGE_LOOP ( 'NONE', ( #309, #270, #237, #97 ) ) ;
#240 = ORIENTED_EDGE ( 'NONE', *, *, #291, .F. ) ;
#241 =( GEOMETRIC_REPRESENTATION_CONTEXT ( 3 ) GLOBAL_UNCERTAINTY_ASSIGNED_CONTEXT ( ( #176 ) ) GLOBAL_UNIT_ASSIGNED_CONTEXT ( ( #92, #235, #89 ) ) REPRESENTATION_CONTEXT ( 'NONE', 'WORKASPACE' ) );
#242 = ORIENTED_EDGE ( 'NONE', *, *, #93, .F. ) ;
#243 = COLOUR_RGB ( '',1.000000000000000000, 0.000000000000000000, 0.000000000000000000 ) ;
#244 = DIRECTION ( 'NONE',  ( -0.000000000000000000, -1.000000000000000000, -0.000000000000000000 ) ) ;
#245 =( NAMED_UNIT ( * ) PLANE_ANGLE_UNIT ( ) SI_UNIT ( $, .RADIAN. ) );
#246 = DIRECTION ( 'NONE',  ( 0.000000000000000000, 0.000000000000000000, -1.000000000000000000 ) ) ;
#247 = DIRECTION ( 'NONE',  ( -1.000000000000000000, 0.000000000000000000, 0.000000000000000000 ) ) ;
#248 = SURFACE_STYLE_FILL_AREA ( #213 ) ;
#249 = AXIS2_PLACEMENT_3D ( 'NONE', #108, #302, #222 ) ;
#250 = CIRCLE ( 'NONE', #351, 3.000000000000000000 ) ;
#251 = FILL_AREA_STYLE_COLOUR ( '', #64 ) ;
#252 = CARTESIAN_POINT ( 'NONE',  ( 3.673940397442059868E-16, 0.000000000000000000, 3.000000000000000000 ) ) ;
#253 = DIRECTION ( 'NONE',  ( -0.000000000000000000, -1.000000000000000000, -0.000000000000000000 ) ) ;
#254 = CARTESIAN_POINT ( 'NONE',  ( 2.999999999999996891, 63.00000000000000000, 3.673940397442052472E-16 ) ) ;
#255 = CARTESIAN_POINT ( 'NONE',  ( 0.000000000000000000, 0.000000000000000000, 0.000000000000000000 ) ) ;
#256 = DIRECTION ( 'NONE',  ( -0.000000000000000000, -1.000000000000000000, -0.000000000000000000 ) ) ;
#257 = DIRECTION ( 'NONE',  ( 0.000000000000000000, 0.000000000000000000, -1.000000000000000000 ) ) ;
#258 =( LENGTH_UNIT ( ) NAMED_UNIT ( * ) SI_UNIT ( .MILLI., .METRE. ) );
#259 = AXIS2_PLACEMENT_3D ( 'NONE', #49, #253, #335 ) ;
#260 = SURFACE_STYLE_USAGE ( .BOTH. , #232 ) ;
#261 = ORIENTED_EDGE ( 'NONE', *, *, #5, .T. ) ;
#262 = VERTEX_POINT ( 'NONE', #155 ) ;
#263 = CIRCLE ( 'NONE', #249, 3.000000000000000000 ) ;
#264 = DIRECTION ( 'NONE',  ( 0.000000000000000000, 1.000000000000000000, 0.000000000000000000 ) ) ;
#265 = ORIENTED_EDGE ( 'NONE', *, *, #181, .T. ) ;
#266 = PRESENTATION_LAYER_ASSIGNMENT (  '', '', ( #207 ) ) ;
#267 = DIRECTION ( 'NONE',  ( -1.203932746194552959E-16, 1.000000000000000000, -0.000000000000000000 ) ) ;
#268 = SURFACE_SIDE_STYLE ('',( #248 ) ) ;
#269 = CARTESIAN_POINT ( 'NONE',  ( 0.000000000000000000, 12.00000000000000000, -3.000000000000000000 ) ) ;
#270 = ORIENTED_EDGE ( 'NONE', *, *, #151, .T. ) ;
#271 = CYLINDRICAL_SURFACE ( 'NONE', #109, 3.000000000000000000 ) ;
#272 = DIRECTION ( 'NONE',  ( -1.000000000000000000, 0.000000000000000000, 0.000000000000000000 ) ) ;
#273 = SURFACE_SIDE_STYLE ('',( #223 ) ) ;
#274 = AXIS2_PLACEMENT_3D ( 'NONE', #225, #267, #47 ) ;
#275 = EDGE_LOOP ( 'NONE', ( #98, #94 ) ) ;
#276 = MANIFOLD_SOLID_BREP ( 'Revolve - Cutting Edge', #326 ) ;
#277 = LINE ( 'NONE', #354, #324 ) ;
#278 = PRESENTATION_STYLE_ASSIGNMENT (( #113 ) ) ;
#279 = PRESENTATION_STYLE_ASSIGNMENT (( #63 ) ) ;
#280 = FILL_AREA_STYLE ('',( #355 ) ) ;
#281 = PRESENTATION_STYLE_ASSIGNMENT (( #60 ) ) ;
#282 = FILL_AREA_STYLE ('',( #370 ) ) ;
#283 = EDGE_CURVE ( 'NONE', #288, #322, #196, .T. ) ;
#284 =( LENGTH_UNIT ( ) NAMED_UNIT ( * ) SI_UNIT ( .MILLI., .METRE. ) );
#285 = PRESENTATION_LAYER_ASSIGNMENT (  '', '', ( #1 ) ) ;
#286 = SHAPE_DEFINITION_REPRESENTATION ( #353, #198 ) ;
#287 = VERTEX_POINT ( 'NONE', #77 ) ;
#288 = VERTEX_POINT ( 'NONE', #105 ) ;
#289 = AXIS2_PLACEMENT_3D ( 'NONE', #193, #154, #163 ) ;
#290 = STYLED_ITEM ( 'NONE', ( #281 ), #70 ) ;
#291 = EDGE_CURVE ( 'NONE', #144, #146, #184, .T. ) ;
#292 = ORIENTED_EDGE ( 'NONE', *, *, #167, .F. ) ;
#293 = EDGE_LOOP ( 'NONE', ( #173, #352, #36, #103 ) ) ;
#294 = CARTESIAN_POINT ( 'NONE',  ( 0.000000000000000000, 0.000000000000000000, -3.000000000000000000 ) ) ;
#295 = FACE_OUTER_BOUND ( 'NONE', #37, .T. ) ;
#296 = AXIS2_PLACEMENT_3D ( 'NONE', #300, #42, #135 ) ;
#297 = ADVANCED_FACE ( 'NONE', ( #295 ), #333, .F. ) ;
#298 = ORIENTED_EDGE ( 'NONE', *, *, #5, .F. ) ;
#299 = DIRECTION ( 'NONE',  ( -1.203932746194552959E-16, 1.000000000000000000, -0.000000000000000000 ) ) ;
#300 = CARTESIAN_POINT ( 'NONE',  ( 3.184081677783117402E-15, 63.00000000000000000, 0.000000000000000000 ) ) ;
#301 = DIRECTION ( 'NONE',  ( -0.000000000000000000, -1.000000000000000000, -0.000000000000000000 ) ) ;
#302 = DIRECTION ( 'NONE',  ( -0.000000000000000000, -1.000000000000000000, -0.000000000000000000 ) ) ;
#303 = FILL_AREA_STYLE_COLOUR ( '', #99 ) ;
#304 = PRODUCT_CONTEXT ( 'NONE', #233, 'mechanical' ) ;
#305 = SURFACE_STYLE_USAGE ( .BOTH. , #363 ) ;
#306 = DIRECTION ( 'NONE',  ( -1.000000000000000000, 0.000000000000000000, 0.000000000000000000 ) ) ;
#307 = PRODUCT_DEFINITION_CONTEXT ( 'detailed design', #234, 'design' ) ;
#308 = TOROIDAL_SURFACE ( 'NONE', #164, 2.000000000000000000, 1.000000000000000000 ) ;
#309 = ORIENTED_EDGE ( 'NONE', *, *, #145, .F. ) ;
#310 = CARTESIAN_POINT ( 'NONE',  ( 9.324138683375338132E-15, 11.99999999999999645, 0.000000000000000000 ) ) ;
#311 = ADVANCED_FACE ( 'NONE', ( #45 ), #57, .T. ) ;
#312 = DIRECTION ( 'NONE',  ( 1.000000000000000000, 0.000000000000000000, 0.000000000000000000 ) ) ;
#313 = FILL_AREA_STYLE_COLOUR ( '', #35 ) ;
#314 =( LENGTH_UNIT ( ) NAMED_UNIT ( * ) SI_UNIT ( .MILLI., .METRE. ) );
#315 = FILL_AREA_STYLE ('',( #313 ) ) ;
#316 = PRESENTATION_LAYER_ASSIGNMENT (  '', '', ( #319 ) ) ;
#317 = SURFACE_STYLE_FILL_AREA ( #227 ) ;
#318 = UNCERTAINTY_MEASURE_WITH_UNIT (LENGTH_MEASURE( 1.000000000000000082E-05 ), #203, 'distance_accuracy_value', 'NONE');
#319 = STYLED_ITEM ( 'NONE', ( #278 ), #311 ) ;
#320 = AXIS2_PLACEMENT_3D ( 'NONE', #367, #256, #28 ) ;
#321 = ORIENTED_EDGE ( 'NONE', *, *, #145, .T. ) ;
#322 = VERTEX_POINT ( 'NONE', #158 ) ;
#323 = EDGE_LOOP ( 'NONE', ( #261, #321, #292, #137 ) ) ;
#324 = VECTOR ( 'NONE', #197, 1000.000000000000000 ) ;
#325 =( GEOMETRIC_REPRESENTATION_CONTEXT ( 3 ) GLOBAL_UNCERTAINTY_ASSIGNED_CONTEXT ( ( #95 ) ) GLOBAL_UNIT_ASSIGNED_CONTEXT ( ( #21, #224, #195 ) ) REPRESENTATION_CONTEXT ( 'NONE', 'WORKASPACE' ) );
#326 = CLOSED_SHELL ( 'NONE', ( #2, #29, #311, #62, #118, #70 ) ) ;
#327 = VERTEX_POINT ( 'NONE', #214 ) ;
#328 = ORIENTED_EDGE ( 'NONE', *, *, #33, .F. ) ;
#329 = FILL_AREA_STYLE ('',( #43 ) ) ;
#330 = AXIS2_PLACEMENT_3D ( 'NONE', #255, #84, #312 ) ;
#331 = CARTESIAN_POINT ( 'NONE',  ( 9.324138683375338132E-15, 12.00000000000000000, 0.000000000000000000 ) ) ;
#332 = CYLINDRICAL_SURFACE ( 'NONE', #296, 2.999999999999993783 ) ;
#333 = PLANE ( 'NONE',  #30 ) ;
#334 =( NAMED_UNIT ( * ) SI_UNIT ( $, .STERADIAN. ) SOLID_ANGLE_UNIT ( ) );
#335 = DIRECTION ( 'NONE',  ( 0.000000000000000000, 0.000000000000000000, -1.000000000000000000 ) ) ;
#336 = SURFACE_STYLE_FILL_AREA ( #110 ) ;
#337 = DIRECTION ( 'NONE',  ( -1.203932746194552959E-16, 1.000000000000000000, 0.000000000000000000 ) ) ;
#338 = PRODUCT ( '59478', '59478', '', ( #304 ) ) ;
#339 = FILL_AREA_STYLE_COLOUR ( '', #149 ) ;
#340 = STYLED_ITEM ( 'NONE', ( #360 ), #118 ) ;
#341 = PRESENTATION_LAYER_ASSIGNMENT (  '', '', ( #91 ) ) ;
#342 = CARTESIAN_POINT ( 'NONE',  ( 0.000000000000000000, 0.000000000000000000, 0.000000000000000000 ) ) ;
#343 = CARTESIAN_POINT ( 'NONE',  ( 0.000000000000000000, 0.000000000000000000, 0.000000000000000000 ) ) ;
#344 =( NAMED_UNIT ( * ) PLANE_ANGLE_UNIT ( ) SI_UNIT ( $, .RADIAN. ) );
#345 = EDGE_CURVE ( 'NONE', #210, #288, #17, .T. ) ;
#346 = FILL_AREA_STYLE_COLOUR ( '', #209 ) ;
#347 = AXIS2_PLACEMENT_3D ( 'NONE', #343, #170, #142 ) ;
#348 =( GEOMETRIC_REPRESENTATION_CONTEXT ( 3 ) GLOBAL_UNCERTAINTY_ASSIGNED_CONTEXT ( ( #136 ) ) GLOBAL_UNIT_ASSIGNED_CONTEXT ( ( #16, #245, #219 ) ) REPRESENTATION_CONTEXT ( 'NONE', 'WORKASPACE' ) );
#349 = EDGE_CURVE ( 'NONE', #146, #144, #4, .T. ) ;
#350 = VECTOR ( 'NONE', #40, 1000.000000000000000 ) ;
#351 = AXIS2_PLACEMENT_3D ( 'NONE', #55, #301, #46 ) ;
#352 = ORIENTED_EDGE ( 'NONE', *, *, #33, .T. ) ;
#353 = PRODUCT_DEFINITION_SHAPE ( 'NONE', 'NONE',  #65 ) ;
#354 = CARTESIAN_POINT ( 'NONE',  ( -2.999999999999991118, 63.00000000000000000, 0.000000000000000000 ) ) ;
#355 = FILL_AREA_STYLE_COLOUR ( '', #200 ) ;
#356 = SURFACE_STYLE_USAGE ( .BOTH. , #72 ) ;
#357 = AXIS2_PLACEMENT_3D ( 'NONE', #206, #264, #66 ) ;
#358 = MECHANICAL_DESIGN_GEOMETRIC_PRESENTATION_REPRESENTATION (  '', ( #319 ), #172 ) ;
#359 = VERTEX_POINT ( 'NONE', #269 ) ;
#360 = PRESENTATION_STYLE_ASSIGNMENT (( #356 ) ) ;
#361 = SURFACE_STYLE_USAGE ( .BOTH. , #268 ) ;
#362 = UNCERTAINTY_MEASURE_WITH_UNIT (LENGTH_MEASURE( 1.000000000000000082E-05 ), #314, 'distance_accuracy_value', 'NONE');
#363 = SURFACE_SIDE_STYLE ('',( #39 ) ) ;
#364 = DIRECTION ( 'NONE',  ( -0.000000000000000000, -1.000000000000000000, -0.000000000000000000 ) ) ;
#365 =( LENGTH_UNIT ( ) NAMED_UNIT ( * ) SI_UNIT ( .MILLI., .METRE. ) );
#366 = CIRCLE ( 'NONE', #289, 3.000000000000000000 ) ;
#367 = CARTESIAN_POINT ( 'NONE',  ( 0.000000000000000000, 1.000000000000000000, 0.000000000000000000 ) ) ;
#368 = CIRCLE ( 'NONE', #205, 3.000000000000000000 ) ;
#369 = EDGE_LOOP ( 'NONE', ( #126, #61, #265, #240 ) ) ;
#370 = FILL_AREA_STYLE_COLOUR ( '', #9 ) ;
ENDSEC;
END-ISO-10303-21;
