ISO-10303-21;
HEADER;
FILE_DESCRIPTION (( 'STEP AP214' ),
    '1' );
FILE_NAME ('Micro_SBMM-020-410.STEP',
    '2021-09-02T17:05:47',
    ( '' ),
    ( '' ),
    'SwSTEP 2.0',
    'SolidWorks 2020',
    '' );
FILE_SCHEMA (( 'AUTOMOTIVE_DESIGN' ));
ENDSEC;

DATA;
#1 = AXIS2_PLACEMENT_3D ( 'NONE', #288, #125, #52 ) ;
#2 = STYLED_ITEM ( 'NONE', ( #117 ), #243 ) ;
#3 = CARTESIAN_POINT ( 'NONE',  ( 0.0000000000000000000, 0.0000000000000000000, 0.06928860975630385388 ) ) ;
#4 = DIRECTION ( 'NONE',  ( -1.224646799147352961E-16, 1.000000000000000000, 0.0000000000000000000 ) ) ;
#5 = EDGE_CURVE ( 'NONE', #7, #338, #318, .T. ) ;
#6 = FACE_OUTER_BOUND ( 'NONE', #94, .T. ) ;
#7 = VERTEX_POINT ( 'NONE', #140 ) ;
#8 = SURFACE_STYLE_USAGE ( .BOTH. , #146 ) ;
#9 = EDGE_LOOP ( 'NONE', ( #118, #306, #147, #340, #122 ) ) ;
#10 = VECTOR ( 'NONE', #276, 39.37007874015748143 ) ;
#11 = SURFACE_SIDE_STYLE ('',( #263 ) ) ;
#12 = ORIENTED_EDGE ( 'NONE', *, *, #26, .T. ) ;
#13 = DIRECTION ( 'NONE',  ( -0.0000000000000000000, -0.0000000000000000000, -1.000000000000000000 ) ) ;
#14 = ORIENTED_EDGE ( 'NONE', *, *, #54, .F. ) ;
#15 = ORIENTED_EDGE ( 'NONE', *, *, #26, .F. ) ;
#16 = CIRCLE ( 'NONE', #167, 0.1181100000000000344 ) ;
#17 = AXIS2_PLACEMENT_3D ( 'NONE', #166, #132, #4 ) ;
#18 = DIRECTION ( 'NONE',  ( 0.0000000000000000000, 0.0000000000000000000, 1.000000000000000000 ) ) ;
#19 = DIMENSIONAL_EXPONENTS ( 1.000000000000000000, 0.0000000000000000000, 0.0000000000000000000, 0.0000000000000000000, 0.0000000000000000000, 0.0000000000000000000, 0.0000000000000000000 ) ;
#20 = CARTESIAN_POINT ( 'NONE',  ( 0.1031099999999991745, 1.354581824536882559E-17, 2.952755999999999936 ) ) ;
#21 = DIRECTION ( 'NONE',  ( -0.0000000000000000000, -0.0000000000000000000, -1.000000000000000000 ) ) ;
#22 = DIRECTION ( 'NONE',  ( -1.000000000000000000, 0.0000000000000000000, 0.0000000000000000000 ) ) ;
#23 = DIRECTION ( 'NONE',  ( 0.0000000000000000000, 1.000000000000000000, 0.0000000000000000000 ) ) ;
#24 = CARTESIAN_POINT ( 'NONE',  ( 0.0000000000000000000, 0.0000000000000000000, 0.06928860975630385388 ) ) ;
#25 = AXIS2_PLACEMENT_3D ( 'NONE', #210, #21, #293 ) ;
#26 = EDGE_CURVE ( 'NONE', #178, #46, #51, .T. ) ;
#27 = DIRECTION ( 'NONE',  ( -0.0000000000000000000, -0.0000000000000000000, -1.000000000000000000 ) ) ;
#28 = CARTESIAN_POINT ( 'NONE',  ( 0.1181100000000000344, 1.446430334472939084E-17, 2.937755999999999368 ) ) ;
#29 = CARTESIAN_POINT ( 'NONE',  ( 0.0000000000000000000, 0.0000000000000000000, 0.03937000000000000915 ) ) ;
#30 = CARTESIAN_POINT ( 'NONE',  ( 0.0000000000000000000, 0.0000000000000000000, 0.0000000000000000000 ) ) ;
#31 = AXIS2_PLACEMENT_3D ( 'NONE', #344, #213, #182 ) ;
#32 = AXIS2_PLACEMENT_3D ( 'NONE', #104, #266, #23 ) ;
#33 = AXIS2_PLACEMENT_3D ( 'NONE', #29, #299, #134 ) ;
#34 = CYLINDRICAL_SURFACE ( 'NONE', #82, 0.1181100000000000344 ) ;
#35 = ORIENTED_EDGE ( 'NONE', *, *, #151, .F. ) ;
#36 = FACE_OUTER_BOUND ( 'NONE', #256, .T. ) ;
#37 = PRODUCT_DEFINITION_CONTEXT ( 'detailed design', #341, 'design' ) ;
#38 = ORIENTED_EDGE ( 'NONE', *, *, #143, .F. ) ;
#39 = CARTESIAN_POINT ( 'NONE',  ( 0.0000000000000000000, 0.0000000000000000000, 0.03937000000000000915 ) ) ;
#40 = SHAPE_DEFINITION_REPRESENTATION ( #267, #243 ) ;
#41 = DIRECTION ( 'NONE',  ( 0.0000000000000000000, 0.0000000000000000000, 1.000000000000000000 ) ) ;
#42 = ORIENTED_EDGE ( 'NONE', *, *, #128, .F. ) ;
#43 = AXIS2_PLACEMENT_3D ( 'NONE', #66, #234, #149 ) ;
#44 = VECTOR ( 'NONE', #85, 39.37007874015748854 ) ;
#45 = CARTESIAN_POINT ( 'NONE',  ( 0.0000000000000000000, 0.0000000000000000000, 1.547998148936168050 ) ) ;
#46 = VERTEX_POINT ( 'NONE', #259 ) ;
#47 = PRODUCT_CONTEXT ( 'NONE', #328, 'mechanical' ) ;
#48 = ORIENTED_EDGE ( 'NONE', *, *, #54, .T. ) ;
#49 = CARTESIAN_POINT ( 'NONE',  ( -0.02559049999999995356, 8.799117868043711275E-18, 0.3937009999999999676 ) ) ;
#50 = LINE ( 'NONE', #237, #97 ) ;
#51 = LINE ( 'NONE', #103, #219 ) ;
#52 = DIRECTION ( 'NONE',  ( -1.000000000000000000, 0.0000000000000000000, 0.0000000000000000000 ) ) ;
#53 = CARTESIAN_POINT ( 'NONE',  ( 0.0000000000000000000, 0.0000000000000000000, 2.952755999999999936 ) ) ;
#54 = EDGE_CURVE ( 'NONE', #338, #73, #206, .T. ) ;
#55 = EDGE_CURVE ( 'NONE', #178, #113, #291, .T. ) ;
#56 = LINE ( 'NONE', #111, #10 ) ;
#57 = FACE_OUTER_BOUND ( 'NONE', #336, .T. ) ;
#58 = DIRECTION ( 'NONE',  ( 0.0000000000000000000, 0.0000000000000000000, 1.000000000000000000 ) ) ;
#59 =( NAMED_UNIT ( * ) PLANE_ANGLE_UNIT ( ) SI_UNIT ( $, .RADIAN. ) );
#60 = VECTOR ( 'NONE', #123, 39.37007874015748143 ) ;
#61 = CIRCLE ( 'NONE', #17, 0.03936999999999999528 ) ;
#62 = ADVANCED_FACE ( 'NONE', ( #302 ), #308, .T. ) ;
#63 = CARTESIAN_POINT ( 'NONE',  ( 0.1181100000000000344, 1.446430334472939084E-17, 2.952755999999999936 ) ) ;
#64 = ORIENTED_EDGE ( 'NONE', *, *, #115, .T. ) ;
#65 = DIRECTION ( 'NONE',  ( -1.000000000000000000, 0.0000000000000000000, 0.0000000000000000000 ) ) ;
#66 = CARTESIAN_POINT ( 'NONE',  ( 0.0000000000000000000, 0.0000000000000000000, 2.937755999999999368 ) ) ;
#67 = CYLINDRICAL_SURFACE ( 'NONE', #215, 0.02559049999999996397 ) ;
#68 = FACE_OUTER_BOUND ( 'NONE', #88, .T. ) ;
#69 = ORIENTED_EDGE ( 'NONE', *, *, #55, .F. ) ;
#70 = ORIENTED_EDGE ( 'NONE', *, *, #195, .F. ) ;
#71 = CONICAL_SURFACE ( 'NONE', #159, 0.1031099999999991745, 0.7853981633974500554 ) ;
#72 = MECHANICAL_DESIGN_GEOMETRIC_PRESENTATION_REPRESENTATION (  '', ( #2 ), #168 ) ;
#73 = VERTEX_POINT ( 'NONE', #277 ) ;
#74 = CARTESIAN_POINT ( 'NONE',  ( 0.0000000000000000000, 0.0000000000000000000, 2.952755999999999936 ) ) ;
#75 = EDGE_CURVE ( 'NONE', #178, #222, #114, .T. ) ;
#76 = ORIENTED_EDGE ( 'NONE', *, *, #124, .F. ) ;
#77 = DIRECTION ( 'NONE',  ( 0.0000000000000000000, 0.0000000000000000000, 1.000000000000000000 ) ) ;
#78 = CARTESIAN_POINT ( 'NONE',  ( 0.0000000000000000000, 0.0000000000000000000, 2.952755999999999936 ) ) ;
#79 = AXIS2_PLACEMENT_3D ( 'NONE', #240, #343, #22 ) ;
#80 = AXIS2_PLACEMENT_3D ( 'NONE', #53, #161, #270 ) ;
#81 = CARTESIAN_POINT ( 'NONE',  ( 0.0000000000000000000, 0.0000000000000000000, 2.952755999999999936 ) ) ;
#82 = AXIS2_PLACEMENT_3D ( 'NONE', #201, #137, #133 ) ;
#83 = DIRECTION ( 'NONE',  ( -0.7071067811865486830, 0.0000000000000000000, -0.7071067811865462405 ) ) ;
#84 = DIRECTION ( 'NONE',  ( 1.000000000000000000, 0.0000000000000000000, 0.0000000000000000000 ) ) ;
#85 = DIRECTION ( 'NONE',  ( 0.7071067811865486830, 8.659560562354947649E-17, -0.7071067811865462405 ) ) ;
#86 =( NAMED_UNIT ( * ) PLANE_ANGLE_UNIT ( ) SI_UNIT ( $, .RADIAN. ) );
#87 = AXIS2_PLACEMENT_3D ( 'NONE', #121, #95, #65 ) ;
#88 = EDGE_LOOP ( 'NONE', ( #69, #12, #209, #38 ) ) ;
#89 = CONICAL_SURFACE ( 'NONE', #225, 0.1031099999999991745, 0.7853981633974500554 ) ;
#90 = CARTESIAN_POINT ( 'NONE',  ( 0.0000000000000000000, 0.0000000000000000000, 2.952755999999999936 ) ) ;
#91 = CARTESIAN_POINT ( 'NONE',  ( 0.0000000000000000000, 0.0000000000000000000, 1.547998148936168050 ) ) ;
#92 = EDGE_CURVE ( 'NONE', #222, #268, #283, .T. ) ;
#93 = ORIENTED_EDGE ( 'NONE', *, *, #164, .T. ) ;
#94 = EDGE_LOOP ( 'NONE', ( #70, #208, #205, #304 ) ) ;
#95 = DIRECTION ( 'NONE',  ( -0.0000000000000000000, -0.0000000000000000000, -1.000000000000000000 ) ) ;
#96 = ORIENTED_EDGE ( 'NONE', *, *, #92, .F. ) ;
#97 = VECTOR ( 'NONE', #239, 39.37007874015748143 ) ;
#98 = DIRECTION ( 'NONE',  ( -1.000000000000000000, 0.0000000000000000000, 0.0000000000000000000 ) ) ;
#99 = EDGE_LOOP ( 'NONE', ( #150, #35, #279, #202 ) ) ;
#100 = ADVANCED_FACE ( 'NONE', ( #36 ), #174, .T. ) ;
#101 = DIRECTION ( 'NONE',  ( 1.000000000000000000, 0.0000000000000000000, 0.0000000000000000000 ) ) ;
#102 = AXIS2_PLACEMENT_3D ( 'NONE', #24, #126, #342 ) ;
#103 = CARTESIAN_POINT ( 'NONE',  ( -0.1299209999999998144, 1.591073367920230651E-17, 1.547998148936168050 ) ) ;
#104 = CARTESIAN_POINT ( 'NONE',  ( 0.0000000000000000000, 0.0000000000000000000, 0.03937000000000000915 ) ) ;
#105 = AXIS2_PLACEMENT_3D ( 'NONE', #252, #107, #220 ) ;
#106 = MECHANICAL_DESIGN_GEOMETRIC_PRESENTATION_REPRESENTATION (  '', ( #192 ), #326 ) ;
#107 = DIRECTION ( 'NONE',  ( 0.0000000000000000000, 0.0000000000000000000, 1.000000000000000000 ) ) ;
#108 = CARTESIAN_POINT ( 'NONE',  ( -0.02559049999999998132, 0.0000000000000000000, 0.06928860975630385388 ) ) ;
#109 = PRODUCT_RELATED_PRODUCT_CATEGORY ( 'part', '', ( #190 ) ) ;
#110 = DIRECTION ( 'NONE',  ( -0.0000000000000000000, -0.0000000000000000000, -1.000000000000000000 ) ) ;
#111 = CARTESIAN_POINT ( 'NONE',  ( 0.02559049999999996397, 3.133932391358030164E-18, 0.0000000000000000000 ) ) ;
#112 = CARTESIAN_POINT ( 'NONE',  ( -0.1031099999999991745, 0.0000000000000000000, 2.952755999999999936 ) ) ;
#113 = VERTEX_POINT ( 'NONE', #148 ) ;
#114 = LINE ( 'NONE', #228, #60 ) ;
#115 = EDGE_CURVE ( 'NONE', #338, #7, #271, .T. ) ;
#116 = EDGE_LOOP ( 'NONE', ( #188, #175, #248, #160 ) ) ;
#117 = PRESENTATION_STYLE_ASSIGNMENT (( #183 ) ) ;
#118 = ORIENTED_EDGE ( 'NONE', *, *, #280, .F. ) ;
#119 = LENGTH_MEASURE_WITH_UNIT ( LENGTH_MEASURE( 0.02539999999999999897 ), #207 );
#120 = ORIENTED_EDGE ( 'NONE', *, *, #151, .T. ) ;
#121 = CARTESIAN_POINT ( 'NONE',  ( 0.0000000000000000000, 0.0000000000000000000, 0.3937009999999999676 ) ) ;
#122 = ORIENTED_EDGE ( 'NONE', *, *, #191, .F. ) ;
#123 = DIRECTION ( 'NONE',  ( -0.0000000000000000000, -0.0000000000000000000, -1.000000000000000000 ) ) ;
#124 = EDGE_CURVE ( 'NONE', #7, #46, #50, .T. ) ;
#125 = DIRECTION ( 'NONE',  ( -0.0000000000000000000, -0.0000000000000000000, -1.000000000000000000 ) ) ;
#126 = DIRECTION ( 'NONE',  ( -0.0000000000000000000, -0.0000000000000000000, -1.000000000000000000 ) ) ;
#127 = EDGE_CURVE ( 'NONE', #268, #332, #339, .T. ) ;
#128 = EDGE_CURVE ( 'NONE', #113, #178, #181, .T. ) ;
#129 = EDGE_CURVE ( 'NONE', #258, #222, #301, .T. ) ;
#130 = VERTEX_POINT ( 'NONE', #20 ) ;
#131 = ADVANCED_FACE ( 'NONE', ( #241 ), #185, .T. ) ;
#132 = DIRECTION ( 'NONE',  ( 1.000000000000000000, 1.224646799147353207E-16, -0.0000000000000000000 ) ) ;
#133 = DIRECTION ( 'NONE',  ( -1.000000000000000000, 0.0000000000000000000, 0.0000000000000000000 ) ) ;
#134 = DIRECTION ( 'NONE',  ( 0.0000000000000000000, 0.0000000000000000000, 1.000000000000000000 ) ) ;
#135 = SURFACE_STYLE_FILL_AREA ( #154 ) ;
#136 = VECTOR ( 'NONE', #323, 39.37007874015748854 ) ;
#137 = DIRECTION ( 'NONE',  ( -0.0000000000000000000, -0.0000000000000000000, -1.000000000000000000 ) ) ;
#138 =( GEOMETRIC_REPRESENTATION_CONTEXT ( 3 ) GLOBAL_UNCERTAINTY_ASSIGNED_CONTEXT ( ( #145 ) ) GLOBAL_UNIT_ASSIGNED_CONTEXT ( ( #245, #86, #198 ) ) REPRESENTATION_CONTEXT ( 'NONE', 'WORKASPACE' ) );
#139 = CYLINDRICAL_SURFACE ( 'NONE', #79, 0.1181100000000000344 ) ;
#140 = CARTESIAN_POINT ( 'NONE',  ( -0.1181100000000000344, 0.0000000000000000000, 2.937755999999999368 ) ) ;
#141 = CARTESIAN_POINT ( 'NONE',  ( 0.0000000000000000000, 2.410717224121564242E-18, 1.707404996040164512E-17 ) ) ;
#142 = ORIENTED_EDGE ( 'NONE', *, *, #186, .F. ) ;
#143 = EDGE_CURVE ( 'NONE', #113, #73, #321, .T. ) ;
#144 = DIRECTION ( 'NONE',  ( 0.0000000000000000000, 1.000000000000000000, 0.0000000000000000000 ) ) ;
#145 = UNCERTAINTY_MEASURE_WITH_UNIT (LENGTH_MEASURE( 1.000000000000000082E-05 ), #245, 'distance_accuracy_value', 'NONE');
#146 = SURFACE_SIDE_STYLE ('',( #135 ) ) ;
#147 = ORIENTED_EDGE ( 'NONE', *, *, #75, .T. ) ;
#148 = CARTESIAN_POINT ( 'NONE',  ( 0.02559049999999995356, 0.0000000000000000000, 0.3937009999999999676 ) ) ;
#149 = DIRECTION ( 'NONE',  ( 1.000000000000000000, 0.0000000000000000000, 0.0000000000000000000 ) ) ;
#150 = ORIENTED_EDGE ( 'NONE', *, *, #320, .F. ) ;
#151 = EDGE_CURVE ( 'NONE', #316, #130, #253, .T. ) ;
#152 = ORIENTED_EDGE ( 'NONE', *, *, #186, .T. ) ;
#153 = ORIENTED_EDGE ( 'NONE', *, *, #280, .T. ) ;
#154 = FILL_AREA_STYLE ('',( #295 ) ) ;
#155 = CLOSED_SHELL ( 'NONE', ( #324, #100, #157, #298, #310, #170, #62, #158, #296, #131, #179 ) ) ;
#156 = COLOUR_RGB ( '',0.7921568627450980005, 0.8196078431372548767, 0.9333333333333333481 ) ;
#157 = ADVANCED_FACE ( 'NONE', ( #68 ), #311, .T. ) ;
#158 = ADVANCED_FACE ( 'NONE', ( #289 ), #71, .T. ) ;
#159 = AXIS2_PLACEMENT_3D ( 'NONE', #90, #232, #309 ) ;
#160 = ORIENTED_EDGE ( 'NONE', *, *, #261, .T. ) ;
#161 = DIRECTION ( 'NONE',  ( 0.0000000000000000000, 0.0000000000000000000, 1.000000000000000000 ) ) ;
#162 = AXIS2_PLACEMENT_3D ( 'NONE', #251, #315, #184 ) ;
#163 = DIRECTION ( 'NONE',  ( -1.000000000000000000, 0.0000000000000000000, 0.0000000000000000000 ) ) ;
#164 = EDGE_CURVE ( 'NONE', #73, #46, #294, .T. ) ;
#165 = PRESENTATION_STYLE_ASSIGNMENT (( #8 ) ) ;
#166 = CARTESIAN_POINT ( 'NONE',  ( 0.0000000000000000000, 0.0000000000000000000, 0.03937000000000000915 ) ) ;
#167 = AXIS2_PLACEMENT_3D ( 'NONE', #269, #189, #322 ) ;
#168 =( GEOMETRIC_REPRESENTATION_CONTEXT ( 3 ) GLOBAL_UNCERTAINTY_ASSIGNED_CONTEXT ( ( #278 ) ) GLOBAL_UNIT_ASSIGNED_CONTEXT ( ( #265, #230, #313 ) ) REPRESENTATION_CONTEXT ( 'NONE', 'WORKASPACE' ) );
#169 = DIRECTION ( 'NONE',  ( -1.000000000000000000, 0.0000000000000000000, 0.0000000000000000000 ) ) ;
#170 = ADVANCED_FACE ( 'NONE', ( #57 ), #139, .T. ) ;
#171 = DIRECTION ( 'NONE',  ( -0.0000000000000000000, -0.0000000000000000000, -1.000000000000000000 ) ) ;
#172 = ORIENTED_EDGE ( 'NONE', *, *, #55, .T. ) ;
#173 = EDGE_LOOP ( 'NONE', ( #15, #42, #231, #142 ) ) ;
#174 = SPHERICAL_SURFACE ( 'NONE', #242, 0.03936999999999999528 ) ;
#175 = ORIENTED_EDGE ( 'NONE', *, *, #129, .T. ) ;
#176 = CIRCLE ( 'NONE', #33, 0.03936999999999999528 ) ;
#177 = ORIENTED_EDGE ( 'NONE', *, *, #216, .T. ) ;
#178 = VERTEX_POINT ( 'NONE', #49 ) ;
#179 = ADVANCED_FACE ( 'NONE', ( #212 ), #264, .T. ) ;
#180 = DIRECTION ( 'NONE',  ( 1.000000000000000000, 0.0000000000000000000, 0.0000000000000000000 ) ) ;
#181 = CIRCLE ( 'NONE', #25, 0.02559049999999995356 ) ;
#182 = DIRECTION ( 'NONE',  ( -1.000000000000000000, 0.0000000000000000000, 0.0000000000000000000 ) ) ;
#183 = SURFACE_STYLE_USAGE ( .BOTH. , #11 ) ;
#184 = DIRECTION ( 'NONE',  ( 1.000000000000000000, 0.0000000000000000000, 0.0000000000000000000 ) ) ;
#185 = SPHERICAL_SURFACE ( 'NONE', #32, 0.03936999999999999528 ) ;
#186 = EDGE_CURVE ( 'NONE', #46, #73, #16, .T. ) ;
#187 = VECTOR ( 'NONE', #83, 39.37007874015748854 ) ;
#188 = ORIENTED_EDGE ( 'NONE', *, *, #216, .F. ) ;
#189 = DIRECTION ( 'NONE',  ( 0.0000000000000000000, 0.0000000000000000000, 1.000000000000000000 ) ) ;
#190 = PRODUCT ( 'Micro_SBMM-020-410', 'Micro_SBMM-020-410', '', ( #47 ) ) ;
#191 = EDGE_CURVE ( 'NONE', #332, #258, #325, .T. ) ;
#192 = STYLED_ITEM ( 'NONE', ( #165 ), #274 ) ;
#193 = CARTESIAN_POINT ( 'NONE',  ( 3.133932391358032860E-18, -0.02559049999999999173, 0.06928860975630385388 ) ) ;
#194 = FACE_OUTER_BOUND ( 'NONE', #229, .T. ) ;
#195 = EDGE_CURVE ( 'NONE', #130, #316, #233, .T. ) ;
#196 = CARTESIAN_POINT ( 'NONE',  ( 0.1031099999999991745, 1.262733314600825725E-17, 2.952755999999999936 ) ) ;
#197 = CARTESIAN_POINT ( 'NONE',  ( 0.0000000000000000000, 0.0000000000000000000, 0.06928860975630385388 ) ) ;
#198 =( NAMED_UNIT ( * ) SI_UNIT ( $, .STERADIAN. ) SOLID_ANGLE_UNIT ( ) );
#199 = ORIENTED_EDGE ( 'NONE', *, *, #5, .T. ) ;
#200 = DIRECTION ( 'NONE',  ( 1.000000000000000000, 0.0000000000000000000, -0.0000000000000000000 ) ) ;
#201 = CARTESIAN_POINT ( 'NONE',  ( 0.0000000000000000000, 0.0000000000000000000, 2.952755999999999936 ) ) ;
#202 = ORIENTED_EDGE ( 'NONE', *, *, #115, .F. ) ;
#203 = DIRECTION ( 'NONE',  ( 0.0000000000000000000, 0.0000000000000000000, 1.000000000000000000 ) ) ;
#204 = DIRECTION ( 'NONE',  ( 1.000000000000000000, 0.0000000000000000000, 0.0000000000000000000 ) ) ;
#205 = ORIENTED_EDGE ( 'NONE', *, *, #5, .F. ) ;
#206 = LINE ( 'NONE', #63, #329 ) ;
#207 =( LENGTH_UNIT ( ) NAMED_UNIT ( * ) SI_UNIT ( $, .METRE. ) );
#208 = ORIENTED_EDGE ( 'NONE', *, *, #320, .T. ) ;
#209 = ORIENTED_EDGE ( 'NONE', *, *, #164, .F. ) ;
#210 = CARTESIAN_POINT ( 'NONE',  ( 0.0000000000000000000, 0.0000000000000000000, 0.3937009999999999676 ) ) ;
#211 = AXIS2_PLACEMENT_3D ( 'NONE', #197, #171, #98 ) ;
#212 = FACE_OUTER_BOUND ( 'NONE', #9, .T. ) ;
#213 = DIRECTION ( 'NONE',  ( -0.0000000000000000000, -0.0000000000000000000, -1.000000000000000000 ) ) ;
#214 = CARTESIAN_POINT ( 'NONE',  ( 0.1299209999999998144, 0.0000000000000000000, 1.547998148936168050 ) ) ;
#215 = AXIS2_PLACEMENT_3D ( 'NONE', #30, #110, #169 ) ;
#216 = EDGE_CURVE ( 'NONE', #258, #335, #61, .T. ) ;
#217 = DIRECTION ( 'NONE',  ( -1.000000000000000000, 0.0000000000000000000, 0.0000000000000000000 ) ) ;
#218 = LINE ( 'NONE', #327, #187 ) ;
#219 = VECTOR ( 'NONE', #257, 39.37007874015748854 ) ;
#220 = DIRECTION ( 'NONE',  ( 1.000000000000000000, 0.0000000000000000000, 0.0000000000000000000 ) ) ;
#221 = LENGTH_MEASURE_WITH_UNIT ( LENGTH_MEASURE( 0.02539999999999999897 ), #331 );
#222 = VERTEX_POINT ( 'NONE', #108 ) ;
#223 = DIRECTION ( 'NONE',  ( 1.000000000000000000, 0.0000000000000000000, 0.0000000000000000000 ) ) ;
#224 = AXIS2_PLACEMENT_3D ( 'NONE', #78, #77, #101 ) ;
#225 = AXIS2_PLACEMENT_3D ( 'NONE', #81, #272, #217 ) ;
#226 =( NAMED_UNIT ( * ) SI_UNIT ( $, .STERADIAN. ) SOLID_ANGLE_UNIT ( ) );
#227 = EDGE_LOOP ( 'NONE', ( #120, #287 ) ) ;
#228 = CARTESIAN_POINT ( 'NONE',  ( -0.02559049999999996397, 0.0000000000000000000, 0.0000000000000000000 ) ) ;
#229 = EDGE_LOOP ( 'NONE', ( #199, #48, #93, #76 ) ) ;
#230 =( NAMED_UNIT ( * ) PLANE_ANGLE_UNIT ( ) SI_UNIT ( $, .RADIAN. ) );
#231 = ORIENTED_EDGE ( 'NONE', *, *, #143, .T. ) ;
#232 = DIRECTION ( 'NONE',  ( 0.0000000000000000000, 0.0000000000000000000, -1.000000000000000000 ) ) ;
#233 = CIRCLE ( 'NONE', #80, 0.1031099999999991745 ) ;
#234 = DIRECTION ( 'NONE',  ( 0.0000000000000000000, 0.0000000000000000000, -1.000000000000000000 ) ) ;
#235 = EDGE_LOOP ( 'NONE', ( #172, #153, #314, #96, #307 ) ) ;
#236 = PRESENTATION_LAYER_ASSIGNMENT (  '', '', ( #2 ) ) ;
#237 = CARTESIAN_POINT ( 'NONE',  ( -0.1181100000000000344, 0.0000000000000000000, 2.952755999999999936 ) ) ;
#238 = FILL_AREA_STYLE ('',( #319 ) ) ;
#239 = DIRECTION ( 'NONE',  ( -0.0000000000000000000, -0.0000000000000000000, -1.000000000000000000 ) ) ;
#240 = CARTESIAN_POINT ( 'NONE',  ( 0.0000000000000000000, 0.0000000000000000000, 2.952755999999999936 ) ) ;
#241 = FACE_OUTER_BOUND ( 'NONE', #116, .T. ) ;
#242 = AXIS2_PLACEMENT_3D ( 'NONE', #39, #223, #144 ) ;
#243 = ADVANCED_BREP_SHAPE_REPRESENTATION ( 'Micro_SBMM-020-410', ( #274, #275 ), #138 ) ;
#244 = PRESENTATION_LAYER_ASSIGNMENT (  '', '', ( #192 ) ) ;
#245 =( CONVERSION_BASED_UNIT ( 'INCH', #221 ) LENGTH_UNIT ( ) NAMED_UNIT ( #19 ) );
#246 = EDGE_CURVE ( 'NONE', #316, #7, #218, .T. ) ;
#247 = UNCERTAINTY_MEASURE_WITH_UNIT (LENGTH_MEASURE( 1.000000000000000082E-05 ), #330, 'distance_accuracy_value', 'NONE');
#248 = ORIENTED_EDGE ( 'NONE', *, *, #92, .T. ) ;
#249 = LENGTH_MEASURE_WITH_UNIT ( LENGTH_MEASURE( 0.02539999999999999897 ), #281 );
#250 = ORIENTED_EDGE ( 'NONE', *, *, #261, .F. ) ;
#251 = CARTESIAN_POINT ( 'NONE',  ( 0.0000000000000000000, 0.0000000000000000000, 2.937755999999999368 ) ) ;
#252 = CARTESIAN_POINT ( 'NONE',  ( 0.0000000000000000000, 0.0000000000000000000, 1.417323000000000333 ) ) ;
#253 = CIRCLE ( 'NONE', #224, 0.1031099999999991745 ) ;
#254 = PRODUCT_DEFINITION ( 'UNKNOWN', '', #292, #37 ) ;
#255 = CONICAL_SURFACE ( 'NONE', #334, 0.1299209999999998144, 0.09013951093658492675 ) ;
#256 = EDGE_LOOP ( 'NONE', ( #285, #260, #177, #250 ) ) ;
#257 = DIRECTION ( 'NONE',  ( -0.09001749462147050351, 1.102396366554479456E-17, 0.9959401842791932857 ) ) ;
#258 = VERTEX_POINT ( 'NONE', #193 ) ;
#259 = CARTESIAN_POINT ( 'NONE',  ( -0.1181100000000000344, 0.0000000000000000000, 1.417323000000000333 ) ) ;
#260 = ORIENTED_EDGE ( 'NONE', *, *, #191, .T. ) ;
#261 = EDGE_CURVE ( 'NONE', #268, #335, #176, .T. ) ;
#262 = AXIS2_PLACEMENT_3D ( 'NONE', #45, #41, #180 ) ;
#263 = SURFACE_STYLE_FILL_AREA ( #238 ) ;
#264 = CYLINDRICAL_SURFACE ( 'NONE', #1, 0.02559049999999996397 ) ;
#265 =( CONVERSION_BASED_UNIT ( 'INCH', #119 ) LENGTH_UNIT ( ) NAMED_UNIT ( #317 ) );
#266 = DIRECTION ( 'NONE',  ( 1.000000000000000000, 0.0000000000000000000, 0.0000000000000000000 ) ) ;
#267 = PRODUCT_DEFINITION_SHAPE ( 'NONE', 'NONE',  #254 ) ;
#268 = VERTEX_POINT ( 'NONE', #345 ) ;
#269 = CARTESIAN_POINT ( 'NONE',  ( 0.0000000000000000000, 0.0000000000000000000, 1.417323000000000333 ) ) ;
#270 = DIRECTION ( 'NONE',  ( 1.000000000000000000, 0.0000000000000000000, 0.0000000000000000000 ) ) ;
#271 = CIRCLE ( 'NONE', #162, 0.1181100000000000344 ) ;
#272 = DIRECTION ( 'NONE',  ( 0.0000000000000000000, 0.0000000000000000000, -1.000000000000000000 ) ) ;
#273 = FACE_OUTER_BOUND ( 'NONE', #235, .T. ) ;
#274 = MANIFOLD_SOLID_BREP ( 'Cut-Revolve3', #155 ) ;
#275 = AXIS2_PLACEMENT_3D ( 'NONE', #286, #18, #204 ) ;
#276 = DIRECTION ( 'NONE',  ( -0.0000000000000000000, -0.0000000000000000000, -1.000000000000000000 ) ) ;
#277 = CARTESIAN_POINT ( 'NONE',  ( 0.1181100000000000344, 1.446430334472939084E-17, 1.417323000000000333 ) ) ;
#278 = UNCERTAINTY_MEASURE_WITH_UNIT (LENGTH_MEASURE( 1.000000000000000082E-05 ), #265, 'distance_accuracy_value', 'NONE');
#279 = ORIENTED_EDGE ( 'NONE', *, *, #246, .T. ) ;
#280 = EDGE_CURVE ( 'NONE', #113, #332, #56, .T. ) ;
#281 =( LENGTH_UNIT ( ) NAMED_UNIT ( * ) SI_UNIT ( $, .METRE. ) );
#282 = ORIENTED_EDGE ( 'NONE', *, *, #124, .T. ) ;
#283 = CIRCLE ( 'NONE', #211, 0.02559049999999998132 ) ;
#284 = APPLICATION_PROTOCOL_DEFINITION ( 'draft international standard', 'automotive_design', 1998, #328 ) ;
#285 = ORIENTED_EDGE ( 'NONE', *, *, #127, .T. ) ;
#286 = CARTESIAN_POINT ( 'NONE',  ( 0.0000000000000000000, 0.0000000000000000000, 0.0000000000000000000 ) ) ;
#287 = ORIENTED_EDGE ( 'NONE', *, *, #195, .T. ) ;
#288 = CARTESIAN_POINT ( 'NONE',  ( 0.0000000000000000000, 0.0000000000000000000, 0.0000000000000000000 ) ) ;
#289 = FACE_OUTER_BOUND ( 'NONE', #99, .T. ) ;
#290 = DIMENSIONAL_EXPONENTS ( 1.000000000000000000, 0.0000000000000000000, 0.0000000000000000000, 0.0000000000000000000, 0.0000000000000000000, 0.0000000000000000000, 0.0000000000000000000 ) ;
#291 = CIRCLE ( 'NONE', #87, 0.02559049999999995356 ) ;
#292 = PRODUCT_DEFINITION_FORMATION_WITH_SPECIFIED_SOURCE ( 'ANY', '', #190, .NOT_KNOWN. ) ;
#293 = DIRECTION ( 'NONE',  ( -1.000000000000000000, 0.0000000000000000000, 0.0000000000000000000 ) ) ;
#294 = CIRCLE ( 'NONE', #105, 0.1181100000000000344 ) ;
#295 = FILL_AREA_STYLE_COLOUR ( '', #312 ) ;
#296 = ADVANCED_FACE ( 'NONE', ( #303 ), #255, .T. ) ;
#297 = AXIS2_PLACEMENT_3D ( 'NONE', #3, #27, #163 ) ;
#298 = ADVANCED_FACE ( 'NONE', ( #6 ), #89, .T. ) ;
#299 = DIRECTION ( 'NONE',  ( -1.000000000000000000, 0.0000000000000000000, 0.0000000000000000000 ) ) ;
#300 = CARTESIAN_POINT ( 'NONE',  ( 0.02559049999999998132, 3.133932391358031704E-18, 0.06928860975630385388 ) ) ;
#301 = CIRCLE ( 'NONE', #31, 0.02559049999999998132 ) ;
#302 = FACE_OUTER_BOUND ( 'NONE', #227, .T. ) ;
#303 = FACE_OUTER_BOUND ( 'NONE', #173, .T. ) ;
#304 = ORIENTED_EDGE ( 'NONE', *, *, #246, .F. ) ;
#305 = LINE ( 'NONE', #196, #44 ) ;
#306 = ORIENTED_EDGE ( 'NONE', *, *, #128, .T. ) ;
#307 = ORIENTED_EDGE ( 'NONE', *, *, #75, .F. ) ;
#308 = PLANE ( 'NONE',  #333 ) ;
#309 = DIRECTION ( 'NONE',  ( -1.000000000000000000, 0.0000000000000000000, 0.0000000000000000000 ) ) ;
#310 = ADVANCED_FACE ( 'NONE', ( #194 ), #34, .T. ) ;
#311 = CONICAL_SURFACE ( 'NONE', #262, 0.1299209999999998144, 0.09013951093658492675 ) ;
#312 = COLOUR_RGB ( '',0.7921568627450980005, 0.8196078431372548767, 0.9333333333333333481 ) ;
#313 =( NAMED_UNIT ( * ) SI_UNIT ( $, .STERADIAN. ) SOLID_ANGLE_UNIT ( ) );
#314 = ORIENTED_EDGE ( 'NONE', *, *, #127, .F. ) ;
#315 = DIRECTION ( 'NONE',  ( 0.0000000000000000000, 0.0000000000000000000, -1.000000000000000000 ) ) ;
#316 = VERTEX_POINT ( 'NONE', #112 ) ;
#317 = DIMENSIONAL_EXPONENTS ( 1.000000000000000000, 0.0000000000000000000, 0.0000000000000000000, 0.0000000000000000000, 0.0000000000000000000, 0.0000000000000000000, 0.0000000000000000000 ) ;
#318 = CIRCLE ( 'NONE', #43, 0.1181100000000000344 ) ;
#319 = FILL_AREA_STYLE_COLOUR ( '', #156 ) ;
#320 = EDGE_CURVE ( 'NONE', #130, #338, #305, .T. ) ;
#321 = LINE ( 'NONE', #214, #136 ) ;
#322 = DIRECTION ( 'NONE',  ( 1.000000000000000000, 0.0000000000000000000, 0.0000000000000000000 ) ) ;
#323 = DIRECTION ( 'NONE',  ( 0.09001749462147050351, 0.0000000000000000000, 0.9959401842791932857 ) ) ;
#324 = ADVANCED_FACE ( 'NONE', ( #273 ), #67, .T. ) ;
#325 = CIRCLE ( 'NONE', #297, 0.02559049999999998132 ) ;
#326 =( GEOMETRIC_REPRESENTATION_CONTEXT ( 3 ) GLOBAL_UNCERTAINTY_ASSIGNED_CONTEXT ( ( #247 ) ) GLOBAL_UNIT_ASSIGNED_CONTEXT ( ( #330, #59, #226 ) ) REPRESENTATION_CONTEXT ( 'NONE', 'WORKASPACE' ) );
#327 = CARTESIAN_POINT ( 'NONE',  ( -0.1031099999999991745, 0.0000000000000000000, 2.952755999999999936 ) ) ;
#328 = APPLICATION_CONTEXT ( 'automotive_design' ) ;
#329 = VECTOR ( 'NONE', #13, 39.37007874015748143 ) ;
#330 =( CONVERSION_BASED_UNIT ( 'INCH', #249 ) LENGTH_UNIT ( ) NAMED_UNIT ( #290 ) );
#331 =( LENGTH_UNIT ( ) NAMED_UNIT ( * ) SI_UNIT ( $, .METRE. ) );
#332 = VERTEX_POINT ( 'NONE', #300 ) ;
#333 = AXIS2_PLACEMENT_3D ( 'NONE', #74, #203, #200 ) ;
#334 = AXIS2_PLACEMENT_3D ( 'NONE', #91, #58, #84 ) ;
#335 = VERTEX_POINT ( 'NONE', #141 ) ;
#336 = EDGE_LOOP ( 'NONE', ( #14, #64, #282, #152 ) ) ;
#337 = APPLICATION_PROTOCOL_DEFINITION ( 'draft international standard', 'automotive_design', 1998, #341 ) ;
#338 = VERTEX_POINT ( 'NONE', #28 ) ;
#339 = CIRCLE ( 'NONE', #102, 0.02559049999999998132 ) ;
#340 = ORIENTED_EDGE ( 'NONE', *, *, #129, .F. ) ;
#341 = APPLICATION_CONTEXT ( 'automotive_design' ) ;
#342 = DIRECTION ( 'NONE',  ( -1.000000000000000000, 0.0000000000000000000, 0.0000000000000000000 ) ) ;
#343 = DIRECTION ( 'NONE',  ( -0.0000000000000000000, -0.0000000000000000000, -1.000000000000000000 ) ) ;
#344 = CARTESIAN_POINT ( 'NONE',  ( 0.0000000000000000000, 0.0000000000000000000, 0.06928860975630385388 ) ) ;
#345 = CARTESIAN_POINT ( 'NONE',  ( 0.0000000000000000000, 0.02559049999999999173, 0.06928860975630385388 ) ) ;
ENDSEC;
END-ISO-10303-21;
