ISO-10303-21;
HEADER;
FILE_DESCRIPTION (( 'STEP AP214' ),
    '1' );
FILE_NAME ('Micro_GEC-062-3-010.STEP',
    '2021-09-03T17:03:06',
    ( '' ),
    ( '' ),
    'SwSTEP 2.0',
    'SolidWorks 2020',
    '' );
FILE_SCHEMA (( 'AUTOMOTIVE_DESIGN' ));
ENDSEC;

DATA;
#1 = DIRECTION ( 'NONE',  ( -1.000000000000000000, 0.0000000000000000000, 0.0000000000000000000 ) ) ;
#2 = AXIS2_PLACEMENT_3D ( 'NONE', #70, #239, #1 ) ;
#3 = CARTESIAN_POINT ( 'NONE',  ( 0.02121875000000000497, 0.0000000000000000000, 0.0000000000000000000 ) ) ;
#4 = CIRCLE ( 'NONE', #296, 0.06250000000000002776 ) ;
#5 = FACE_OUTER_BOUND ( 'NONE', #306, .T. ) ;
#6 = DIRECTION ( 'NONE',  ( -1.224646799147353700E-16, -0.0000000000000000000, -1.000000000000000000 ) ) ;
#7 = VECTOR ( 'NONE', #18, 39.37007874015748143 ) ;
#8 = PLANE ( 'NONE',  #109 ) ;
#9 = VERTEX_POINT ( 'NONE', #171 ) ;
#10 = FILL_AREA_STYLE_COLOUR ( '', #136 ) ;
#11 = EDGE_LOOP ( 'NONE', ( #243, #122 ) ) ;
#12 = DIRECTION ( 'NONE',  ( -1.224646799147353700E-16, -0.0000000000000000000, -1.000000000000000000 ) ) ;
#13 = ORIENTED_EDGE ( 'NONE', *, *, #132, .F. ) ;
#14 = ORIENTED_EDGE ( 'NONE', *, *, #123, .F. ) ;
#15 = DIRECTION ( 'NONE',  ( 1.000000000000000000, 0.0000000000000000000, 0.0000000000000000000 ) ) ;
#16 = DIRECTION ( 'NONE',  ( -1.224646799147353700E-16, -0.0000000000000000000, -1.000000000000000000 ) ) ;
#17 = SHAPE_DEFINITION_REPRESENTATION ( #312, #204 ) ;
#18 = DIRECTION ( 'NONE',  ( -1.224646799147353700E-16, -0.0000000000000000000, -1.000000000000000000 ) ) ;
#19 = ORIENTED_EDGE ( 'NONE', *, *, #56, .F. ) ;
#20 = CYLINDRICAL_SURFACE ( 'NONE', #180, 0.06250000000000002776 ) ;
#21 = CIRCLE ( 'NONE', #227, 0.01000000000000000021 ) ;
#22 = MECHANICAL_DESIGN_GEOMETRIC_PRESENTATION_REPRESENTATION (  '', ( #77 ), #335 ) ;
#23 = DIRECTION ( 'NONE',  ( 1.000000000000000000, 0.0000000000000000000, 0.0000000000000000000 ) ) ;
#24 = EDGE_CURVE ( 'NONE', #118, #270, #41, .T. ) ;
#25 = DIRECTION ( 'NONE',  ( -1.224646799147353700E-16, -0.0000000000000000000, -1.000000000000000000 ) ) ;
#26 = CARTESIAN_POINT ( 'NONE',  ( 0.0000000000000000000, 0.0000000000000000000, 1.500000000000000222 ) ) ;
#27 = AXIS2_PLACEMENT_3D ( 'NONE', #139, #12, #198 ) ;
#28 = DIRECTION ( 'NONE',  ( 0.7071067811865462405, 8.659560562354916834E-17, -0.7071067811865486830 ) ) ;
#29 = ORIENTED_EDGE ( 'NONE', *, *, #107, .T. ) ;
#30 = ORIENTED_EDGE ( 'NONE', *, *, #95, .F. ) ;
#31 = FILL_AREA_STYLE ('',( #161 ) ) ;
#32 = ORIENTED_EDGE ( 'NONE', *, *, #99, .F. ) ;
#33 = ORIENTED_EDGE ( 'NONE', *, *, #73, .F. ) ;
#34 = ADVANCED_FACE ( 'NONE', ( #316 ), #20, .T. ) ;
#35 = EDGE_LOOP ( 'NONE', ( #275, #86, #253, #302 ) ) ;
#36 = CIRCLE ( 'NONE', #293, 0.01000000000000000021 ) ;
#37 = ORIENTED_EDGE ( 'NONE', *, *, #286, .F. ) ;
#38 = DIRECTION ( 'NONE',  ( 1.000000000000000000, 0.0000000000000000000, 0.0000000000000000000 ) ) ;
#39 = DIRECTION ( 'NONE',  ( 0.0000000000000000000, 0.0000000000000000000, 1.000000000000000000 ) ) ;
#40 =( CONVERSION_BASED_UNIT ( 'INCH', #315 ) LENGTH_UNIT ( ) NAMED_UNIT ( #279 ) );
#41 = LINE ( 'NONE', #322, #258 ) ;
#42 = CONICAL_SURFACE ( 'NONE', #47, 0.03121875000000000691, 0.1745329251994338915 ) ;
#43 = CARTESIAN_POINT ( 'NONE',  ( -0.03121875000000000691, 0.0000000000000000000, 3.823194226088145998E-18 ) ) ;
#44 = ADVANCED_FACE ( 'NONE', ( #313 ), #288, .T. ) ;
#45 = DIRECTION ( 'NONE',  ( -1.000000000000000000, 0.0000000000000000000, 1.224646799147353700E-16 ) ) ;
#46 = FACE_OUTER_BOUND ( 'NONE', #277, .T. ) ;
#47 = AXIS2_PLACEMENT_3D ( 'NONE', #268, #50, #158 ) ;
#48 = DIRECTION ( 'NONE',  ( 0.0000000000000000000, 0.0000000000000000000, 1.000000000000000000 ) ) ;
#49 = FACE_OUTER_BOUND ( 'NONE', #233, .T. ) ;
#50 = DIRECTION ( 'NONE',  ( 1.224646799147353700E-16, 0.0000000000000000000, 1.000000000000000000 ) ) ;
#51 = LINE ( 'NONE', #160, #240 ) ;
#52 = AXIS2_PLACEMENT_3D ( 'NONE', #26, #134, #108 ) ;
#53 = ORIENTED_EDGE ( 'NONE', *, *, #247, .F. ) ;
#54 = SURFACE_SIDE_STYLE ('',( #114 ) ) ;
#55 = ORIENTED_EDGE ( 'NONE', *, *, #95, .T. ) ;
#56 = EDGE_CURVE ( 'NONE', #118, #173, #67, .T. ) ;
#57 = ORIENTED_EDGE ( 'NONE', *, *, #294, .F. ) ;
#58 = DIRECTION ( 'NONE',  ( 0.0000000000000000000, 0.0000000000000000000, 1.000000000000000000 ) ) ;
#59 = ORIENTED_EDGE ( 'NONE', *, *, #208, .F. ) ;
#60 = ORIENTED_EDGE ( 'NONE', *, *, #119, .T. ) ;
#61 = TOROIDAL_SURFACE ( 'NONE', #244, 0.02121875000000000497, 0.01000000000000000021 ) ;
#62 = DIRECTION ( 'NONE',  ( 1.000000000000000000, 0.0000000000000000000, 0.0000000000000000000 ) ) ;
#63 = CARTESIAN_POINT ( 'NONE',  ( 0.0000000000000000000, 0.0000000000000000000, 1.500000000000000222 ) ) ;
#64 = PRODUCT_CONTEXT ( 'NONE', #90, 'mechanical' ) ;
#65 = DIRECTION ( 'NONE',  ( -1.000000000000000000, 0.0000000000000000000, 0.0000000000000000000 ) ) ;
#66 = DIRECTION ( 'NONE',  ( 0.0000000000000000000, 0.0000000000000000000, -1.000000000000000000 ) ) ;
#67 = CIRCLE ( 'NONE', #301, 0.03121875000000000691 ) ;
#68 = PRODUCT_DEFINITION ( 'UNKNOWN', '', #317, #326 ) ;
#69 = DIRECTION ( 'NONE',  ( -1.000000000000000000, 0.0000000000000000000, 1.224646799147353700E-16 ) ) ;
#70 = CARTESIAN_POINT ( 'NONE',  ( 0.0000000000000000000, 0.0000000000000000000, 1.500000000000000222 ) ) ;
#71 = VECTOR ( 'NONE', #75, 39.37007874015748143 ) ;
#72 = FACE_OUTER_BOUND ( 'NONE', #340, .T. ) ;
#73 = EDGE_CURVE ( 'NONE', #79, #9, #307, .T. ) ;
#74 = FACE_OUTER_BOUND ( 'NONE', #81, .T. ) ;
#75 = DIRECTION ( 'NONE',  ( 0.1736481776669313859, 0.0000000000000000000, 0.9848077530122077983 ) ) ;
#76 = CARTESIAN_POINT ( 'NONE',  ( 2.302335982397025094E-17, 0.0000000000000000000, 0.1880000000000000282 ) ) ;
#77 = STYLED_ITEM ( 'NONE', ( #168 ), #204 ) ;
#78 = CARTESIAN_POINT ( 'NONE',  ( -0.06250000000000002776, 0.0000000000000000000, 1.500000000000000222 ) ) ;
#79 = VERTEX_POINT ( 'NONE', #210 ) ;
#80 = FILL_AREA_STYLE ('',( #10 ) ) ;
#81 = EDGE_LOOP ( 'NONE', ( #89, #53, #308, #30 ) ) ;
#82 = CARTESIAN_POINT ( 'NONE',  ( 0.06250000000000002776, 7.654042494670959086E-18, 1.485000000000000764 ) ) ;
#83 = AXIS2_PLACEMENT_3D ( 'NONE', #206, #16, #45 ) ;
#84 = ORIENTED_EDGE ( 'NONE', *, *, #260, .F. ) ;
#85 = DIRECTION ( 'NONE',  ( -1.000000000000000000, 0.0000000000000000000, 0.0000000000000000000 ) ) ;
#86 = ORIENTED_EDGE ( 'NONE', *, *, #333, .T. ) ;
#87 = AXIS2_PLACEMENT_3D ( 'NONE', #343, #344, #285 ) ;
#88 = DIMENSIONAL_EXPONENTS ( 1.000000000000000000, 0.0000000000000000000, 0.0000000000000000000, 0.0000000000000000000, 0.0000000000000000000, 0.0000000000000000000, 0.0000000000000000000 ) ;
#89 = ORIENTED_EDGE ( 'NONE', *, *, #284, .F. ) ;
#90 = APPLICATION_CONTEXT ( 'automotive_design' ) ;
#91 = DIRECTION ( 'NONE',  ( -0.7071067811865462405, 0.0000000000000000000, -0.7071067811865486830 ) ) ;
#92 = CIRCLE ( 'NONE', #27, 0.06250000000000002776 ) ;
#93 = CLOSED_SHELL ( 'NONE', ( #44, #221, #200, #188, #34, #225, #184, #182, #256, #157, #298, #167 ) ) ;
#94 = UNCERTAINTY_MEASURE_WITH_UNIT (LENGTH_MEASURE( 1.000000000000000082E-05 ), #269, 'distance_accuracy_value', 'NONE');
#95 = EDGE_CURVE ( 'NONE', #332, #272, #189, .T. ) ;
#96 = DIRECTION ( 'NONE',  ( 0.0000000000000000000, 0.0000000000000000000, -1.000000000000000000 ) ) ;
#97 = AXIS2_PLACEMENT_3D ( 'NONE', #98, #66, #62 ) ;
#98 = CARTESIAN_POINT ( 'NONE',  ( 0.0000000000000000000, 0.0000000000000000000, 1.485000000000000764 ) ) ;
#99 = EDGE_CURVE ( 'NONE', #272, #332, #4, .T. ) ;
#100 = CARTESIAN_POINT ( 'NONE',  ( 2.302335982397025094E-17, 0.0000000000000000000, 0.1880000000000000282 ) ) ;
#101 = DIRECTION ( 'NONE',  ( -1.224646799147353700E-16, -0.0000000000000000000, -1.000000000000000000 ) ) ;
#102 = DIRECTION ( 'NONE',  ( 0.0000000000000000000, 0.0000000000000000000, 1.000000000000000000 ) ) ;
#103 = CARTESIAN_POINT ( 'NONE',  ( 1.224646799147353770E-18, 0.0000000000000000000, 0.0000000000000000000 ) ) ;
#104 = CIRCLE ( 'NONE', #169, 0.04750000000000064587 ) ;
#105 = DIRECTION ( 'NONE',  ( 0.0000000000000000000, 0.0000000000000000000, 1.000000000000000000 ) ) ;
#106 = CARTESIAN_POINT ( 'NONE',  ( 0.04750000000000064587, 6.735557395310483192E-18, 1.500000000000000222 ) ) ;
#107 = EDGE_CURVE ( 'NONE', #165, #195, #201, .T. ) ;
#108 = DIRECTION ( 'NONE',  ( -1.000000000000000000, 0.0000000000000000000, 0.0000000000000000000 ) ) ;
#109 = AXIS2_PLACEMENT_3D ( 'NONE', #111, #58, #300 ) ;
#110 = EDGE_LOOP ( 'NONE', ( #251, #29 ) ) ;
#111 = CARTESIAN_POINT ( 'NONE',  ( 0.0000000000000000000, 0.0000000000000000000, 0.0000000000000000000 ) ) ;
#112 = DIRECTION ( 'NONE',  ( 1.000000000000000000, 0.0000000000000000000, 0.0000000000000000000 ) ) ;
#113 = ORIENTED_EDGE ( 'NONE', *, *, #350, .F. ) ;
#114 = SURFACE_STYLE_FILL_AREA ( #80 ) ;
#115 = CIRCLE ( 'NONE', #205, 0.02121875000000000497 ) ;
#116 = VERTEX_POINT ( 'NONE', #209 ) ;
#117 =( NAMED_UNIT ( * ) SI_UNIT ( $, .STERADIAN. ) SOLID_ANGLE_UNIT ( ) );
#118 = VERTEX_POINT ( 'NONE', #146 ) ;
#119 = EDGE_CURVE ( 'NONE', #173, #9, #254, .T. ) ;
#120 = SURFACE_STYLE_USAGE ( .BOTH. , #289 ) ;
#121 = LINE ( 'NONE', #149, #220 ) ;
#122 = ORIENTED_EDGE ( 'NONE', *, *, #208, .T. ) ;
#123 = EDGE_CURVE ( 'NONE', #332, #116, #282, .T. ) ;
#124 = DIRECTION ( 'NONE',  ( 1.000000000000000000, 0.0000000000000000000, 0.0000000000000000000 ) ) ;
#125 = CARTESIAN_POINT ( 'NONE',  ( 1.224646799147353770E-18, 0.0000000000000000000, 0.01000000000000000021 ) ) ;
#126 = CARTESIAN_POINT ( 'NONE',  ( 0.0000000000000000000, 0.0000000000000000000, 1.485000000000000764 ) ) ;
#127 = AXIS2_PLACEMENT_3D ( 'NONE', #183, #215, #155 ) ;
#128 = DIRECTION ( 'NONE',  ( 1.000000000000000000, 0.0000000000000000000, 0.0000000000000000000 ) ) ;
#129 = DIRECTION ( 'NONE',  ( 0.0000000000000000000, 0.0000000000000000000, -1.000000000000000000 ) ) ;
#130 = CARTESIAN_POINT ( 'NONE',  ( 0.0000000000000000000, 0.0000000000000000000, 0.0000000000000000000 ) ) ;
#131 = AXIS2_PLACEMENT_3D ( 'NONE', #266, #291, #351 ) ;
#132 = EDGE_CURVE ( 'NONE', #118, #79, #236, .T. ) ;
#133 = LINE ( 'NONE', #241, #71 ) ;
#134 = DIRECTION ( 'NONE',  ( 0.0000000000000000000, 0.0000000000000000000, -1.000000000000000000 ) ) ;
#135 = ORIENTED_EDGE ( 'NONE', *, *, #162, .F. ) ;
#136 = COLOUR_RGB ( '',0.7921568627450980005, 0.8196078431372548767, 0.9333333333333333481 ) ;
#137 =( NAMED_UNIT ( * ) PLANE_ANGLE_UNIT ( ) SI_UNIT ( $, .RADIAN. ) );
#138 = ORIENTED_EDGE ( 'NONE', *, *, #24, .F. ) ;
#139 = CARTESIAN_POINT ( 'NONE',  ( 4.474917996329784544E-17, 0.0000000000000000000, 0.3654047844199155848 ) ) ;
#140 = ORIENTED_EDGE ( 'NONE', *, *, #123, .T. ) ;
#141 = EDGE_LOOP ( 'NONE', ( #339, #140, #37, #113 ) ) ;
#142 = AXIS2_PLACEMENT_3D ( 'NONE', #217, #324, #213 ) ;
#143 = EDGE_LOOP ( 'NONE', ( #138, #202, #304, #280 ) ) ;
#144 = ORIENTED_EDGE ( 'NONE', *, *, #107, .F. ) ;
#145 = APPLICATION_CONTEXT ( 'automotive_design' ) ;
#146 = CARTESIAN_POINT ( 'NONE',  ( -0.03121874999999998609, 5.738618360379552157E-18, 0.1880000000000000282 ) ) ;
#147 = AXIS2_PLACEMENT_3D ( 'NONE', #130, #25, #69 ) ;
#148 = EDGE_CURVE ( 'NONE', #231, #272, #121, .T. ) ;
#149 = CARTESIAN_POINT ( 'NONE',  ( -0.04750000000000064587, 0.0000000000000000000, 1.500000000000000222 ) ) ;
#150 = DIMENSIONAL_EXPONENTS ( 1.000000000000000000, 0.0000000000000000000, 0.0000000000000000000, 0.0000000000000000000, 0.0000000000000000000, 0.0000000000000000000, 0.0000000000000000000 ) ;
#151 = CARTESIAN_POINT ( 'NONE',  ( 0.02121875000000000497, 0.0000000000000000000, 0.01000000000000000021 ) ) ;
#152 = CYLINDRICAL_SURFACE ( 'NONE', #2, 0.06250000000000002776 ) ;
#153 = EDGE_CURVE ( 'NONE', #165, #79, #21, .T. ) ;
#154 = VECTOR ( 'NONE', #101, 39.37007874015748143 ) ;
#155 = DIRECTION ( 'NONE',  ( -1.000000000000000000, 0.0000000000000000000, 0.0000000000000000000 ) ) ;
#156 = DIRECTION ( 'NONE',  ( 0.0000000000000000000, 0.0000000000000000000, 1.000000000000000000 ) ) ;
#157 = ADVANCED_FACE ( 'NONE', ( #323 ), #290, .T. ) ;
#158 = DIRECTION ( 'NONE',  ( 1.000000000000000000, 0.0000000000000000000, 0.0000000000000000000 ) ) ;
#159 = CIRCLE ( 'NONE', #170, 0.03121875000000000691 ) ;
#160 = CARTESIAN_POINT ( 'NONE',  ( 0.04750000000000064587, 5.817072295950006528E-18, 1.500000000000000222 ) ) ;
#161 = FILL_AREA_STYLE_COLOUR ( '', #193 ) ;
#162 = EDGE_CURVE ( 'NONE', #195, #9, #36, .T. ) ;
#163 = SURFACE_STYLE_USAGE ( .BOTH. , #54 ) ;
#164 = EDGE_LOOP ( 'NONE', ( #144, #199, #197, #135 ) ) ;
#165 = VERTEX_POINT ( 'NONE', #295 ) ;
#166 = ORIENTED_EDGE ( 'NONE', *, *, #350, .T. ) ;
#167 = ADVANCED_FACE ( 'NONE', ( #5 ), #61, .T. ) ;
#168 = PRESENTATION_STYLE_ASSIGNMENT (( #120 ) ) ;
#169 = AXIS2_PLACEMENT_3D ( 'NONE', #292, #48, #264 ) ;
#170 = AXIS2_PLACEMENT_3D ( 'NONE', #76, #6, #85 ) ;
#171 = CARTESIAN_POINT ( 'NONE',  ( 0.03121875000000000691, 3.823194226088144458E-18, 0.01000000000000000021 ) ) ;
#172 =( NAMED_UNIT ( * ) PLANE_ANGLE_UNIT ( ) SI_UNIT ( $, .RADIAN. ) );
#173 = VERTEX_POINT ( 'NONE', #238 ) ;
#174 = APPLICATION_PROTOCOL_DEFINITION ( 'draft international standard', 'automotive_design', 1998, #145 ) ;
#175 = DIRECTION ( 'NONE',  ( -0.0000000000000000000, -0.0000000000000000000, -1.000000000000000000 ) ) ;
#176 = AXIS2_PLACEMENT_3D ( 'NONE', #345, #207, #38 ) ;
#177 = DIRECTION ( 'NONE',  ( -1.000000000000000000, 0.0000000000000000000, 0.0000000000000000000 ) ) ;
#178 = CONICAL_SURFACE ( 'NONE', #127, 0.04750000000000064587, 0.7853981633974466137 ) ;
#179 = UNCERTAINTY_MEASURE_WITH_UNIT (LENGTH_MEASURE( 1.000000000000000082E-05 ), #40, 'distance_accuracy_value', 'NONE');
#180 = AXIS2_PLACEMENT_3D ( 'NONE', #63, #175, #65 ) ;
#181 = DIRECTION ( 'NONE',  ( -1.000000000000000000, 1.224646799147353454E-16, 0.0000000000000000000 ) ) ;
#182 = ADVANCED_FACE ( 'NONE', ( #74 ), #178, .T. ) ;
#183 = CARTESIAN_POINT ( 'NONE',  ( 0.0000000000000000000, 0.0000000000000000000, 1.500000000000000222 ) ) ;
#184 = ADVANCED_FACE ( 'NONE', ( #190 ), #242, .T. ) ;
#185 = CARTESIAN_POINT ( 'NONE',  ( -0.04750000000000064587, 0.0000000000000000000, 1.500000000000000222 ) ) ;
#186 = AXIS2_PLACEMENT_3D ( 'NONE', #328, #156, #128 ) ;
#187 = DIRECTION ( 'NONE',  ( 1.000000000000000000, 0.0000000000000000000, 0.0000000000000000000 ) ) ;
#188 = ADVANCED_FACE ( 'NONE', ( #46 ), #211, .T. ) ;
#189 = CIRCLE ( 'NONE', #97, 0.06250000000000002776 ) ;
#190 = FACE_OUTER_BOUND ( 'NONE', #11, .T. ) ;
#191 = EDGE_CURVE ( 'NONE', #195, #165, #115, .T. ) ;
#192 = CARTESIAN_POINT ( 'NONE',  ( -0.06249999999999997918, 0.0000000000000000000, 0.3654047844199155848 ) ) ;
#193 = COLOUR_RGB ( '',0.7921568627450980005, 0.8196078431372548767, 0.9333333333333333481 ) ;
#194 =( LENGTH_UNIT ( ) NAMED_UNIT ( * ) SI_UNIT ( $, .METRE. ) );
#195 = VERTEX_POINT ( 'NONE', #3 ) ;
#196 = DIRECTION ( 'NONE',  ( -1.224646799147353700E-16, -0.0000000000000000000, -1.000000000000000000 ) ) ;
#197 = ORIENTED_EDGE ( 'NONE', *, *, #214, .F. ) ;
#198 = DIRECTION ( 'NONE',  ( 1.000000000000000000, 0.0000000000000000000, 0.0000000000000000000 ) ) ;
#199 = ORIENTED_EDGE ( 'NONE', *, *, #153, .T. ) ;
#200 = ADVANCED_FACE ( 'NONE', ( #49 ), #337, .T. ) ;
#201 = CIRCLE ( 'NONE', #87, 0.02121875000000000497 ) ;
#202 = ORIENTED_EDGE ( 'NONE', *, *, #333, .F. ) ;
#203 = ORIENTED_EDGE ( 'NONE', *, *, #214, .T. ) ;
#204 = ADVANCED_BREP_SHAPE_REPRESENTATION ( 'Micro_GEC-062-3-010', ( #318, #176 ), #252 ) ;
#205 = AXIS2_PLACEMENT_3D ( 'NONE', #103, #263, #219 ) ;
#206 = CARTESIAN_POINT ( 'NONE',  ( 0.0000000000000000000, 0.0000000000000000000, 0.0000000000000000000 ) ) ;
#207 = DIRECTION ( 'NONE',  ( 0.0000000000000000000, 0.0000000000000000000, 1.000000000000000000 ) ) ;
#208 = EDGE_CURVE ( 'NONE', #226, #231, #305, .T. ) ;
#209 = CARTESIAN_POINT ( 'NONE',  ( 0.06250000000000006939, 7.654042494670963708E-18, 0.3654047844199155848 ) ) ;
#210 = CARTESIAN_POINT ( 'NONE',  ( -0.03121875000000000691, 0.0000000000000000000, 0.01000000000000000021 ) ) ;
#211 = CONICAL_SURFACE ( 'NONE', #52, 0.04750000000000064587, 0.7853981633974466137 ) ;
#212 = CARTESIAN_POINT ( 'NONE',  ( 0.06250000000000002776, 7.654042494670959086E-18, 1.500000000000000222 ) ) ;
#213 = DIRECTION ( 'NONE',  ( 1.000000000000000000, 0.0000000000000000000, 0.0000000000000000000 ) ) ;
#214 = EDGE_CURVE ( 'NONE', #9, #79, #273, .T. ) ;
#215 = DIRECTION ( 'NONE',  ( 0.0000000000000000000, 0.0000000000000000000, -1.000000000000000000 ) ) ;
#216 = MECHANICAL_DESIGN_GEOMETRIC_PRESENTATION_REPRESENTATION (  '', ( #342 ), #325 ) ;
#217 = CARTESIAN_POINT ( 'NONE',  ( 2.302335982397025094E-17, 0.0000000000000000000, 0.1880000000000000282 ) ) ;
#218 = CARTESIAN_POINT ( 'NONE',  ( 0.0000000000000000000, 0.0000000000000000000, 1.500000000000000222 ) ) ;
#219 = DIRECTION ( 'NONE',  ( 1.000000000000000000, 0.0000000000000000000, 0.0000000000000000000 ) ) ;
#220 = VECTOR ( 'NONE', #91, 39.37007874015748854 ) ;
#221 = ADVANCED_FACE ( 'NONE', ( #72 ), #265, .T. ) ;
#222 = CARTESIAN_POINT ( 'NONE',  ( 4.474917996329784544E-17, 0.0000000000000000000, 0.3654047844199155848 ) ) ;
#223 = ORIENTED_EDGE ( 'NONE', *, *, #24, .T. ) ;
#224 = ORIENTED_EDGE ( 'NONE', *, *, #56, .T. ) ;
#225 = ADVANCED_FACE ( 'NONE', ( #327 ), #152, .T. ) ;
#226 = VERTEX_POINT ( 'NONE', #106 ) ;
#227 = AXIS2_PLACEMENT_3D ( 'NONE', #261, #346, #181 ) ;
#228 = LENGTH_MEASURE_WITH_UNIT ( LENGTH_MEASURE( 0.02539999999999999897 ), #338 );
#229 =( LENGTH_UNIT ( ) NAMED_UNIT ( * ) SI_UNIT ( $, .METRE. ) );
#230 = AXIS2_PLACEMENT_3D ( 'NONE', #255, #39, #124 ) ;
#231 = VERTEX_POINT ( 'NONE', #185 ) ;
#232 = PRODUCT ( 'Micro_GEC-062-3-010', 'Micro_GEC-062-3-010', '', ( #64 ) ) ;
#233 = EDGE_LOOP ( 'NONE', ( #19, #223, #309, #84 ) ) ;
#234 = DIRECTION ( 'NONE',  ( 0.0000000000000000000, 0.0000000000000000000, 1.000000000000000000 ) ) ;
#235 = DIRECTION ( 'NONE',  ( 1.000000000000000000, 0.0000000000000000000, 0.0000000000000000000 ) ) ;
#236 = LINE ( 'NONE', #43, #7 ) ;
#237 = ORIENTED_EDGE ( 'NONE', *, *, #162, .T. ) ;
#238 = CARTESIAN_POINT ( 'NONE',  ( 0.03121875000000002773, 0.0000000000000000000, 0.1880000000000000282 ) ) ;
#239 = DIRECTION ( 'NONE',  ( -0.0000000000000000000, -0.0000000000000000000, -1.000000000000000000 ) ) ;
#240 = VECTOR ( 'NONE', #28, 39.37007874015748854 ) ;
#241 = CARTESIAN_POINT ( 'NONE',  ( 0.03121875000000002773, 0.0000000000000000000, 0.1880000000000000282 ) ) ;
#242 = PLANE ( 'NONE',  #131 ) ;
#243 = ORIENTED_EDGE ( 'NONE', *, *, #247, .T. ) ;
#244 = AXIS2_PLACEMENT_3D ( 'NONE', #349, #105, #23 ) ;
#245 = SURFACE_STYLE_FILL_AREA ( #31 ) ;
#246 = ORIENTED_EDGE ( 'NONE', *, *, #284, .T. ) ;
#247 = EDGE_CURVE ( 'NONE', #231, #226, #104, .T. ) ;
#248 =( CONVERSION_BASED_UNIT ( 'INCH', #250 ) LENGTH_UNIT ( ) NAMED_UNIT ( #150 ) );
#249 = EDGE_LOOP ( 'NONE', ( #14, #55, #166, #57 ) ) ;
#250 = LENGTH_MEASURE_WITH_UNIT ( LENGTH_MEASURE( 0.02539999999999999897 ), #194 );
#251 = ORIENTED_EDGE ( 'NONE', *, *, #191, .T. ) ;
#252 =( GEOMETRIC_REPRESENTATION_CONTEXT ( 3 ) GLOBAL_UNCERTAINTY_ASSIGNED_CONTEXT ( ( #94 ) ) GLOBAL_UNIT_ASSIGNED_CONTEXT ( ( #269, #137, #117 ) ) REPRESENTATION_CONTEXT ( 'NONE', 'WORKASPACE' ) );
#253 = ORIENTED_EDGE ( 'NONE', *, *, #132, .T. ) ;
#254 = LINE ( 'NONE', #259, #154 ) ;
#255 = CARTESIAN_POINT ( 'NONE',  ( 1.224646799147353770E-18, 0.0000000000000000000, 0.01000000000000000021 ) ) ;
#256 = ADVANCED_FACE ( 'NONE', ( #297 ), #42, .T. ) ;
#257 = AXIS2_PLACEMENT_3D ( 'NONE', #218, #102, #187 ) ;
#258 = VECTOR ( 'NONE', #348, 39.37007874015747433 ) ;
#259 = CARTESIAN_POINT ( 'NONE',  ( 0.03121875000000000691, 3.823194226088144458E-18, -3.823194226088145998E-18 ) ) ;
#260 = EDGE_CURVE ( 'NONE', #173, #116, #133, .T. ) ;
#261 = CARTESIAN_POINT ( 'NONE',  ( -0.02121875000000000497, 2.598547426940790881E-18, 0.01000000000000000021 ) ) ;
#262 = DIRECTION ( 'NONE',  ( 0.0000000000000000000, -1.000000000000000000, 0.0000000000000000000 ) ) ;
#263 = DIRECTION ( 'NONE',  ( -0.0000000000000000000, -0.0000000000000000000, -1.000000000000000000 ) ) ;
#264 = DIRECTION ( 'NONE',  ( 1.000000000000000000, 0.0000000000000000000, 0.0000000000000000000 ) ) ;
#265 = CYLINDRICAL_SURFACE ( 'NONE', #147, 0.03121875000000000691 ) ;
#266 = CARTESIAN_POINT ( 'NONE',  ( 0.0000000000000000000, 0.0000000000000000000, 1.500000000000000222 ) ) ;
#267 = CIRCLE ( 'NONE', #347, 0.06250000000000002776 ) ;
#268 = CARTESIAN_POINT ( 'NONE',  ( 2.302335982397025094E-17, 0.0000000000000000000, 0.1880000000000000282 ) ) ;
#269 =( CONVERSION_BASED_UNIT ( 'INCH', #228 ) LENGTH_UNIT ( ) NAMED_UNIT ( #88 ) );
#270 = VERTEX_POINT ( 'NONE', #192 ) ;
#271 =( NAMED_UNIT ( * ) PLANE_ANGLE_UNIT ( ) SI_UNIT ( $, .RADIAN. ) );
#272 = VERTEX_POINT ( 'NONE', #299 ) ;
#273 = CIRCLE ( 'NONE', #186, 0.03121875000000000691 ) ;
#274 = APPLICATION_PROTOCOL_DEFINITION ( 'draft international standard', 'automotive_design', 1998, #90 ) ;
#275 = ORIENTED_EDGE ( 'NONE', *, *, #119, .F. ) ;
#276 = DIRECTION ( 'NONE',  ( -0.0000000000000000000, -0.0000000000000000000, -1.000000000000000000 ) ) ;
#277 = EDGE_LOOP ( 'NONE', ( #59, #246, #32, #334 ) ) ;
#278 =( NAMED_UNIT ( * ) SI_UNIT ( $, .STERADIAN. ) SOLID_ANGLE_UNIT ( ) );
#279 = DIMENSIONAL_EXPONENTS ( 1.000000000000000000, 0.0000000000000000000, 0.0000000000000000000, 0.0000000000000000000, 0.0000000000000000000, 0.0000000000000000000, 0.0000000000000000000 ) ;
#280 = ORIENTED_EDGE ( 'NONE', *, *, #294, .T. ) ;
#281 = PRESENTATION_LAYER_ASSIGNMENT (  '', '', ( #77 ) ) ;
#282 = LINE ( 'NONE', #212, #310 ) ;
#283 = DIRECTION ( 'NONE',  ( -1.224646799147353700E-16, -0.0000000000000000000, -1.000000000000000000 ) ) ;
#284 = EDGE_CURVE ( 'NONE', #226, #332, #51, .T. ) ;
#285 = DIRECTION ( 'NONE',  ( 1.000000000000000000, 0.0000000000000000000, 0.0000000000000000000 ) ) ;
#286 = EDGE_CURVE ( 'NONE', #270, #116, #92, .T. ) ;
#287 = DIRECTION ( 'NONE',  ( -0.0000000000000000000, -0.0000000000000000000, -1.000000000000000000 ) ) ;
#288 = TOROIDAL_SURFACE ( 'NONE', #314, 0.02121875000000000497, 0.01000000000000000021 ) ;
#289 = SURFACE_SIDE_STYLE ('',( #245 ) ) ;
#290 = CYLINDRICAL_SURFACE ( 'NONE', #83, 0.03121875000000000691 ) ;
#291 = DIRECTION ( 'NONE',  ( 0.0000000000000000000, 0.0000000000000000000, 1.000000000000000000 ) ) ;
#292 = CARTESIAN_POINT ( 'NONE',  ( 0.0000000000000000000, 0.0000000000000000000, 1.500000000000000222 ) ) ;
#293 = AXIS2_PLACEMENT_3D ( 'NONE', #151, #262, #129 ) ;
#294 = EDGE_CURVE ( 'NONE', #116, #270, #267, .T. ) ;
#295 = CARTESIAN_POINT ( 'NONE',  ( -0.02121875000000000497, 3.210870826514467669E-18, 0.0000000000000000000 ) ) ;
#296 = AXIS2_PLACEMENT_3D ( 'NONE', #126, #96, #235 ) ;
#297 = FACE_OUTER_BOUND ( 'NONE', #143, .T. ) ;
#298 = ADVANCED_FACE ( 'NONE', ( #303 ), #8, .F. ) ;
#299 = CARTESIAN_POINT ( 'NONE',  ( -0.06250000000000002776, 0.0000000000000000000, 1.485000000000000764 ) ) ;
#300 = DIRECTION ( 'NONE',  ( 1.000000000000000000, 0.0000000000000000000, -0.0000000000000000000 ) ) ;
#301 = AXIS2_PLACEMENT_3D ( 'NONE', #100, #283, #177 ) ;
#302 = ORIENTED_EDGE ( 'NONE', *, *, #73, .T. ) ;
#303 = FACE_OUTER_BOUND ( 'NONE', #110, .T. ) ;
#304 = ORIENTED_EDGE ( 'NONE', *, *, #260, .T. ) ;
#305 = CIRCLE ( 'NONE', #257, 0.04750000000000064587 ) ;
#306 = EDGE_LOOP ( 'NONE', ( #341, #336, #237, #33 ) ) ;
#307 = CIRCLE ( 'NONE', #230, 0.03121875000000000691 ) ;
#308 = ORIENTED_EDGE ( 'NONE', *, *, #148, .T. ) ;
#309 = ORIENTED_EDGE ( 'NONE', *, *, #286, .T. ) ;
#310 = VECTOR ( 'NONE', #287, 39.37007874015748143 ) ;
#311 = PRODUCT_RELATED_PRODUCT_CATEGORY ( 'part', '', ( #232 ) ) ;
#312 = PRODUCT_DEFINITION_SHAPE ( 'NONE', 'NONE',  #68 ) ;
#313 = FACE_OUTER_BOUND ( 'NONE', #164, .T. ) ;
#314 = AXIS2_PLACEMENT_3D ( 'NONE', #125, #234, #15 ) ;
#315 = LENGTH_MEASURE_WITH_UNIT ( LENGTH_MEASURE( 0.02539999999999999897 ), #229 );
#316 = FACE_OUTER_BOUND ( 'NONE', #141, .T. ) ;
#317 = PRODUCT_DEFINITION_FORMATION_WITH_SPECIFIED_SOURCE ( 'ANY', '', #232, .NOT_KNOWN. ) ;
#318 = MANIFOLD_SOLID_BREP ( 'Fillet1', #93 ) ;
#319 = UNCERTAINTY_MEASURE_WITH_UNIT (LENGTH_MEASURE( 1.000000000000000082E-05 ), #248, 'distance_accuracy_value', 'NONE');
#320 =( NAMED_UNIT ( * ) SI_UNIT ( $, .STERADIAN. ) SOLID_ANGLE_UNIT ( ) );
#321 = PRESENTATION_LAYER_ASSIGNMENT (  '', '', ( #342 ) ) ;
#322 = CARTESIAN_POINT ( 'NONE',  ( -0.03121874999999998609, 3.823194226088144458E-18, 0.1880000000000000282 ) ) ;
#323 = FACE_OUTER_BOUND ( 'NONE', #35, .T. ) ;
#324 = DIRECTION ( 'NONE',  ( 1.224646799147353700E-16, 0.0000000000000000000, 1.000000000000000000 ) ) ;
#325 =( GEOMETRIC_REPRESENTATION_CONTEXT ( 3 ) GLOBAL_UNCERTAINTY_ASSIGNED_CONTEXT ( ( #319 ) ) GLOBAL_UNIT_ASSIGNED_CONTEXT ( ( #248, #271, #278 ) ) REPRESENTATION_CONTEXT ( 'NONE', 'WORKASPACE' ) );
#326 = PRODUCT_DEFINITION_CONTEXT ( 'detailed design', #145, 'design' ) ;
#327 = FACE_OUTER_BOUND ( 'NONE', #249, .T. ) ;
#328 = CARTESIAN_POINT ( 'NONE',  ( 1.224646799147353770E-18, 0.0000000000000000000, 0.01000000000000000021 ) ) ;
#329 = PRESENTATION_STYLE_ASSIGNMENT (( #163 ) ) ;
#330 = VECTOR ( 'NONE', #276, 39.37007874015748143 ) ;
#331 = LINE ( 'NONE', #78, #330 ) ;
#332 = VERTEX_POINT ( 'NONE', #82 ) ;
#333 = EDGE_CURVE ( 'NONE', #173, #118, #159, .T. ) ;
#334 = ORIENTED_EDGE ( 'NONE', *, *, #148, .F. ) ;
#335 =( GEOMETRIC_REPRESENTATION_CONTEXT ( 3 ) GLOBAL_UNCERTAINTY_ASSIGNED_CONTEXT ( ( #179 ) ) GLOBAL_UNIT_ASSIGNED_CONTEXT ( ( #40, #172, #320 ) ) REPRESENTATION_CONTEXT ( 'NONE', 'WORKASPACE' ) );
#336 = ORIENTED_EDGE ( 'NONE', *, *, #191, .F. ) ;
#337 = CONICAL_SURFACE ( 'NONE', #142, 0.03121875000000000691, 0.1745329251994338915 ) ;
#338 =( LENGTH_UNIT ( ) NAMED_UNIT ( * ) SI_UNIT ( $, .METRE. ) );
#339 = ORIENTED_EDGE ( 'NONE', *, *, #99, .T. ) ;
#340 = EDGE_LOOP ( 'NONE', ( #224, #60, #203, #13 ) ) ;
#341 = ORIENTED_EDGE ( 'NONE', *, *, #153, .F. ) ;
#342 = STYLED_ITEM ( 'NONE', ( #329 ), #318 ) ;
#343 = CARTESIAN_POINT ( 'NONE',  ( 1.224646799147353770E-18, 0.0000000000000000000, 0.0000000000000000000 ) ) ;
#344 = DIRECTION ( 'NONE',  ( -0.0000000000000000000, -0.0000000000000000000, -1.000000000000000000 ) ) ;
#345 = CARTESIAN_POINT ( 'NONE',  ( 0.0000000000000000000, 0.0000000000000000000, 0.0000000000000000000 ) ) ;
#346 = DIRECTION ( 'NONE',  ( 1.224646799147353207E-16, 1.000000000000000000, -0.0000000000000000000 ) ) ;
#347 = AXIS2_PLACEMENT_3D ( 'NONE', #222, #196, #112 ) ;
#348 = DIRECTION ( 'NONE',  ( -0.1736481776669311916, 2.126576849575783316E-17, 0.9848077530122080203 ) ) ;
#349 = CARTESIAN_POINT ( 'NONE',  ( 1.224646799147353770E-18, 0.0000000000000000000, 0.01000000000000000021 ) ) ;
#350 = EDGE_CURVE ( 'NONE', #272, #270, #331, .T. ) ;
#351 = DIRECTION ( 'NONE',  ( 1.000000000000000000, 0.0000000000000000000, -0.0000000000000000000 ) ) ;
ENDSEC;
END-ISO-10303-21;
