ISO-10303-21;
HEADER;
FILE_DESCRIPTION (( 'STEP AP214' ),
    '1' );
FILE_NAME ('Micro_AELM-080-2.STEP',
    '2021-09-01T17:05:37',
    ( '' ),
    ( '' ),
    'SwSTEP 2.0',
    'SolidWorks 2020',
    '' );
FILE_SCHEMA (( 'AUTOMOTIVE_DESIGN' ));
ENDSEC;

DATA;
#1 = ORIENTED_EDGE ( 'NONE', *, *, #87, .T. ) ;
#2 = AXIS2_PLACEMENT_3D ( 'NONE', #18, #109, #59 ) ;
#3 = CARTESIAN_POINT ( 'NONE',  ( 0.1574804999999999955, 1.928579902531247412E-17, 3.937007999999999619 ) ) ;
#4 = ORIENTED_EDGE ( 'NONE', *, *, #173, .T. ) ;
#5 = EDGE_CURVE ( 'NONE', #276, #193, #119, .T. ) ;
#6 = LINE ( 'NONE', #3, #256 ) ;
#7 = AXIS2_PLACEMENT_3D ( 'NONE', #158, #41, #15 ) ;
#8 = DIMENSIONAL_EXPONENTS ( 1.000000000000000000, 0.0000000000000000000, 0.0000000000000000000, 0.0000000000000000000, 0.0000000000000000000, 0.0000000000000000000, 0.0000000000000000000 ) ;
#9 = APPLICATION_PROTOCOL_DEFINITION ( 'draft international standard', 'automotive_design', 1998, #134 ) ;
#10 = CARTESIAN_POINT ( 'NONE',  ( 0.0000000000000000000, 0.0000000000000000000, 0.0000000000000000000 ) ) ;
#11 = ORIENTED_EDGE ( 'NONE', *, *, #211, .T. ) ;
#12 = EDGE_CURVE ( 'NONE', #161, #276, #84, .T. ) ;
#13 = PRODUCT_DEFINITION_CONTEXT ( 'detailed design', #172, 'design' ) ;
#14 = VERTEX_POINT ( 'NONE', #204 ) ;
#15 = DIRECTION ( 'NONE',  ( 1.000000000000000000, 0.0000000000000000000, 0.0000000000000000000 ) ) ;
#16 = MECHANICAL_DESIGN_GEOMETRIC_PRESENTATION_REPRESENTATION (  '', ( #153 ), #118 ) ;
#17 =( GEOMETRIC_REPRESENTATION_CONTEXT ( 3 ) GLOBAL_UNCERTAINTY_ASSIGNED_CONTEXT ( ( #80 ) ) GLOBAL_UNIT_ASSIGNED_CONTEXT ( ( #81, #54, #34 ) ) REPRESENTATION_CONTEXT ( 'NONE', 'WORKASPACE' ) );
#18 = CARTESIAN_POINT ( 'NONE',  ( 2.359467375330272285E-33, 0.0000000000000000000, 1.926651322628716627E-17 ) ) ;
#19 = CARTESIAN_POINT ( 'NONE',  ( -0.1573230194999998277, 1.927615612579982019E-17, 1.574802999999999953 ) ) ;
#20 = CIRCLE ( 'NONE', #148, 0.1574804999999999955 ) ;
#21 = ORIENTED_EDGE ( 'NONE', *, *, #131, .T. ) ;
#22 = EDGE_CURVE ( 'NONE', #27, #257, #159, .T. ) ;
#23 = EDGE_CURVE ( 'NONE', #276, #96, #143, .T. ) ;
#24 = CARTESIAN_POINT ( 'NONE',  ( 0.1574805000000001898, 1.928579902531250185E-17, 1.575696116296593896 ) ) ;
#25 = DIRECTION ( 'NONE',  ( -1.224646799147353207E-16, -0.0000000000000000000, -1.000000000000000000 ) ) ;
#26 = CARTESIAN_POINT ( 'NONE',  ( 0.0000000000000000000, 0.0000000000000000000, 3.937007999999999619 ) ) ;
#27 = VERTEX_POINT ( 'NONE', #184 ) ;
#28 = FILL_AREA_STYLE_COLOUR ( '', #162 ) ;
#29 = DIRECTION ( 'NONE',  ( -0.0000000000000000000, -0.0000000000000000000, -1.000000000000000000 ) ) ;
#30 = DIRECTION ( 'NONE',  ( 0.7071067811865563435, 8.659560562355041327E-17, -0.7071067811865386910 ) ) ;
#31 = AXIS2_PLACEMENT_3D ( 'NONE', #197, #292, #269 ) ;
#32 =( LENGTH_UNIT ( ) NAMED_UNIT ( * ) SI_UNIT ( $, .METRE. ) );
#33 = ORIENTED_EDGE ( 'NONE', *, *, #183, .T. ) ;
#34 =( NAMED_UNIT ( * ) SI_UNIT ( $, .STERADIAN. ) SOLID_ANGLE_UNIT ( ) );
#35 = EDGE_CURVE ( 'NONE', #254, #193, #20, .T. ) ;
#36 =( NAMED_UNIT ( * ) SI_UNIT ( $, .STERADIAN. ) SOLID_ANGLE_UNIT ( ) );
#37 = FACE_OUTER_BOUND ( 'NONE', #144, .T. ) ;
#38 = LINE ( 'NONE', #135, #140 ) ;
#39 = CARTESIAN_POINT ( 'NONE',  ( 0.0000000000000000000, 0.0000000000000000000, 3.937007999999999619 ) ) ;
#40 = DIRECTION ( 'NONE',  ( -0.0000000000000000000, -0.0000000000000000000, -1.000000000000000000 ) ) ;
#41 = DIRECTION ( 'NONE',  ( -1.224646799147353207E-16, -0.0000000000000000000, -1.000000000000000000 ) ) ;
#42 = DIRECTION ( 'NONE',  ( -1.000000000000000000, 0.0000000000000000000, 1.224646799147353454E-16 ) ) ;
#43 = CIRCLE ( 'NONE', #252, 0.1424805000000004540 ) ;
#44 = ORIENTED_EDGE ( 'NONE', *, *, #115, .T. ) ;
#45 = DIRECTION ( 'NONE',  ( 0.0000000000000000000, 0.0000000000000000000, 1.000000000000000000 ) ) ;
#46 = DIRECTION ( 'NONE',  ( -0.0000000000000000000, -0.0000000000000000000, -1.000000000000000000 ) ) ;
#47 = ORIENTED_EDGE ( 'NONE', *, *, #130, .F. ) ;
#48 = VECTOR ( 'NONE', #25, 39.37007874015748143 ) ;
#49 = PRESENTATION_LAYER_ASSIGNMENT (  '', '', ( #188 ) ) ;
#50 = SURFACE_STYLE_USAGE ( .BOTH. , #99 ) ;
#51 = DIRECTION ( 'NONE',  ( 1.000000000000000000, 0.0000000000000000000, 0.0000000000000000000 ) ) ;
#52 = EDGE_CURVE ( 'NONE', #161, #116, #38, .T. ) ;
#53 = EDGE_LOOP ( 'NONE', ( #274, #97, #69, #1 ) ) ;
#54 =( NAMED_UNIT ( * ) PLANE_ANGLE_UNIT ( ) SI_UNIT ( $, .RADIAN. ) );
#55 = PRESENTATION_STYLE_ASSIGNMENT (( #192 ) ) ;
#56 = ORIENTED_EDGE ( 'NONE', *, *, #35, .T. ) ;
#57 = AXIS2_PLACEMENT_3D ( 'NONE', #65, #222, #253 ) ;
#58 = AXIS2_PLACEMENT_3D ( 'NONE', #76, #132, #170 ) ;
#59 = DIRECTION ( 'NONE',  ( -1.000000000000000000, 0.0000000000000000000, 1.224646799147353454E-16 ) ) ;
#60 = PRODUCT ( 'Micro_AELM-080-2', 'Micro_AELM-080-2', '', ( #245 ) ) ;
#61 = CARTESIAN_POINT ( 'NONE',  ( 0.0000000000000000000, 0.0000000000000000000, 3.937007999999999619 ) ) ;
#62 = CYLINDRICAL_SURFACE ( 'NONE', #191, 0.1574804999999999955 ) ;
#63 = CIRCLE ( 'NONE', #7, 0.1574804999999999955 ) ;
#64 =( GEOMETRIC_REPRESENTATION_CONTEXT ( 3 ) GLOBAL_UNCERTAINTY_ASSIGNED_CONTEXT ( ( #129 ) ) GLOBAL_UNIT_ASSIGNED_CONTEXT ( ( #217, #264, #36 ) ) REPRESENTATION_CONTEXT ( 'NONE', 'WORKASPACE' ) );
#65 = CARTESIAN_POINT ( 'NONE',  ( 0.0000000000000000000, 0.0000000000000000000, 3.937007999999999619 ) ) ;
#66 = CARTESIAN_POINT ( 'NONE',  ( 0.0000000000000000000, 0.0000000000000000000, 3.922008000000000827 ) ) ;
#67 = EDGE_CURVE ( 'NONE', #257, #138, #219, .T. ) ;
#68 = DIRECTION ( 'NONE',  ( 1.224646799147353207E-16, 0.0000000000000000000, 1.000000000000000000 ) ) ;
#69 = ORIENTED_EDGE ( 'NONE', *, *, #5, .T. ) ;
#70 = DIRECTION ( 'NONE',  ( 1.000000000000000000, 0.0000000000000000000, 0.0000000000000000000 ) ) ;
#71 = FILL_AREA_STYLE ('',( #28 ) ) ;
#72 = EDGE_LOOP ( 'NONE', ( #93, #4, #56, #278 ) ) ;
#73 = SURFACE_STYLE_FILL_AREA ( #71 ) ;
#74 = LINE ( 'NONE', #239, #181 ) ;
#75 = PRODUCT_RELATED_PRODUCT_CATEGORY ( 'part', '', ( #60 ) ) ;
#76 = CARTESIAN_POINT ( 'NONE',  ( 0.0000000000000000000, 0.0000000000000000000, 3.937007999999999619 ) ) ;
#77 = CONICAL_SURFACE ( 'NONE', #195, 0.1573230195000000220, 0.1745329251994340025 ) ;
#78 = EDGE_LOOP ( 'NONE', ( #21, #174 ) ) ;
#79 = DIRECTION ( 'NONE',  ( 0.0000000000000000000, 0.0000000000000000000, 1.000000000000000000 ) ) ;
#80 = UNCERTAINTY_MEASURE_WITH_UNIT (LENGTH_MEASURE( 1.000000000000000082E-05 ), #81, 'distance_accuracy_value', 'NONE');
#81 =( CONVERSION_BASED_UNIT ( 'INCH', #288 ) LENGTH_UNIT ( ) NAMED_UNIT ( #244 ) );
#82 = ORIENTED_EDGE ( 'NONE', *, *, #87, .F. ) ;
#83 = DIRECTION ( 'NONE',  ( -1.224646799147353207E-16, -0.0000000000000000000, -1.000000000000000000 ) ) ;
#84 = CIRCLE ( 'NONE', #155, 0.1573230195000000220 ) ;
#85 = FACE_OUTER_BOUND ( 'NONE', #156, .T. ) ;
#86 = DIRECTION ( 'NONE',  ( 0.0000000000000000000, 0.0000000000000000000, -1.000000000000000000 ) ) ;
#87 = EDGE_CURVE ( 'NONE', #193, #254, #63, .T. ) ;
#88 = DIRECTION ( 'NONE',  ( -0.1736481776669312749, 2.126576849575784241E-17, 0.9848077530122077983 ) ) ;
#89 = CLOSED_SHELL ( 'NONE', ( #106, #98, #250, #142, #169, #297, #147, #201, #238, #223 ) ) ;
#90 = CARTESIAN_POINT ( 'NONE',  ( -0.1574804999999999955, 0.0000000000000000000, 3.922008000000000827 ) ) ;
#91 = CARTESIAN_POINT ( 'NONE',  ( 0.1573230195000000220, 1.926651322628716935E-17, -1.926651322628716935E-17 ) ) ;
#92 = FACE_OUTER_BOUND ( 'NONE', #53, .T. ) ;
#93 = ORIENTED_EDGE ( 'NONE', *, *, #12, .F. ) ;
#94 = PRODUCT_DEFINITION_SHAPE ( 'NONE', 'NONE',  #146 ) ;
#95 = AXIS2_PLACEMENT_3D ( 'NONE', #199, #68, #133 ) ;
#96 = VERTEX_POINT ( 'NONE', #251 ) ;
#97 = ORIENTED_EDGE ( 'NONE', *, *, #279, .F. ) ;
#98 = ADVANCED_FACE ( 'NONE', ( #110 ), #220, .T. ) ;
#99 = SURFACE_SIDE_STYLE ('',( #73 ) ) ;
#100 = ADVANCED_BREP_SHAPE_REPRESENTATION ( 'Micro_AELM-080-2', ( #233, #124 ), #17 ) ;
#101 = DIRECTION ( 'NONE',  ( 1.000000000000000000, 0.0000000000000000000, 0.0000000000000000000 ) ) ;
#102 = ORIENTED_EDGE ( 'NONE', *, *, #22, .F. ) ;
#103 = FILL_AREA_STYLE_COLOUR ( '', #136 ) ;
#104 = EDGE_LOOP ( 'NONE', ( #102, #215, #154, #218 ) ) ;
#105 = CYLINDRICAL_SURFACE ( 'NONE', #255, 0.1573230195000000220 ) ;
#106 = ADVANCED_FACE ( 'NONE', ( #293 ), #105, .T. ) ;
#107 = CARTESIAN_POINT ( 'NONE',  ( -0.1424805000000004540, 0.0000000000000000000, 3.937007999999999619 ) ) ;
#108 = PRESENTATION_LAYER_ASSIGNMENT (  '', '', ( #153 ) ) ;
#109 = DIRECTION ( 'NONE',  ( -1.224646799147353207E-16, -0.0000000000000000000, -1.000000000000000000 ) ) ;
#110 = FACE_OUTER_BOUND ( 'NONE', #72, .T. ) ;
#111 = DIRECTION ( 'NONE',  ( -1.000000000000000000, 0.0000000000000000000, 0.0000000000000000000 ) ) ;
#112 = AXIS2_PLACEMENT_3D ( 'NONE', #157, #86, #137 ) ;
#113 = CARTESIAN_POINT ( 'NONE',  ( 1.928577453237649374E-16, 0.0000000000000000000, 1.574802999999999953 ) ) ;
#114 = ORIENTED_EDGE ( 'NONE', *, *, #35, .F. ) ;
#115 = EDGE_CURVE ( 'NONE', #257, #27, #43, .T. ) ;
#116 = VERTEX_POINT ( 'NONE', #267 ) ;
#117 = CARTESIAN_POINT ( 'NONE',  ( -0.1574804999999997734, 0.0000000000000000000, 1.575696116296593896 ) ) ;
#118 =( GEOMETRIC_REPRESENTATION_CONTEXT ( 3 ) GLOBAL_UNCERTAINTY_ASSIGNED_CONTEXT ( ( #175 ) ) GLOBAL_UNIT_ASSIGNED_CONTEXT ( ( #167, #262, #120 ) ) REPRESENTATION_CONTEXT ( 'NONE', 'WORKASPACE' ) );
#119 = LINE ( 'NONE', #226, #227 ) ;
#120 =( NAMED_UNIT ( * ) SI_UNIT ( $, .STERADIAN. ) SOLID_ANGLE_UNIT ( ) );
#121 = EDGE_CURVE ( 'NONE', #96, #116, #295, .T. ) ;
#122 = DIRECTION ( 'NONE',  ( -1.224646799147353207E-16, -0.0000000000000000000, -1.000000000000000000 ) ) ;
#123 = AXIS2_PLACEMENT_3D ( 'NONE', #66, #225, #139 ) ;
#124 = AXIS2_PLACEMENT_3D ( 'NONE', #10, #79, #101 ) ;
#125 = FACE_OUTER_BOUND ( 'NONE', #78, .T. ) ;
#126 = ORIENTED_EDGE ( 'NONE', *, *, #261, .F. ) ;
#127 = SHAPE_DEFINITION_REPRESENTATION ( #94, #100 ) ;
#128 = ORIENTED_EDGE ( 'NONE', *, *, #23, .T. ) ;
#129 = UNCERTAINTY_MEASURE_WITH_UNIT (LENGTH_MEASURE( 1.000000000000000082E-05 ), #217, 'distance_accuracy_value', 'NONE');
#130 = EDGE_CURVE ( 'NONE', #14, #138, #247, .T. ) ;
#131 = EDGE_CURVE ( 'NONE', #116, #96, #207, .T. ) ;
#132 = DIRECTION ( 'NONE',  ( 0.0000000000000000000, 0.0000000000000000000, 1.000000000000000000 ) ) ;
#133 = DIRECTION ( 'NONE',  ( 1.000000000000000000, 0.0000000000000000000, 0.0000000000000000000 ) ) ;
#134 = APPLICATION_CONTEXT ( 'automotive_design' ) ;
#135 = CARTESIAN_POINT ( 'NONE',  ( -0.1573230195000000220, 0.0000000000000000000, 1.926651322628716935E-17 ) ) ;
#136 = COLOUR_RGB ( '',0.7921568627450980005, 0.8196078431372548767, 0.9333333333333333481 ) ;
#137 = DIRECTION ( 'NONE',  ( 1.000000000000000000, 0.0000000000000000000, 0.0000000000000000000 ) ) ;
#138 = VERTEX_POINT ( 'NONE', #90 ) ;
#139 = DIRECTION ( 'NONE',  ( 1.000000000000000000, 0.0000000000000000000, 0.0000000000000000000 ) ) ;
#140 = VECTOR ( 'NONE', #179, 39.37007874015748143 ) ;
#141 = DIRECTION ( 'NONE',  ( 1.000000000000000000, 0.0000000000000000000, 0.0000000000000000000 ) ) ;
#142 = ADVANCED_FACE ( 'NONE', ( #85 ), #62, .T. ) ;
#143 = LINE ( 'NONE', #91, #48 ) ;
#144 = EDGE_LOOP ( 'NONE', ( #44, #152 ) ) ;
#145 = CARTESIAN_POINT ( 'NONE',  ( -0.1574804999999999955, 0.0000000000000000000, 3.937007999999999619 ) ) ;
#146 = PRODUCT_DEFINITION ( 'UNKNOWN', '', #281, #13 ) ;
#147 = ADVANCED_FACE ( 'NONE', ( #271 ), #202, .T. ) ;
#148 = AXIS2_PLACEMENT_3D ( 'NONE', #298, #185, #70 ) ;
#149 = CYLINDRICAL_SURFACE ( 'NONE', #177, 0.1573230195000000220 ) ;
#150 = DIRECTION ( 'NONE',  ( -1.000000000000000000, 0.0000000000000000000, 0.0000000000000000000 ) ) ;
#151 = FILL_AREA_STYLE ('',( #103 ) ) ;
#152 = ORIENTED_EDGE ( 'NONE', *, *, #22, .T. ) ;
#153 = STYLED_ITEM ( 'NONE', ( #231 ), #233 ) ;
#154 = ORIENTED_EDGE ( 'NONE', *, *, #183, .F. ) ;
#155 = AXIS2_PLACEMENT_3D ( 'NONE', #113, #296, #163 ) ;
#156 = EDGE_LOOP ( 'NONE', ( #33, #248, #114, #232 ) ) ;
#157 = CARTESIAN_POINT ( 'NONE',  ( 0.0000000000000000000, 0.0000000000000000000, 3.922008000000000827 ) ) ;
#158 = CARTESIAN_POINT ( 'NONE',  ( 1.929671205251539577E-16, 0.0000000000000000000, 1.575696116296593896 ) ) ;
#159 = CIRCLE ( 'NONE', #187, 0.1424805000000004540 ) ;
#160 = FACE_OUTER_BOUND ( 'NONE', #214, .T. ) ;
#161 = VERTEX_POINT ( 'NONE', #19 ) ;
#162 = COLOUR_RGB ( '',0.7921568627450980005, 0.8196078431372548767, 0.9333333333333333481 ) ;
#163 = DIRECTION ( 'NONE',  ( -1.000000000000000000, 0.0000000000000000000, 0.0000000000000000000 ) ) ;
#164 = FACE_OUTER_BOUND ( 'NONE', #165, .T. ) ;
#165 = EDGE_LOOP ( 'NONE', ( #246, #284, #208, #229 ) ) ;
#166 = LENGTH_MEASURE_WITH_UNIT ( LENGTH_MEASURE( 0.02539999999999999897 ), #32 );
#167 =( CONVERSION_BASED_UNIT ( 'INCH', #166 ) LENGTH_UNIT ( ) NAMED_UNIT ( #8 ) );
#168 = DIRECTION ( 'NONE',  ( 0.0000000000000000000, 0.0000000000000000000, 1.000000000000000000 ) ) ;
#169 = ADVANCED_FACE ( 'NONE', ( #160 ), #224, .T. ) ;
#170 = DIRECTION ( 'NONE',  ( 1.000000000000000000, 0.0000000000000000000, -0.0000000000000000000 ) ) ;
#171 = VECTOR ( 'NONE', #46, 39.37007874015748143 ) ;
#172 = APPLICATION_CONTEXT ( 'automotive_design' ) ;
#173 = EDGE_CURVE ( 'NONE', #161, #254, #200, .T. ) ;
#174 = ORIENTED_EDGE ( 'NONE', *, *, #121, .T. ) ;
#175 = UNCERTAINTY_MEASURE_WITH_UNIT (LENGTH_MEASURE( 1.000000000000000082E-05 ), #167, 'distance_accuracy_value', 'NONE');
#176 = DIRECTION ( 'NONE',  ( 1.000000000000000000, 0.0000000000000000000, 0.0000000000000000000 ) ) ;
#177 = AXIS2_PLACEMENT_3D ( 'NONE', #258, #282, #237 ) ;
#178 = SURFACE_STYLE_FILL_AREA ( #151 ) ;
#179 = DIRECTION ( 'NONE',  ( -1.224646799147353207E-16, -0.0000000000000000000, -1.000000000000000000 ) ) ;
#180 = DIRECTION ( 'NONE',  ( -1.000000000000000000, 0.0000000000000000000, 0.0000000000000000000 ) ) ;
#181 = VECTOR ( 'NONE', #30, 39.37007874015748143 ) ;
#182 = CARTESIAN_POINT ( 'NONE',  ( 0.0000000000000000000, 0.0000000000000000000, 3.937007999999999619 ) ) ;
#183 = EDGE_CURVE ( 'NONE', #138, #14, #212, .T. ) ;
#184 = CARTESIAN_POINT ( 'NONE',  ( 0.1424805000000004540, 1.836731392595198898E-17, 3.937007999999999619 ) ) ;
#185 = DIRECTION ( 'NONE',  ( -1.224646799147353207E-16, -0.0000000000000000000, -1.000000000000000000 ) ) ;
#186 = CARTESIAN_POINT ( 'NONE',  ( -0.1424805000000004540, 0.0000000000000000000, 3.937007999999999619 ) ) ;
#187 = AXIS2_PLACEMENT_3D ( 'NONE', #203, #45, #141 ) ;
#188 = STYLED_ITEM ( 'NONE', ( #55 ), #100 ) ;
#189 = CARTESIAN_POINT ( 'NONE',  ( 0.0000000000000000000, 0.0000000000000000000, 0.0000000000000000000 ) ) ;
#190 = APPLICATION_PROTOCOL_DEFINITION ( 'draft international standard', 'automotive_design', 1998, #172 ) ;
#191 = AXIS2_PLACEMENT_3D ( 'NONE', #182, #40, #180 ) ;
#192 = SURFACE_STYLE_USAGE ( .BOTH. , #268 ) ;
#193 = VERTEX_POINT ( 'NONE', #24 ) ;
#194 = CARTESIAN_POINT ( 'NONE',  ( 0.0000000000000000000, 0.0000000000000000000, 0.0000000000000000000 ) ) ;
#195 = AXIS2_PLACEMENT_3D ( 'NONE', #273, #206, #51 ) ;
#196 = CIRCLE ( 'NONE', #266, 0.1573230195000000220 ) ;
#197 = CARTESIAN_POINT ( 'NONE',  ( 2.359467375330272285E-33, 0.0000000000000000000, 1.926651322628716627E-17 ) ) ;
#198 = DIRECTION ( 'NONE',  ( -0.0000000000000000000, -0.0000000000000000000, -1.000000000000000000 ) ) ;
#199 = CARTESIAN_POINT ( 'NONE',  ( 1.928577453237649374E-16, 0.0000000000000000000, 1.574802999999999953 ) ) ;
#200 = LINE ( 'NONE', #270, #236 ) ;
#201 = ADVANCED_FACE ( 'NONE', ( #92 ), #77, .T. ) ;
#202 = CONICAL_SURFACE ( 'NONE', #57, 0.1424805000000004540, 0.7853981633974608245 ) ;
#203 = CARTESIAN_POINT ( 'NONE',  ( 0.0000000000000000000, 0.0000000000000000000, 3.937007999999999619 ) ) ;
#204 = CARTESIAN_POINT ( 'NONE',  ( 0.1574804999999999955, 1.928579902531247412E-17, 3.922008000000000827 ) ) ;
#205 = ORIENTED_EDGE ( 'NONE', *, *, #131, .F. ) ;
#206 = DIRECTION ( 'NONE',  ( 1.224646799147353207E-16, 0.0000000000000000000, 1.000000000000000000 ) ) ;
#207 = CIRCLE ( 'NONE', #31, 0.1573230194999999942 ) ;
#208 = ORIENTED_EDGE ( 'NONE', *, *, #52, .T. ) ;
#209 = DIRECTION ( 'NONE',  ( 1.000000000000000000, 0.0000000000000000000, -0.0000000000000000000 ) ) ;
#210 = DIRECTION ( 'NONE',  ( -1.000000000000000000, 0.0000000000000000000, 0.0000000000000000000 ) ) ;
#211 = EDGE_CURVE ( 'NONE', #138, #254, #299, .T. ) ;
#212 = CIRCLE ( 'NONE', #123, 0.1574804999999999955 ) ;
#213 = ORIENTED_EDGE ( 'NONE', *, *, #12, .T. ) ;
#214 = EDGE_LOOP ( 'NONE', ( #126, #216, #11, #82 ) ) ;
#215 = ORIENTED_EDGE ( 'NONE', *, *, #289, .T. ) ;
#216 = ORIENTED_EDGE ( 'NONE', *, *, #130, .T. ) ;
#217 =( CONVERSION_BASED_UNIT ( 'INCH', #290 ) LENGTH_UNIT ( ) NAMED_UNIT ( #240 ) );
#218 = ORIENTED_EDGE ( 'NONE', *, *, #67, .F. ) ;
#219 = LINE ( 'NONE', #107, #275 ) ;
#220 = CONICAL_SURFACE ( 'NONE', #95, 0.1573230195000000220, 0.1745329251994340025 ) ;
#221 = DIRECTION ( 'NONE',  ( 0.0000000000000000000, 0.0000000000000000000, 1.000000000000000000 ) ) ;
#222 = DIRECTION ( 'NONE',  ( 0.0000000000000000000, 0.0000000000000000000, -1.000000000000000000 ) ) ;
#223 = ADVANCED_FACE ( 'NONE', ( #125 ), #277, .F. ) ;
#224 = CYLINDRICAL_SURFACE ( 'NONE', #242, 0.1574804999999999955 ) ;
#225 = DIRECTION ( 'NONE',  ( 0.0000000000000000000, 0.0000000000000000000, -1.000000000000000000 ) ) ;
#226 = CARTESIAN_POINT ( 'NONE',  ( 0.1573230195000002440, 0.0000000000000000000, 1.574802999999999953 ) ) ;
#227 = VECTOR ( 'NONE', #230, 39.37007874015748143 ) ;
#228 = AXIS2_PLACEMENT_3D ( 'NONE', #26, #235, #150 ) ;
#229 = ORIENTED_EDGE ( 'NONE', *, *, #121, .F. ) ;
#230 = DIRECTION ( 'NONE',  ( 0.1736481776669314969, 0.0000000000000000000, 0.9848077530122077983 ) ) ;
#231 = PRESENTATION_STYLE_ASSIGNMENT (( #50 ) ) ;
#232 = ORIENTED_EDGE ( 'NONE', *, *, #211, .F. ) ;
#233 = MANIFOLD_SOLID_BREP ( 'Cut-Revolve1', #89 ) ;
#234 = ORIENTED_EDGE ( 'NONE', *, *, #52, .F. ) ;
#235 = DIRECTION ( 'NONE',  ( 0.0000000000000000000, 0.0000000000000000000, -1.000000000000000000 ) ) ;
#236 = VECTOR ( 'NONE', #88, 39.37007874015748143 ) ;
#237 = DIRECTION ( 'NONE',  ( -1.000000000000000000, 0.0000000000000000000, 1.224646799147353454E-16 ) ) ;
#238 = ADVANCED_FACE ( 'NONE', ( #164 ), #149, .T. ) ;
#239 = CARTESIAN_POINT ( 'NONE',  ( 0.1424805000000004540, 1.744882882659150076E-17, 3.937007999999999619 ) ) ;
#240 = DIMENSIONAL_EXPONENTS ( 1.000000000000000000, 0.0000000000000000000, 0.0000000000000000000, 0.0000000000000000000, 0.0000000000000000000, 0.0000000000000000000, 0.0000000000000000000 ) ;
#241 = CARTESIAN_POINT ( 'NONE',  ( 0.1573230195000002440, 0.0000000000000000000, 1.574802999999999953 ) ) ;
#242 = AXIS2_PLACEMENT_3D ( 'NONE', #61, #198, #111 ) ;
#243 = MECHANICAL_DESIGN_GEOMETRIC_PRESENTATION_REPRESENTATION (  '', ( #188 ), #64 ) ;
#244 = DIMENSIONAL_EXPONENTS ( 1.000000000000000000, 0.0000000000000000000, 0.0000000000000000000, 0.0000000000000000000, 0.0000000000000000000, 0.0000000000000000000, 0.0000000000000000000 ) ;
#245 = PRODUCT_CONTEXT ( 'NONE', #134, 'mechanical' ) ;
#246 = ORIENTED_EDGE ( 'NONE', *, *, #23, .F. ) ;
#247 = CIRCLE ( 'NONE', #112, 0.1574804999999999955 ) ;
#248 = ORIENTED_EDGE ( 'NONE', *, *, #261, .T. ) ;
#249 = DIRECTION ( 'NONE',  ( -0.7071067811865563435, 0.0000000000000000000, -0.7071067811865386910 ) ) ;
#250 = ADVANCED_FACE ( 'NONE', ( #263 ), #291, .T. ) ;
#251 = CARTESIAN_POINT ( 'NONE',  ( 0.1573230194999999942, 1.926651322628716627E-17, 3.791200677927629740E-33 ) ) ;
#252 = AXIS2_PLACEMENT_3D ( 'NONE', #39, #221, #176 ) ;
#253 = DIRECTION ( 'NONE',  ( -1.000000000000000000, 0.0000000000000000000, 0.0000000000000000000 ) ) ;
#254 = VERTEX_POINT ( 'NONE', #117 ) ;
#255 = AXIS2_PLACEMENT_3D ( 'NONE', #194, #83, #42 ) ;
#256 = VECTOR ( 'NONE', #29, 39.37007874015748143 ) ;
#257 = VERTEX_POINT ( 'NONE', #186 ) ;
#258 = CARTESIAN_POINT ( 'NONE',  ( 0.0000000000000000000, 0.0000000000000000000, 0.0000000000000000000 ) ) ;
#259 = ORIENTED_EDGE ( 'NONE', *, *, #289, .F. ) ;
#260 = EDGE_LOOP ( 'NONE', ( #213, #128, #205, #234 ) ) ;
#261 = EDGE_CURVE ( 'NONE', #14, #193, #6, .T. ) ;
#262 =( NAMED_UNIT ( * ) PLANE_ANGLE_UNIT ( ) SI_UNIT ( $, .RADIAN. ) );
#263 = FACE_OUTER_BOUND ( 'NONE', #104, .T. ) ;
#264 =( NAMED_UNIT ( * ) PLANE_ANGLE_UNIT ( ) SI_UNIT ( $, .RADIAN. ) );
#265 = EDGE_LOOP ( 'NONE', ( #259, #272, #294, #47 ) ) ;
#266 = AXIS2_PLACEMENT_3D ( 'NONE', #280, #122, #210 ) ;
#267 = CARTESIAN_POINT ( 'NONE',  ( -0.1573230194999999942, 0.0000000000000000000, 3.853302645257433254E-17 ) ) ;
#268 = SURFACE_SIDE_STYLE ('',( #178 ) ) ;
#269 = DIRECTION ( 'NONE',  ( -1.000000000000000000, 0.0000000000000000000, 1.224646799147353454E-16 ) ) ;
#270 = CARTESIAN_POINT ( 'NONE',  ( -0.1573230194999998277, 1.926651322628716935E-17, 1.574802999999999953 ) ) ;
#271 = FACE_OUTER_BOUND ( 'NONE', #265, .T. ) ;
#272 = ORIENTED_EDGE ( 'NONE', *, *, #115, .F. ) ;
#273 = CARTESIAN_POINT ( 'NONE',  ( 1.928577453237649374E-16, 0.0000000000000000000, 1.574802999999999953 ) ) ;
#274 = ORIENTED_EDGE ( 'NONE', *, *, #173, .F. ) ;
#275 = VECTOR ( 'NONE', #249, 39.37007874015748143 ) ;
#276 = VERTEX_POINT ( 'NONE', #241 ) ;
#277 = PLANE ( 'NONE',  #286 ) ;
#278 = ORIENTED_EDGE ( 'NONE', *, *, #5, .F. ) ;
#279 = EDGE_CURVE ( 'NONE', #276, #161, #196, .T. ) ;
#280 = CARTESIAN_POINT ( 'NONE',  ( 1.928577453237649374E-16, 0.0000000000000000000, 1.574802999999999953 ) ) ;
#281 = PRODUCT_DEFINITION_FORMATION_WITH_SPECIFIED_SOURCE ( 'ANY', '', #60, .NOT_KNOWN. ) ;
#282 = DIRECTION ( 'NONE',  ( -1.224646799147353207E-16, -0.0000000000000000000, -1.000000000000000000 ) ) ;
#283 = PLANE ( 'NONE',  #58 ) ;
#284 = ORIENTED_EDGE ( 'NONE', *, *, #279, .T. ) ;
#285 =( LENGTH_UNIT ( ) NAMED_UNIT ( * ) SI_UNIT ( $, .METRE. ) );
#286 = AXIS2_PLACEMENT_3D ( 'NONE', #189, #168, #209 ) ;
#287 =( LENGTH_UNIT ( ) NAMED_UNIT ( * ) SI_UNIT ( $, .METRE. ) );
#288 = LENGTH_MEASURE_WITH_UNIT ( LENGTH_MEASURE( 0.02539999999999999897 ), #285 );
#289 = EDGE_CURVE ( 'NONE', #27, #14, #74, .T. ) ;
#290 = LENGTH_MEASURE_WITH_UNIT ( LENGTH_MEASURE( 0.02539999999999999897 ), #287 );
#291 = CONICAL_SURFACE ( 'NONE', #228, 0.1424805000000004540, 0.7853981633974608245 ) ;
#292 = DIRECTION ( 'NONE',  ( -1.224646799147353207E-16, -0.0000000000000000000, -1.000000000000000000 ) ) ;
#293 = FACE_OUTER_BOUND ( 'NONE', #260, .T. ) ;
#294 = ORIENTED_EDGE ( 'NONE', *, *, #67, .T. ) ;
#295 = CIRCLE ( 'NONE', #2, 0.1573230194999999942 ) ;
#296 = DIRECTION ( 'NONE',  ( -1.224646799147353207E-16, -0.0000000000000000000, -1.000000000000000000 ) ) ;
#297 = ADVANCED_FACE ( 'NONE', ( #37 ), #283, .T. ) ;
#298 = CARTESIAN_POINT ( 'NONE',  ( 1.929671205251539577E-16, 0.0000000000000000000, 1.575696116296593896 ) ) ;
#299 = LINE ( 'NONE', #145, #171 ) ;
ENDSEC;
END-ISO-10303-21;
