ISO-10303-21;
HEADER;
FILE_DESCRIPTION (( 'STEP AP214' ),
    '1' );
FILE_NAME ('59828.STEP',
    '2023-07-12T13:06:51',
    ( '' ),
    ( '' ),
    'SwSTEP 2.0',
    'SolidWorks 2023',
    '' );
FILE_SCHEMA (( 'AUTOMOTIVE_DESIGN' ));
ENDSEC;

DATA;
#1 = CYLINDRICAL_SURFACE ( 'NONE', #260, 0.1249999999999997780 ) ;
#2 = PRESENTATION_STYLE_ASSIGNMENT (( #124 ) ) ;
#3 = DIMENSIONAL_EXPONENTS ( 1.000000000000000000, 0.000000000000000000, 0.000000000000000000, 0.000000000000000000, 0.000000000000000000, 0.000000000000000000, 0.000000000000000000 ) ;
#4 =( LENGTH_UNIT ( ) NAMED_UNIT ( * ) SI_UNIT ( $, .METRE. ) );
#5 =( LENGTH_UNIT ( ) NAMED_UNIT ( * ) SI_UNIT ( $, .METRE. ) );
#6 = SHAPE_DEFINITION_REPRESENTATION ( #76, #208 ) ;
#7 = COLOUR_RGB ( '',1.000000000000000000, 0.000000000000000000, 0.000000000000000000 ) ;
#8 =( CONVERSION_BASED_UNIT ( 'INCH', #286 ) LENGTH_UNIT ( ) NAMED_UNIT ( #230 ) );
#9 = PLANE ( 'NONE',  #26 ) ;
#10 = CARTESIAN_POINT ( 'NONE',  ( -0.02999999999999999889, 1.586169977145425084E-18, 0.000000000000000000 ) ) ;
#11 = EDGE_LOOP ( 'NONE', ( #297, #186 ) ) ;
#12 =( GEOMETRIC_REPRESENTATION_CONTEXT ( 3 ) GLOBAL_UNCERTAINTY_ASSIGNED_CONTEXT ( ( #116 ) ) GLOBAL_UNIT_ASSIGNED_CONTEXT ( ( #78, #248, #123 ) ) REPRESENTATION_CONTEXT ( 'NONE', 'WORKASPACE' ) );
#13 = PRODUCT_DEFINITION ( 'UNKNOWN', '', #150, #70 ) ;
#14 = DIRECTION ( 'NONE',  ( -2.643616628575708448E-17, -1.000000000000000000, -0.000000000000000000 ) ) ;
#15 = UNCERTAINTY_MEASURE_WITH_UNIT (LENGTH_MEASURE( 1.000000000000000082E-05 ), #264, 'distance_accuracy_value', 'NONE');
#16 = CLOSED_SHELL ( 'NONE', ( #147, #20, #118, #164 ) ) ;
#17 = ORIENTED_EDGE ( 'NONE', *, *, #304, .T. ) ;
#18 = SURFACE_STYLE_FILL_AREA ( #89 ) ;
#19 = DIRECTION ( 'NONE',  ( -2.643616628575708448E-17, -1.000000000000000000, -0.000000000000000000 ) ) ;
#20 = ADVANCED_FACE ( 'NONE', ( #242 ), #27, .F. ) ;
#21 = AXIS2_PLACEMENT_3D ( 'NONE', #183, #72, #120 ) ;
#22 = SURFACE_SIDE_STYLE ('',( #37 ) ) ;
#23 = CARTESIAN_POINT ( 'NONE',  ( 1.048306331832299394E-35, 3.965424942863562710E-19, 0.000000000000000000 ) ) ;
#24 = LINE ( 'NONE', #115, #117 ) ;
#25 = FACE_OUTER_BOUND ( 'NONE', #11, .T. ) ;
#26 = AXIS2_PLACEMENT_3D ( 'NONE', #272, #110, #187 ) ;
#27 = PLANE ( 'NONE',  #184 ) ;
#28 = CIRCLE ( 'NONE', #98, 0.02999999999999999889 ) ;
#29 = VECTOR ( 'NONE', #103, 39.37007874015748854 ) ;
#30 = COLOUR_RGB ( '',1.000000000000000000, 0.000000000000000000, 0.000000000000000000 ) ;
#31 = DIRECTION ( 'NONE',  ( -1.241081893623867696E-16, 1.000000000000000000, -0.000000000000000000 ) ) ;
#32 = DIRECTION ( 'NONE',  ( 2.643616628575708448E-17, 1.000000000000000000, 0.000000000000000000 ) ) ;
#33 = CARTESIAN_POINT ( 'NONE',  ( 6.123233995736772199E-17, 2.500000000000000000, 0.000000000000000000 ) ) ;
#34 = LENGTH_MEASURE_WITH_UNIT ( LENGTH_MEASURE( 0.02539999999999999897 ), #204 );
#35 =( GEOMETRIC_REPRESENTATION_CONTEXT ( 3 ) GLOBAL_UNCERTAINTY_ASSIGNED_CONTEXT ( ( #15 ) ) GLOBAL_UNIT_ASSIGNED_CONTEXT ( ( #264, #216, #142 ) ) REPRESENTATION_CONTEXT ( 'NONE', 'WORKASPACE' ) );
#36 =( CONVERSION_BASED_UNIT ( 'INCH', #180 ) LENGTH_UNIT ( ) NAMED_UNIT ( #3 ) );
#37 = SURFACE_STYLE_FILL_AREA ( #292 ) ;
#38 = ORIENTED_EDGE ( 'NONE', *, *, #309, .T. ) ;
#39 = DIRECTION ( 'NONE',  ( 0.000000000000000000, 0.000000000000000000, 1.000000000000000000 ) ) ;
#40 =( NAMED_UNIT ( * ) PLANE_ANGLE_UNIT ( ) SI_UNIT ( $, .RADIAN. ) );
#41 = EDGE_CURVE ( 'NONE', #194, #188, #24, .T. ) ;
#42 = STYLED_ITEM ( 'NONE', ( #189 ), #128 ) ;
#43 = DIRECTION ( 'NONE',  ( 2.643616628575708139E-17, 1.000000000000000000, 0.000000000000000000 ) ) ;
#44 = AXIS2_PLACEMENT_3D ( 'NONE', #52, #92, #284 ) ;
#45 = ADVANCED_FACE ( 'NONE', ( #25 ), #244, .T. ) ;
#46 = ORIENTED_EDGE ( 'NONE', *, *, #169, .T. ) ;
#47 = PRESENTATION_STYLE_ASSIGNMENT (( #167 ) ) ;
#48 = COLOUR_RGB ( '',1.000000000000000000, 0.000000000000000000, 0.000000000000000000 ) ;
#49 = DIRECTION ( 'NONE',  ( -1.000000000000000000, 0.000000000000000000, 0.000000000000000000 ) ) ;
#50 = EDGE_CURVE ( 'NONE', #228, #162, #163, .T. ) ;
#51 = FILL_AREA_STYLE_COLOUR ( '', #74 ) ;
#52 = CARTESIAN_POINT ( 'NONE',  ( 2.096612663664598788E-35, 7.930849885727125420E-19, 0.000000000000000000 ) ) ;
#53 = DIRECTION ( 'NONE',  ( -1.241081893623867696E-16, 1.000000000000000000, -0.000000000000000000 ) ) ;
#54 = SURFACE_STYLE_FILL_AREA ( #173 ) ;
#55 = EDGE_CURVE ( 'NONE', #162, #228, #28, .T. ) ;
#56 = LENGTH_MEASURE_WITH_UNIT ( LENGTH_MEASURE( 0.02539999999999999897 ), #4 );
#57 = AXIS2_PLACEMENT_3D ( 'NONE', #82, #43, #132 ) ;
#58 =( NAMED_UNIT ( * ) SI_UNIT ( $, .STERADIAN. ) SOLID_ANGLE_UNIT ( ) );
#59 = EDGE_CURVE ( 'NONE', #188, #130, #87, .T. ) ;
#60 = LINE ( 'NONE', #156, #199 ) ;
#61 = ORIENTED_EDGE ( 'NONE', *, *, #175, .F. ) ;
#62 = STYLED_ITEM ( 'NONE', ( #47 ), #222 ) ;
#63 = CARTESIAN_POINT ( 'NONE',  ( 0.02999999999999999889, 0.000000000000000000, 3.673940397442059190E-18 ) ) ;
#64 = AXIS2_PLACEMENT_3D ( 'NONE', #254, #39, #174 ) ;
#65 = DIRECTION ( 'NONE',  ( 1.000000000000000000, 0.000000000000000000, 0.000000000000000000 ) ) ;
#66 = ORIENTED_EDGE ( 'NONE', *, *, #59, .F. ) ;
#67 = ORIENTED_EDGE ( 'NONE', *, *, #256, .T. ) ;
#68 = PRESENTATION_STYLE_ASSIGNMENT (( #302 ) ) ;
#69 = DIRECTION ( 'NONE',  ( -1.241081893623867696E-16, 1.000000000000000000, -0.000000000000000000 ) ) ;
#70 = PRODUCT_DEFINITION_CONTEXT ( 'detailed design', #107, 'design' ) ;
#71 = DIRECTION ( 'NONE',  ( -1.241081893623867696E-16, 1.000000000000000000, 0.000000000000000000 ) ) ;
#72 = DIRECTION ( 'NONE',  ( 2.643616628575708448E-17, 1.000000000000000000, 0.000000000000000000 ) ) ;
#73 =( LENGTH_UNIT ( ) NAMED_UNIT ( * ) SI_UNIT ( $, .METRE. ) );
#74 = COLOUR_RGB ( '',0.7921568627450980005, 0.8196078431372548767, 0.9333333333333333481 ) ;
#75 = FILL_AREA_STYLE_COLOUR ( '', #283 ) ;
#76 = PRODUCT_DEFINITION_SHAPE ( 'NONE', 'NONE',  #13 ) ;
#77 = STYLED_ITEM ( 'NONE', ( #252 ), #218 ) ;
#78 =( CONVERSION_BASED_UNIT ( 'INCH', #56 ) LENGTH_UNIT ( ) NAMED_UNIT ( #224 ) );
#79 = CARTESIAN_POINT ( 'NONE',  ( -0.1250000000000000278, 0.05484827557301415885, 0.000000000000000000 ) ) ;
#80 = DIRECTION ( 'NONE',  ( -1.000000000000000000, -1.365923996832135800E-16, 0.000000000000000000 ) ) ;
#81 = EDGE_LOOP ( 'NONE', ( #185, #38, #179, #61 ) ) ;
#82 = CARTESIAN_POINT ( 'NONE',  ( 1.449978133535230861E-18, 0.05484827557301416578, 0.000000000000000000 ) ) ;
#83 = ORIENTED_EDGE ( 'NONE', *, *, #55, .F. ) ;
#84 = CIRCLE ( 'NONE', #295, 0.1249999999999999306 ) ;
#85 = FACE_OUTER_BOUND ( 'NONE', #81, .T. ) ;
#86 = ORIENTED_EDGE ( 'NONE', *, *, #304, .F. ) ;
#87 = CIRCLE ( 'NONE', #201, 0.1249999999999999306 ) ;
#88 = CIRCLE ( 'NONE', #135, 0.1249999999999996114 ) ;
#89 = FILL_AREA_STYLE ('',( #51 ) ) ;
#90 = FILL_AREA_STYLE ('',( #138 ) ) ;
#91 = SURFACE_STYLE_USAGE ( .BOTH. , #259 ) ;
#92 = DIRECTION ( 'NONE',  ( -2.643616628575708448E-17, -1.000000000000000000, -0.000000000000000000 ) ) ;
#93 = CARTESIAN_POINT ( 'NONE',  ( 3.646956931923186545E-16, 0.05484827557301415191, 0.000000000000000000 ) ) ;
#94 = PRESENTATION_LAYER_ASSIGNMENT (  '', '', ( #193 ) ) ;
#95 = DIRECTION ( 'NONE',  ( 1.000000000000000000, -2.643616628575708139E-17, 0.000000000000000000 ) ) ;
#96 = UNCERTAINTY_MEASURE_WITH_UNIT (LENGTH_MEASURE( 1.000000000000000082E-05 ), #294, 'distance_accuracy_value', 'NONE');
#97 = PRESENTATION_LAYER_ASSIGNMENT (  '', '', ( #240 ) ) ;
#98 = AXIS2_PLACEMENT_3D ( 'NONE', #144, #122, #219 ) ;
#99 =( LENGTH_UNIT ( ) NAMED_UNIT ( * ) SI_UNIT ( $, .METRE. ) );
#100 = DIRECTION ( 'NONE',  ( -1.241081893623867696E-16, 1.000000000000000000, -0.000000000000000000 ) ) ;
#101 =( GEOMETRIC_REPRESENTATION_CONTEXT ( 3 ) GLOBAL_UNCERTAINTY_ASSIGNED_CONTEXT ( ( #96 ) ) GLOBAL_UNIT_ASSIGNED_CONTEXT ( ( #294, #40, #181 ) ) REPRESENTATION_CONTEXT ( 'NONE', 'WORKASPACE' ) );
#102 =( NAMED_UNIT ( * ) PLANE_ANGLE_UNIT ( ) SI_UNIT ( $, .RADIAN. ) );
#103 = DIRECTION ( 'NONE',  ( 0.8660254037844397068, 0.4999999999999979461, 1.060575238724908024E-16 ) ) ;
#104 = EDGE_CURVE ( 'NONE', #238, #293, #263, .T. ) ;
#105 = FILL_AREA_STYLE_COLOUR ( '', #7 ) ;
#106 = ORIENTED_EDGE ( 'NONE', *, *, #256, .F. ) ;
#107 = APPLICATION_CONTEXT ( 'automotive_design' ) ;
#108 = DIRECTION ( 'NONE',  ( -1.241081893623867696E-16, 1.000000000000000000, -0.000000000000000000 ) ) ;
#109 =( GEOMETRIC_REPRESENTATION_CONTEXT ( 3 ) GLOBAL_UNCERTAINTY_ASSIGNED_CONTEXT ( ( #301 ) ) GLOBAL_UNIT_ASSIGNED_CONTEXT ( ( #36, #102, #58 ) ) REPRESENTATION_CONTEXT ( 'NONE', 'WORKASPACE' ) );
#110 = DIRECTION ( 'NONE',  ( 1.241081893623867696E-16, -1.000000000000000000, 0.000000000000000000 ) ) ;
#111 = LENGTH_MEASURE_WITH_UNIT ( LENGTH_MEASURE( 0.02539999999999999897 ), #73 );
#112 = PRESENTATION_LAYER_ASSIGNMENT (  '', '', ( #77 ) ) ;
#113 = CONICAL_SURFACE ( 'NONE', #121, 0.02999999999999999889, 1.047197551196600074 ) ;
#114 = CARTESIAN_POINT ( 'NONE',  ( 3.646956931923186545E-16, 0.05484827557301410333, 0.000000000000000000 ) ) ;
#115 = CARTESIAN_POINT ( 'NONE',  ( 0.1249999999999998473, 2.500000000000000000, 1.530808498934188736E-17 ) ) ;
#116 = UNCERTAINTY_MEASURE_WITH_UNIT (LENGTH_MEASURE( 1.000000000000000082E-05 ), #78, 'distance_accuracy_value', 'NONE');
#117 = VECTOR ( 'NONE', #307, 39.37007874015748143 ) ;
#118 = ADVANCED_FACE ( 'NONE', ( #191 ), #168, .T. ) ;
#119 = PRESENTATION_STYLE_ASSIGNMENT (( #266 ) ) ;
#120 = DIRECTION ( 'NONE',  ( -1.000000000000000000, 2.643616628575708448E-17, 0.000000000000000000 ) ) ;
#121 = AXIS2_PLACEMENT_3D ( 'NONE', #215, #32, #195 ) ;
#122 = DIRECTION ( 'NONE',  ( -2.643616628575708448E-17, -1.000000000000000000, -0.000000000000000000 ) ) ;
#123 =( NAMED_UNIT ( * ) SI_UNIT ( $, .STERADIAN. ) SOLID_ANGLE_UNIT ( ) );
#124 = SURFACE_STYLE_USAGE ( .BOTH. , #247 ) ;
#125 = PRODUCT ( '59828', '59828', '', ( #269 ) ) ;
#126 = DIMENSIONAL_EXPONENTS ( 1.000000000000000000, 0.000000000000000000, 0.000000000000000000, 0.000000000000000000, 0.000000000000000000, 0.000000000000000000, 0.000000000000000000 ) ;
#127 = MECHANICAL_DESIGN_GEOMETRIC_PRESENTATION_REPRESENTATION (  '', ( #62 ), #35 ) ;
#128 = ADVANCED_FACE ( 'NONE', ( #262 ), #113, .T. ) ;
#129 = SURFACE_STYLE_FILL_AREA ( #209 ) ;
#130 = VERTEX_POINT ( 'NONE', #291 ) ;
#131 = LINE ( 'NONE', #63, #29 ) ;
#132 = DIRECTION ( 'NONE',  ( -1.000000000000000000, 2.643616628575708139E-17, 0.000000000000000000 ) ) ;
#133 = DIRECTION ( 'NONE',  ( -1.000000000000000000, 0.000000000000000000, 0.000000000000000000 ) ) ;
#134 = EDGE_LOOP ( 'NONE', ( #17, #207 ) ) ;
#135 = AXIS2_PLACEMENT_3D ( 'NONE', #276, #154, #80 ) ;
#136 = SURFACE_STYLE_USAGE ( .BOTH. , #206 ) ;
#137 = EDGE_LOOP ( 'NONE', ( #203, #83, #160, #278 ) ) ;
#138 = FILL_AREA_STYLE_COLOUR ( '', #48 ) ;
#139 = MECHANICAL_DESIGN_GEOMETRIC_PRESENTATION_REPRESENTATION (  '', ( #240 ), #109 ) ;
#140 = LENGTH_MEASURE_WITH_UNIT ( LENGTH_MEASURE( 0.02539999999999999897 ), #282 );
#141 = DIRECTION ( 'NONE',  ( -1.000000000000000000, -1.241081893623867696E-16, 0.000000000000000000 ) ) ;
#142 =( NAMED_UNIT ( * ) SI_UNIT ( $, .STERADIAN. ) SOLID_ANGLE_UNIT ( ) );
#143 = FILL_AREA_STYLE_COLOUR ( '', #30 ) ;
#144 = CARTESIAN_POINT ( 'NONE',  ( 2.096612663664598788E-35, 7.930849885727125420E-19, 0.000000000000000000 ) ) ;
#145 = DIRECTION ( 'NONE',  ( -1.000000000000000000, 0.000000000000000000, 0.000000000000000000 ) ) ;
#146 = MANIFOLD_SOLID_BREP ( 'Revolve - Cutting Edge', #221 ) ;
#147 = ADVANCED_FACE ( 'NONE', ( #275 ), #1, .T. ) ;
#148 =( GEOMETRIC_REPRESENTATION_CONTEXT ( 3 ) GLOBAL_UNCERTAINTY_ASSIGNED_CONTEXT ( ( #220 ) ) GLOBAL_UNIT_ASSIGNED_CONTEXT ( ( #8, #198, #177 ) ) REPRESENTATION_CONTEXT ( 'NONE', 'WORKASPACE' ) );
#149 = DIRECTION ( 'NONE',  ( -1.000000000000000000, -1.365923996832135800E-16, 0.000000000000000000 ) ) ;
#150 = PRODUCT_DEFINITION_FORMATION_WITH_SPECIFIED_SOURCE ( 'ANY', '', #125, .NOT_KNOWN. ) ;
#151 = APPLICATION_PROTOCOL_DEFINITION ( 'draft international standard', 'automotive_design', 1998, #270 ) ;
#152 = CARTESIAN_POINT ( 'NONE',  ( 0.1249999999999999445, 0.05484827557301412415, 1.530808498934189660E-17 ) ) ;
#153 = DIRECTION ( 'NONE',  ( -1.000000000000000000, 0.000000000000000000, 0.000000000000000000 ) ) ;
#154 = DIRECTION ( 'NONE',  ( -1.241081893623867696E-16, 1.000000000000000000, -0.000000000000000000 ) ) ;
#155 = DIMENSIONAL_EXPONENTS ( 1.000000000000000000, 0.000000000000000000, 0.000000000000000000, 0.000000000000000000, 0.000000000000000000, 0.000000000000000000, 0.000000000000000000 ) ;
#156 = CARTESIAN_POINT ( 'NONE',  ( -0.02999999999999999889, 1.586169977145425084E-18, 0.000000000000000000 ) ) ;
#157 = ORIENTED_EDGE ( 'NONE', *, *, #104, .F. ) ;
#158 = FACE_OUTER_BOUND ( 'NONE', #229, .T. ) ;
#159 =( CONVERSION_BASED_UNIT ( 'INCH', #34 ) LENGTH_UNIT ( ) NAMED_UNIT ( #155 ) );
#160 = ORIENTED_EDGE ( 'NONE', *, *, #175, .T. ) ;
#161 = MECHANICAL_DESIGN_GEOMETRIC_PRESENTATION_REPRESENTATION (  '', ( #246 ), #101 ) ;
#162 = VERTEX_POINT ( 'NONE', #10 ) ;
#163 = CIRCLE ( 'NONE', #44, 0.02999999999999999889 ) ;
#164 = ADVANCED_FACE ( 'NONE', ( #178 ), #9, .F. ) ;
#165 = FILL_AREA_STYLE ('',( #143 ) ) ;
#166 = AXIS2_PLACEMENT_3D ( 'NONE', #232, #14, #65 ) ;
#167 = SURFACE_STYLE_USAGE ( .BOTH. , #22 ) ;
#168 = CYLINDRICAL_SURFACE ( 'NONE', #210, 0.1249999999999997780 ) ;
#169 = EDGE_CURVE ( 'NONE', #258, #194, #88, .T. ) ;
#170 = APPLICATION_PROTOCOL_DEFINITION ( 'draft international standard', 'automotive_design', 1998, #107 ) ;
#171 = CARTESIAN_POINT ( 'NONE',  ( 6.123233995736772199E-17, 2.500000000000000000, 0.000000000000000000 ) ) ;
#172 =( GEOMETRIC_REPRESENTATION_CONTEXT ( 3 ) GLOBAL_UNCERTAINTY_ASSIGNED_CONTEXT ( ( #306 ) ) GLOBAL_UNIT_ASSIGNED_CONTEXT ( ( #159, #212, #249 ) ) REPRESENTATION_CONTEXT ( 'NONE', 'WORKASPACE' ) );
#173 = FILL_AREA_STYLE ('',( #75 ) ) ;
#174 = DIRECTION ( 'NONE',  ( 1.000000000000000000, 0.000000000000000000, 0.000000000000000000 ) ) ;
#175 = EDGE_CURVE ( 'NONE', #162, #293, #60, .T. ) ;
#176 =( GEOMETRIC_REPRESENTATION_CONTEXT ( 3 ) GLOBAL_UNCERTAINTY_ASSIGNED_CONTEXT ( ( #190 ) ) GLOBAL_UNIT_ASSIGNED_CONTEXT ( ( #241, #245, #265 ) ) REPRESENTATION_CONTEXT ( 'NONE', 'WORKASPACE' ) );
#177 =( NAMED_UNIT ( * ) SI_UNIT ( $, .STERADIAN. ) SOLID_ANGLE_UNIT ( ) );
#178 = FACE_OUTER_BOUND ( 'NONE', #134, .T. ) ;
#179 = ORIENTED_EDGE ( 'NONE', *, *, #104, .T. ) ;
#180 = LENGTH_MEASURE_WITH_UNIT ( LENGTH_MEASURE( 0.02539999999999999897 ), #5 );
#181 =( NAMED_UNIT ( * ) SI_UNIT ( $, .STERADIAN. ) SOLID_ANGLE_UNIT ( ) );
#182 = ORIENTED_EDGE ( 'NONE', *, *, #169, .F. ) ;
#183 = CARTESIAN_POINT ( 'NONE',  ( 2.096612663664598788E-35, 7.930849885727125420E-19, 0.000000000000000000 ) ) ;
#184 = AXIS2_PLACEMENT_3D ( 'NONE', #93, #71, #141 ) ;
#185 = ORIENTED_EDGE ( 'NONE', *, *, #50, .F. ) ;
#186 = ORIENTED_EDGE ( 'NONE', *, *, #50, .T. ) ;
#187 = DIRECTION ( 'NONE',  ( 1.000000000000000000, 1.241081893623867696E-16, 0.000000000000000000 ) ) ;
#188 = VERTEX_POINT ( 'NONE', #227 ) ;
#189 = PRESENTATION_STYLE_ASSIGNMENT (( #91 ) ) ;
#190 = UNCERTAINTY_MEASURE_WITH_UNIT (LENGTH_MEASURE( 1.000000000000000082E-05 ), #241, 'distance_accuracy_value', 'NONE');
#191 = FACE_OUTER_BOUND ( 'NONE', #277, .T. ) ;
#192 = SURFACE_SIDE_STYLE ('',( #287 ) ) ;
#193 = STYLED_ITEM ( 'NONE', ( #119 ), #45 ) ;
#194 = VERTEX_POINT ( 'NONE', #152 ) ;
#195 = DIRECTION ( 'NONE',  ( -1.000000000000000000, 2.643616628575708448E-17, 0.000000000000000000 ) ) ;
#196 = MECHANICAL_DESIGN_GEOMETRIC_PRESENTATION_REPRESENTATION (  '', ( #77 ), #172 ) ;
#197 = MECHANICAL_DESIGN_GEOMETRIC_PRESENTATION_REPRESENTATION (  '', ( #193 ), #176 ) ;
#198 =( NAMED_UNIT ( * ) PLANE_ANGLE_UNIT ( ) SI_UNIT ( $, .RADIAN. ) );
#199 = VECTOR ( 'NONE', #234, 39.37007874015748854 ) ;
#200 = CARTESIAN_POINT ( 'NONE',  ( -0.1249999999999992506, 0.05484827557301408946, 0.000000000000000000 ) ) ;
#201 = AXIS2_PLACEMENT_3D ( 'NONE', #171, #53, #145 ) ;
#202 = FILL_AREA_STYLE_COLOUR ( '', #225 ) ;
#203 = ORIENTED_EDGE ( 'NONE', *, *, #309, .F. ) ;
#204 =( LENGTH_UNIT ( ) NAMED_UNIT ( * ) SI_UNIT ( $, .METRE. ) );
#205 = EDGE_CURVE ( 'NONE', #293, #238, #274, .T. ) ;
#206 = SURFACE_SIDE_STYLE ('',( #129 ) ) ;
#207 = ORIENTED_EDGE ( 'NONE', *, *, #59, .T. ) ;
#208 = ADVANCED_BREP_SHAPE_REPRESENTATION ( '59828', ( #146, #251, #64 ), #148 ) ;
#209 = FILL_AREA_STYLE ('',( #105 ) ) ;
#210 = AXIS2_PLACEMENT_3D ( 'NONE', #303, #69, #49 ) ;
#211 = ORIENTED_EDGE ( 'NONE', *, *, #235, .F. ) ;
#212 =( NAMED_UNIT ( * ) PLANE_ANGLE_UNIT ( ) SI_UNIT ( $, .RADIAN. ) );
#213 = SURFACE_SIDE_STYLE ('',( #18 ) ) ;
#214 = DIRECTION ( 'NONE',  ( 1.000000000000000000, 0.000000000000000000, 0.000000000000000000 ) ) ;
#215 = CARTESIAN_POINT ( 'NONE',  ( 2.096612663664598788E-35, 7.930849885727125420E-19, 0.000000000000000000 ) ) ;
#216 =( NAMED_UNIT ( * ) PLANE_ANGLE_UNIT ( ) SI_UNIT ( $, .RADIAN. ) );
#217 = CARTESIAN_POINT ( 'NONE',  ( -0.1249999999999997086, 2.500000000000000000, 0.000000000000000000 ) ) ;
#218 = ADVANCED_FACE ( 'NONE', ( #158 ), #279, .T. ) ;
#219 = DIRECTION ( 'NONE',  ( 1.000000000000000000, -2.643616628575708448E-17, 0.000000000000000000 ) ) ;
#220 = UNCERTAINTY_MEASURE_WITH_UNIT (LENGTH_MEASURE( 1.000000000000000082E-05 ), #8, 'distance_accuracy_value', 'NONE');
#221 = CLOSED_SHELL ( 'NONE', ( #222, #218, #128, #45 ) ) ;
#222 = ADVANCED_FACE ( 'NONE', ( #85 ), #288, .T. ) ;
#223 = CIRCLE ( 'NONE', #308, 0.1249999999999996114 ) ;
#224 = DIMENSIONAL_EXPONENTS ( 1.000000000000000000, 0.000000000000000000, 0.000000000000000000, 0.000000000000000000, 0.000000000000000000, 0.000000000000000000, 0.000000000000000000 ) ;
#225 = COLOUR_RGB ( '',1.000000000000000000, 0.000000000000000000, 0.000000000000000000 ) ;
#226 =( LENGTH_UNIT ( ) NAMED_UNIT ( * ) SI_UNIT ( $, .METRE. ) );
#227 = CARTESIAN_POINT ( 'NONE',  ( 0.1249999999999999861, 2.500000000000000000, 1.530808498934189660E-17 ) ) ;
#228 = VERTEX_POINT ( 'NONE', #280 ) ;
#229 = EDGE_LOOP ( 'NONE', ( #299, #157 ) ) ;
#230 = DIMENSIONAL_EXPONENTS ( 1.000000000000000000, 0.000000000000000000, 0.000000000000000000, 0.000000000000000000, 0.000000000000000000, 0.000000000000000000, 0.000000000000000000 ) ;
#231 = VECTOR ( 'NONE', #237, 39.37007874015748143 ) ;
#232 = CARTESIAN_POINT ( 'NONE',  ( 1.449978133535230669E-18, 0.05484827557301415885, 0.000000000000000000 ) ) ;
#233 = ORIENTED_EDGE ( 'NONE', *, *, #41, .F. ) ;
#234 = DIRECTION ( 'NONE',  ( -0.8660254037844397068, 0.4999999999999979461, 0.000000000000000000 ) ) ;
#235 = EDGE_CURVE ( 'NONE', #258, #130, #239, .T. ) ;
#236 = ORIENTED_EDGE ( 'NONE', *, *, #235, .T. ) ;
#237 = DIRECTION ( 'NONE',  ( -1.241081893623867696E-16, 1.000000000000000000, -0.000000000000000000 ) ) ;
#238 = VERTEX_POINT ( 'NONE', #285 ) ;
#239 = LINE ( 'NONE', #217, #231 ) ;
#240 = STYLED_ITEM ( 'NONE', ( #68 ), #251 ) ;
#241 =( CONVERSION_BASED_UNIT ( 'INCH', #111 ) LENGTH_UNIT ( ) NAMED_UNIT ( #126 ) );
#242 = FACE_OUTER_BOUND ( 'NONE', #257, .T. ) ;
#243 = AXIS2_PLACEMENT_3D ( 'NONE', #23, #261, #95 ) ;
#244 = PLANE ( 'NONE',  #243 ) ;
#245 =( NAMED_UNIT ( * ) PLANE_ANGLE_UNIT ( ) SI_UNIT ( $, .RADIAN. ) );
#246 = STYLED_ITEM ( 'NONE', ( #2 ), #146 ) ;
#247 = SURFACE_SIDE_STYLE ('',( #54 ) ) ;
#248 =( NAMED_UNIT ( * ) PLANE_ANGLE_UNIT ( ) SI_UNIT ( $, .RADIAN. ) );
#249 =( NAMED_UNIT ( * ) SI_UNIT ( $, .STERADIAN. ) SOLID_ANGLE_UNIT ( ) );
#250 = PRESENTATION_LAYER_ASSIGNMENT (  '', '', ( #246 ) ) ;
#251 = MANIFOLD_SOLID_BREP ( 'Revolve - Tool Body (Tipped Off)', #16 ) ;
#252 = PRESENTATION_STYLE_ASSIGNMENT (( #136 ) ) ;
#253 = PRODUCT_RELATED_PRODUCT_CATEGORY ( 'part', '', ( #125 ) ) ;
#254 = CARTESIAN_POINT ( 'NONE',  ( 0.000000000000000000, 0.000000000000000000, 0.000000000000000000 ) ) ;
#255 = EDGE_LOOP ( 'NONE', ( #46, #273, #86, #211 ) ) ;
#256 = EDGE_CURVE ( 'NONE', #194, #258, #223, .T. ) ;
#257 = EDGE_LOOP ( 'NONE', ( #182, #106 ) ) ;
#258 = VERTEX_POINT ( 'NONE', #200 ) ;
#259 = SURFACE_SIDE_STYLE ('',( #305 ) ) ;
#260 = AXIS2_PLACEMENT_3D ( 'NONE', #300, #108, #133 ) ;
#261 = DIRECTION ( 'NONE',  ( -2.643616628575708139E-17, -1.000000000000000000, 0.000000000000000000 ) ) ;
#262 = FACE_OUTER_BOUND ( 'NONE', #137, .T. ) ;
#263 = CIRCLE ( 'NONE', #298, 0.1250000000000000000 ) ;
#264 =( CONVERSION_BASED_UNIT ( 'INCH', #140 ) LENGTH_UNIT ( ) NAMED_UNIT ( #271 ) );
#265 =( NAMED_UNIT ( * ) SI_UNIT ( $, .STERADIAN. ) SOLID_ANGLE_UNIT ( ) );
#266 = SURFACE_STYLE_USAGE ( .BOTH. , #192 ) ;
#267 = PRESENTATION_LAYER_ASSIGNMENT (  '', '', ( #62 ) ) ;
#268 = MECHANICAL_DESIGN_GEOMETRIC_PRESENTATION_REPRESENTATION (  '', ( #42 ), #12 ) ;
#269 = PRODUCT_CONTEXT ( 'NONE', #270, 'mechanical' ) ;
#270 = APPLICATION_CONTEXT ( 'automotive_design' ) ;
#271 = DIMENSIONAL_EXPONENTS ( 1.000000000000000000, 0.000000000000000000, 0.000000000000000000, 0.000000000000000000, 0.000000000000000000, 0.000000000000000000, 0.000000000000000000 ) ;
#272 = CARTESIAN_POINT ( 'NONE',  ( 0.1250000000000000000, 2.500000000000000000, 0.000000000000000000 ) ) ;
#273 = ORIENTED_EDGE ( 'NONE', *, *, #41, .T. ) ;
#274 = CIRCLE ( 'NONE', #166, 0.1250000000000000000 ) ;
#275 = FACE_OUTER_BOUND ( 'NONE', #255, .T. ) ;
#276 = CARTESIAN_POINT ( 'NONE',  ( 3.646956931923186545E-16, 0.05484827557301410333, 0.000000000000000000 ) ) ;
#277 = EDGE_LOOP ( 'NONE', ( #233, #67, #236, #66 ) ) ;
#278 = ORIENTED_EDGE ( 'NONE', *, *, #205, .T. ) ;
#279 = PLANE ( 'NONE',  #57 ) ;
#280 = CARTESIAN_POINT ( 'NONE',  ( 0.02999999999999999889, 0.000000000000000000, 9.491012693391986370E-18 ) ) ;
#281 = CARTESIAN_POINT ( 'NONE',  ( 1.449978133535230669E-18, 0.05484827557301415885, 0.000000000000000000 ) ) ;
#282 =( LENGTH_UNIT ( ) NAMED_UNIT ( * ) SI_UNIT ( $, .METRE. ) );
#283 = COLOUR_RGB ( '',0.7921568627450980005, 0.8196078431372548767, 0.9333333333333333481 ) ;
#284 = DIRECTION ( 'NONE',  ( 1.000000000000000000, -2.643616628575708448E-17, 0.000000000000000000 ) ) ;
#285 = CARTESIAN_POINT ( 'NONE',  ( 0.1250000000000000278, 0.05484827557301415885, 1.530808498934191509E-17 ) ) ;
#286 = LENGTH_MEASURE_WITH_UNIT ( LENGTH_MEASURE( 0.02539999999999999897 ), #226 );
#287 = SURFACE_STYLE_FILL_AREA ( #90 ) ;
#288 = CONICAL_SURFACE ( 'NONE', #21, 0.02999999999999999889, 1.047197551196600074 ) ;
#289 = DIMENSIONAL_EXPONENTS ( 1.000000000000000000, 0.000000000000000000, 0.000000000000000000, 0.000000000000000000, 0.000000000000000000, 0.000000000000000000, 0.000000000000000000 ) ;
#290 = PRESENTATION_LAYER_ASSIGNMENT (  '', '', ( #42 ) ) ;
#291 = CARTESIAN_POINT ( 'NONE',  ( -0.1249999999999998612, 2.500000000000000000, 0.000000000000000000 ) ) ;
#292 = FILL_AREA_STYLE ('',( #202 ) ) ;
#293 = VERTEX_POINT ( 'NONE', #79 ) ;
#294 =( CONVERSION_BASED_UNIT ( 'INCH', #296 ) LENGTH_UNIT ( ) NAMED_UNIT ( #289 ) );
#295 = AXIS2_PLACEMENT_3D ( 'NONE', #33, #100, #153 ) ;
#296 = LENGTH_MEASURE_WITH_UNIT ( LENGTH_MEASURE( 0.02539999999999999897 ), #99 );
#297 = ORIENTED_EDGE ( 'NONE', *, *, #55, .T. ) ;
#298 = AXIS2_PLACEMENT_3D ( 'NONE', #281, #19, #214 ) ;
#299 = ORIENTED_EDGE ( 'NONE', *, *, #205, .F. ) ;
#300 = CARTESIAN_POINT ( 'NONE',  ( 6.123233995736772199E-17, 2.500000000000000000, 0.000000000000000000 ) ) ;
#301 = UNCERTAINTY_MEASURE_WITH_UNIT (LENGTH_MEASURE( 1.000000000000000082E-05 ), #36, 'distance_accuracy_value', 'NONE');
#302 = SURFACE_STYLE_USAGE ( .BOTH. , #213 ) ;
#303 = CARTESIAN_POINT ( 'NONE',  ( 6.123233995736772199E-17, 2.500000000000000000, 0.000000000000000000 ) ) ;
#304 = EDGE_CURVE ( 'NONE', #130, #188, #84, .T. ) ;
#305 = SURFACE_STYLE_FILL_AREA ( #165 ) ;
#306 = UNCERTAINTY_MEASURE_WITH_UNIT (LENGTH_MEASURE( 1.000000000000000082E-05 ), #159, 'distance_accuracy_value', 'NONE');
#307 = DIRECTION ( 'NONE',  ( -1.241081893623867696E-16, 1.000000000000000000, -0.000000000000000000 ) ) ;
#308 = AXIS2_PLACEMENT_3D ( 'NONE', #114, #31, #149 ) ;
#309 = EDGE_CURVE ( 'NONE', #228, #238, #131, .T. ) ;
ENDSEC;
END-ISO-10303-21;
