ISO-10303-21;
HEADER;
FILE_DESCRIPTION (( 'STEP AP214' ),
    '1' );
FILE_NAME ('83307.STEP',
    '2023-06-23T09:08:31',
    ( '' ),
    ( '' ),
    'SwSTEP 2.0',
    'SolidWorks 2023',
    '' );
FILE_SCHEMA (( 'AUTOMOTIVE_DESIGN' ));
ENDSEC;

DATA;
#1 = FILL_AREA_STYLE_COLOUR ( '', #198 ) ;
#2 = EDGE_CURVE ( 'NONE', #26, #294, #129, .T. ) ;
#3 = CARTESIAN_POINT ( 'NONE',  ( 0.000000000000000000, 0.000000000000000000, 0.000000000000000000 ) ) ;
#4 = ORIENTED_EDGE ( 'NONE', *, *, #217, .F. ) ;
#5 =( GEOMETRIC_REPRESENTATION_CONTEXT ( 3 ) GLOBAL_UNCERTAINTY_ASSIGNED_CONTEXT ( ( #295 ) ) GLOBAL_UNIT_ASSIGNED_CONTEXT ( ( #62, #151, #67 ) ) REPRESENTATION_CONTEXT ( 'NONE', 'WORKASPACE' ) );
#6 = ADVANCED_BREP_SHAPE_REPRESENTATION ( '83307', ( #221, #17, #31 ), #218 ) ;
#7 =( CONVERSION_BASED_UNIT ( 'INCH', #32 ) LENGTH_UNIT ( ) NAMED_UNIT ( #124 ) );
#8 = VERTEX_POINT ( 'NONE', #292 ) ;
#9 = EDGE_LOOP ( 'NONE', ( #219, #47, #19, #98 ) ) ;
#10 = SURFACE_SIDE_STYLE ('',( #272 ) ) ;
#11 = MECHANICAL_DESIGN_GEOMETRIC_PRESENTATION_REPRESENTATION (  '', ( #144 ), #223 ) ;
#12 = CARTESIAN_POINT ( 'NONE',  ( 0.000000000000000000, 1.000000000000000000, 0.000000000000000000 ) ) ;
#13 = CARTESIAN_POINT ( 'NONE',  ( 1.913510623667739463E-17, 0.000000000000000000, 0.1562500000000000000 ) ) ;
#14 =( NAMED_UNIT ( * ) SI_UNIT ( $, .STERADIAN. ) SOLID_ANGLE_UNIT ( ) );
#15 = CARTESIAN_POINT ( 'NONE',  ( -6.123233995736772199E-17, 3.000000000000000444, 0.000000000000000000 ) ) ;
#16 = AXIS2_PLACEMENT_3D ( 'NONE', #88, #249, #103 ) ;
#17 = MANIFOLD_SOLID_BREP ( 'Revolve - Tool Body (Straight Shanked)', #27 ) ;
#18 = AXIS2_PLACEMENT_3D ( 'NONE', #110, #20, #127 ) ;
#19 = ORIENTED_EDGE ( 'NONE', *, *, #217, .T. ) ;
#20 = DIRECTION ( 'NONE',  ( -3.061616997868386099E-17, 1.000000000000000000, 0.000000000000000000 ) ) ;
#21 = CARTESIAN_POINT ( 'NONE',  ( 7.582401355855259480E-33, 1.000000000000000000, 0.000000000000000000 ) ) ;
#22 = AXIS2_PLACEMENT_3D ( 'NONE', #12, #104, #85 ) ;
#23 = ADVANCED_FACE ( 'NONE', ( #149 ), #71, .T. ) ;
#24 = CARTESIAN_POINT ( 'NONE',  ( 0.000000000000000000, 0.000000000000000000, -0.1562500000000000000 ) ) ;
#25 =( LENGTH_UNIT ( ) NAMED_UNIT ( * ) SI_UNIT ( $, .METRE. ) );
#26 = VERTEX_POINT ( 'NONE', #145 ) ;
#27 = CLOSED_SHELL ( 'NONE', ( #297, #83, #254, #112 ) ) ;
#28 = AXIS2_PLACEMENT_3D ( 'NONE', #107, #285, #157 ) ;
#29 = ORIENTED_EDGE ( 'NONE', *, *, #230, .T. ) ;
#30 = VECTOR ( 'NONE', #116, 39.37007874015748143 ) ;
#31 = AXIS2_PLACEMENT_3D ( 'NONE', #166, #138, #211 ) ;
#32 = LENGTH_MEASURE_WITH_UNIT ( LENGTH_MEASURE( 0.02539999999999999897 ), #182 );
#33 = UNCERTAINTY_MEASURE_WITH_UNIT (LENGTH_MEASURE( 1.000000000000000082E-05 ), #159, 'distance_accuracy_value', 'NONE');
#34 =( CONVERSION_BASED_UNIT ( 'INCH', #54 ) LENGTH_UNIT ( ) NAMED_UNIT ( #282 ) );
#35 = COLOUR_RGB ( '',0.7921568627450980005, 0.8196078431372548767, 0.9333333333333333481 ) ;
#36 = VECTOR ( 'NONE', #308, 39.37007874015748143 ) ;
#37 =( NAMED_UNIT ( * ) PLANE_ANGLE_UNIT ( ) SI_UNIT ( $, .RADIAN. ) );
#38 = SURFACE_STYLE_USAGE ( .BOTH. , #306 ) ;
#39 = VERTEX_POINT ( 'NONE', #251 ) ;
#40 = ADVANCED_FACE ( 'NONE', ( #143 ), #121, .T. ) ;
#41 = CLOSED_SHELL ( 'NONE', ( #274, #23, #40, #242 ) ) ;
#42 = CIRCLE ( 'NONE', #87, 0.1562500000000000000 ) ;
#43 =( NAMED_UNIT ( * ) SI_UNIT ( $, .STERADIAN. ) SOLID_ANGLE_UNIT ( ) );
#44 = SURFACE_SIDE_STYLE ('',( #169 ) ) ;
#45 = MECHANICAL_DESIGN_GEOMETRIC_PRESENTATION_REPRESENTATION (  '', ( #52 ), #5 ) ;
#46 = FACE_OUTER_BOUND ( 'NONE', #255, .T. ) ;
#47 = ORIENTED_EDGE ( 'NONE', *, *, #264, .T. ) ;
#48 = DIRECTION ( 'NONE',  ( 3.061616997868386099E-17, -1.000000000000000000, 0.000000000000000000 ) ) ;
#49 = APPLICATION_PROTOCOL_DEFINITION ( 'draft international standard', 'automotive_design', 1998, #259 ) ;
#50 = SURFACE_STYLE_FILL_AREA ( #220 ) ;
#51 = ORIENTED_EDGE ( 'NONE', *, *, #168, .T. ) ;
#52 = STYLED_ITEM ( 'NONE', ( #155 ), #274 ) ;
#53 = DIRECTION ( 'NONE',  ( -3.061616997868386099E-17, 1.000000000000000000, -0.000000000000000000 ) ) ;
#54 = LENGTH_MEASURE_WITH_UNIT ( LENGTH_MEASURE( 0.02539999999999999897 ), #117 );
#55 = PRESENTATION_STYLE_ASSIGNMENT (( #301 ) ) ;
#56 = STYLED_ITEM ( 'NONE', ( #281 ), #40 ) ;
#57 = DIRECTION ( 'NONE',  ( 0.000000000000000000, 0.000000000000000000, -1.000000000000000000 ) ) ;
#58 = VECTOR ( 'NONE', #130, 39.37007874015748143 ) ;
#59 = DIRECTION ( 'NONE',  ( -0.000000000000000000, -1.000000000000000000, -0.000000000000000000 ) ) ;
#60 = EDGE_CURVE ( 'NONE', #213, #294, #232, .T. ) ;
#61 = ORIENTED_EDGE ( 'NONE', *, *, #264, .F. ) ;
#62 =( CONVERSION_BASED_UNIT ( 'INCH', #181 ) LENGTH_UNIT ( ) NAMED_UNIT ( #102 ) );
#63 = DIRECTION ( 'NONE',  ( 0.000000000000000000, 0.000000000000000000, -1.000000000000000000 ) ) ;
#64 = MECHANICAL_DESIGN_GEOMETRIC_PRESENTATION_REPRESENTATION (  '', ( #271 ), #307 ) ;
#65 = DIRECTION ( 'NONE',  ( 1.000000000000000000, 3.061616997868386099E-17, 0.000000000000000000 ) ) ;
#66 = DIRECTION ( 'NONE',  ( 0.000000000000000000, 0.000000000000000000, -1.000000000000000000 ) ) ;
#67 =( NAMED_UNIT ( * ) SI_UNIT ( $, .STERADIAN. ) SOLID_ANGLE_UNIT ( ) );
#68 = LENGTH_MEASURE_WITH_UNIT ( LENGTH_MEASURE( 0.02539999999999999897 ), #25 );
#69 = AXIS2_PLACEMENT_3D ( 'NONE', #122, #147, #200 ) ;
#70 =( CONVERSION_BASED_UNIT ( 'INCH', #86 ) LENGTH_UNIT ( ) NAMED_UNIT ( #195 ) );
#71 = PLANE ( 'NONE',  #22 ) ;
#72 = EDGE_CURVE ( 'NONE', #39, #8, #170, .T. ) ;
#73 = ORIENTED_EDGE ( 'NONE', *, *, #72, .F. ) ;
#74 = ORIENTED_EDGE ( 'NONE', *, *, #230, .F. ) ;
#75 = SURFACE_STYLE_USAGE ( .BOTH. , #265 ) ;
#76 = CIRCLE ( 'NONE', #146, 0.1562500000000000000 ) ;
#77 = CARTESIAN_POINT ( 'NONE',  ( 0.000000000000000000, 0.000000000000000000, 0.000000000000000000 ) ) ;
#78 =( NAMED_UNIT ( * ) SI_UNIT ( $, .STERADIAN. ) SOLID_ANGLE_UNIT ( ) );
#79 = CARTESIAN_POINT ( 'NONE',  ( 0.000000000000000000, 1.000000000000000000, 0.000000000000000000 ) ) ;
#80 = PRESENTATION_LAYER_ASSIGNMENT (  '', '', ( #237 ) ) ;
#81 = FACE_OUTER_BOUND ( 'NONE', #204, .T. ) ;
#82 = AXIS2_PLACEMENT_3D ( 'NONE', #21, #261, #262 ) ;
#83 = ADVANCED_FACE ( 'NONE', ( #46 ), #178, .F. ) ;
#84 =( NAMED_UNIT ( * ) PLANE_ANGLE_UNIT ( ) SI_UNIT ( $, .RADIAN. ) );
#85 = DIRECTION ( 'NONE',  ( 0.000000000000000000, -0.000000000000000000, 1.000000000000000000 ) ) ;
#86 = LENGTH_MEASURE_WITH_UNIT ( LENGTH_MEASURE( 0.02539999999999999897 ), #258 );
#87 = AXIS2_PLACEMENT_3D ( 'NONE', #278, #59, #202 ) ;
#88 = CARTESIAN_POINT ( 'NONE',  ( -6.123233995736772199E-17, 3.000000000000000444, 0.000000000000000000 ) ) ;
#89 = LINE ( 'NONE', #290, #58 ) ;
#90 = VERTEX_POINT ( 'NONE', #179 ) ;
#91 = ORIENTED_EDGE ( 'NONE', *, *, #180, .T. ) ;
#92 = AXIS2_PLACEMENT_3D ( 'NONE', #3, #128, #63 ) ;
#93 = LENGTH_MEASURE_WITH_UNIT ( LENGTH_MEASURE( 0.02539999999999999897 ), #302 );
#94 = PLANE ( 'NONE',  #164 ) ;
#95 = EDGE_CURVE ( 'NONE', #8, #39, #109, .T. ) ;
#96 =( NAMED_UNIT ( * ) PLANE_ANGLE_UNIT ( ) SI_UNIT ( $, .RADIAN. ) );
#97 = EDGE_LOOP ( 'NONE', ( #185, #244, #150, #4 ) ) ;
#98 = ORIENTED_EDGE ( 'NONE', *, *, #241, .F. ) ;
#99 = PRODUCT ( '83307', '83307', '', ( #289 ) ) ;
#100 = UNCERTAINTY_MEASURE_WITH_UNIT (LENGTH_MEASURE( 1.000000000000000082E-05 ), #70, 'distance_accuracy_value', 'NONE');
#101 = MECHANICAL_DESIGN_GEOMETRIC_PRESENTATION_REPRESENTATION (  '', ( #175 ), #225 ) ;
#102 = DIMENSIONAL_EXPONENTS ( 1.000000000000000000, 0.000000000000000000, 0.000000000000000000, 0.000000000000000000, 0.000000000000000000, 0.000000000000000000, 0.000000000000000000 ) ;
#103 = DIRECTION ( 'NONE',  ( -1.000000000000000000, 0.000000000000000000, 0.000000000000000000 ) ) ;
#104 = DIRECTION ( 'NONE',  ( 0.000000000000000000, 1.000000000000000000, 0.000000000000000000 ) ) ;
#105 = DIRECTION ( 'NONE',  ( 0.000000000000000000, 0.000000000000000000, -1.000000000000000000 ) ) ;
#106 = ORIENTED_EDGE ( 'NONE', *, *, #241, .T. ) ;
#107 = CARTESIAN_POINT ( 'NONE',  ( -6.123233995736772199E-17, 3.000000000000000444, 0.000000000000000000 ) ) ;
#108 = CARTESIAN_POINT ( 'NONE',  ( 0.000000000000000000, 0.000000000000000000, 0.000000000000000000 ) ) ;
#109 = CIRCLE ( 'NONE', #82, 0.1562500000000000000 ) ;
#110 = CARTESIAN_POINT ( 'NONE',  ( 7.323045813778616568E-35, 1.000000000000000000, 0.000000000000000000 ) ) ;
#111 = DIRECTION ( 'NONE',  ( -0.000000000000000000, -1.000000000000000000, -0.000000000000000000 ) ) ;
#112 = ADVANCED_FACE ( 'NONE', ( #234 ), #94, .F. ) ;
#113 = ORIENTED_EDGE ( 'NONE', *, *, #291, .F. ) ;
#114 = AXIS2_PLACEMENT_3D ( 'NONE', #15, #263, #173 ) ;
#115 = PRESENTATION_LAYER_ASSIGNMENT (  '', '', ( #52 ) ) ;
#116 = DIRECTION ( 'NONE',  ( -0.000000000000000000, -1.000000000000000000, -0.000000000000000000 ) ) ;
#117 =( LENGTH_UNIT ( ) NAMED_UNIT ( * ) SI_UNIT ( $, .METRE. ) );
#118 = FILL_AREA_STYLE_COLOUR ( '', #248 ) ;
#119 = VECTOR ( 'NONE', #154, 39.37007874015748143 ) ;
#120 = FACE_OUTER_BOUND ( 'NONE', #162, .T. ) ;
#121 = CYLINDRICAL_SURFACE ( 'NONE', #287, 0.1562500000000000000 ) ;
#122 = CARTESIAN_POINT ( 'NONE',  ( 0.000000000000000000, 0.000000000000000000, 0.000000000000000000 ) ) ;
#123 = FILL_AREA_STYLE ('',( #118 ) ) ;
#124 = DIMENSIONAL_EXPONENTS ( 1.000000000000000000, 0.000000000000000000, 0.000000000000000000, 0.000000000000000000, 0.000000000000000000, 0.000000000000000000, 0.000000000000000000 ) ;
#125 = CYLINDRICAL_SURFACE ( 'NONE', #216, 0.1562500000000000000 ) ;
#126 = ORIENTED_EDGE ( 'NONE', *, *, #168, .F. ) ;
#127 = DIRECTION ( 'NONE',  ( -1.000000000000000000, -3.061616997868386099E-17, 0.000000000000000000 ) ) ;
#128 = DIRECTION ( 'NONE',  ( -0.000000000000000000, -1.000000000000000000, -0.000000000000000000 ) ) ;
#129 = LINE ( 'NONE', #140, #30 ) ;
#130 = DIRECTION ( 'NONE',  ( -3.061616997868386099E-17, 1.000000000000000000, -0.000000000000000000 ) ) ;
#131 = EDGE_LOOP ( 'NONE', ( #167, #29 ) ) ;
#132 = CARTESIAN_POINT ( 'NONE',  ( 0.000000000000000000, 0.000000000000000000, -0.1562500000000000000 ) ) ;
#133 = ORIENTED_EDGE ( 'NONE', *, *, #95, .T. ) ;
#134 = PRESENTATION_LAYER_ASSIGNMENT (  '', '', ( #144 ) ) ;
#135 = CIRCLE ( 'NONE', #28, 0.1562500000000000833 ) ;
#136 = UNCERTAINTY_MEASURE_WITH_UNIT (LENGTH_MEASURE( 1.000000000000000082E-05 ), #7, 'distance_accuracy_value', 'NONE');
#137 = CYLINDRICAL_SURFACE ( 'NONE', #114, 0.1562500000000000278 ) ;
#138 = DIRECTION ( 'NONE',  ( 0.000000000000000000, 0.000000000000000000, 1.000000000000000000 ) ) ;
#139 = MECHANICAL_DESIGN_GEOMETRIC_PRESENTATION_REPRESENTATION (  '', ( #56 ), #243 ) ;
#140 = CARTESIAN_POINT ( 'NONE',  ( 1.913510623667739463E-17, 0.000000000000000000, 0.1562500000000000000 ) ) ;
#141 = FACE_OUTER_BOUND ( 'NONE', #233, .T. ) ;
#142 = PRODUCT_DEFINITION_CONTEXT ( 'detailed design', #206, 'design' ) ;
#143 = FACE_OUTER_BOUND ( 'NONE', #9, .T. ) ;
#144 = STYLED_ITEM ( 'NONE', ( #277 ), #23 ) ;
#145 = CARTESIAN_POINT ( 'NONE',  ( 1.913510623667739463E-17, 1.000000000000000000, 0.1562500000000000000 ) ) ;
#146 = AXIS2_PLACEMENT_3D ( 'NONE', #79, #284, #105 ) ;
#147 = DIRECTION ( 'NONE',  ( 0.000000000000000000, -1.000000000000000000, -0.000000000000000000 ) ) ;
#148 = FILL_AREA_STYLE_COLOUR ( '', #186 ) ;
#149 = FACE_OUTER_BOUND ( 'NONE', #192, .T. ) ;
#150 = ORIENTED_EDGE ( 'NONE', *, *, #60, .F. ) ;
#151 =( NAMED_UNIT ( * ) PLANE_ANGLE_UNIT ( ) SI_UNIT ( $, .RADIAN. ) );
#152 = SURFACE_STYLE_FILL_AREA ( #156 ) ;
#153 = CIRCLE ( 'NONE', #250, 0.1562500000000000000 ) ;
#154 = DIRECTION ( 'NONE',  ( -3.061616997868386099E-17, 1.000000000000000000, -0.000000000000000000 ) ) ;
#155 = PRESENTATION_STYLE_ASSIGNMENT (( #235 ) ) ;
#156 = FILL_AREA_STYLE ('',( #1 ) ) ;
#157 = DIRECTION ( 'NONE',  ( -1.000000000000000000, 0.000000000000000000, 0.000000000000000000 ) ) ;
#158 = EDGE_CURVE ( 'NONE', #210, #215, #135, .T. ) ;
#159 =( CONVERSION_BASED_UNIT ( 'INCH', #68 ) LENGTH_UNIT ( ) NAMED_UNIT ( #172 ) );
#160 = PRESENTATION_LAYER_ASSIGNMENT (  '', '', ( #56 ) ) ;
#161 =( NAMED_UNIT ( * ) PLANE_ANGLE_UNIT ( ) SI_UNIT ( $, .RADIAN. ) );
#162 = EDGE_LOOP ( 'NONE', ( #194, #133, #51, #74 ) ) ;
#163 = APPLICATION_PROTOCOL_DEFINITION ( 'draft international standard', 'automotive_design', 1998, #206 ) ;
#164 = AXIS2_PLACEMENT_3D ( 'NONE', #257, #48, #65 ) ;
#165 = PRODUCT_DEFINITION_SHAPE ( 'NONE', 'NONE',  #280 ) ;
#166 = CARTESIAN_POINT ( 'NONE',  ( 0.000000000000000000, 0.000000000000000000, 0.000000000000000000 ) ) ;
#167 = ORIENTED_EDGE ( 'NONE', *, *, #158, .T. ) ;
#168 = EDGE_CURVE ( 'NONE', #39, #210, #89, .T. ) ;
#169 = SURFACE_STYLE_FILL_AREA ( #296 ) ;
#170 = CIRCLE ( 'NONE', #268, 0.1562500000000000000 ) ;
#171 = FILL_AREA_STYLE ('',( #148 ) ) ;
#172 = DIMENSIONAL_EXPONENTS ( 1.000000000000000000, 0.000000000000000000, 0.000000000000000000, 0.000000000000000000, 0.000000000000000000, 0.000000000000000000, 0.000000000000000000 ) ;
#173 = DIRECTION ( 'NONE',  ( -1.000000000000000000, 0.000000000000000000, 0.000000000000000000 ) ) ;
#174 = SURFACE_STYLE_FILL_AREA ( #303 ) ;
#175 = STYLED_ITEM ( 'NONE', ( #55 ), #242 ) ;
#176 =( LENGTH_UNIT ( ) NAMED_UNIT ( * ) SI_UNIT ( $, .METRE. ) );
#177 = SURFACE_SIDE_STYLE ('',( #174 ) ) ;
#178 = PLANE ( 'NONE',  #18 ) ;
#179 = CARTESIAN_POINT ( 'NONE',  ( 0.000000000000000000, 1.000000000000000000, -0.1562500000000000000 ) ) ;
#180 = EDGE_CURVE ( 'NONE', #8, #215, #205, .T. ) ;
#181 = LENGTH_MEASURE_WITH_UNIT ( LENGTH_MEASURE( 0.02539999999999999897 ), #176 );
#182 =( LENGTH_UNIT ( ) NAMED_UNIT ( * ) SI_UNIT ( $, .METRE. ) );
#183 = FILL_AREA_STYLE_COLOUR ( '', #35 ) ;
#184 = DIRECTION ( 'NONE',  ( -1.000000000000000000, 0.000000000000000000, 0.000000000000000000 ) ) ;
#185 = ORIENTED_EDGE ( 'NONE', *, *, #291, .T. ) ;
#186 = COLOUR_RGB ( '',1.000000000000000000, 0.000000000000000000, 0.000000000000000000 ) ;
#187 = SHAPE_DEFINITION_REPRESENTATION ( #165, #6 ) ;
#188 = CIRCLE ( 'NONE', #16, 0.1562500000000000833 ) ;
#189 =( NAMED_UNIT ( * ) SI_UNIT ( $, .STERADIAN. ) SOLID_ANGLE_UNIT ( ) );
#190 = ORIENTED_EDGE ( 'NONE', *, *, #72, .T. ) ;
#191 = PRODUCT_RELATED_PRODUCT_CATEGORY ( 'part', '', ( #99 ) ) ;
#192 = EDGE_LOOP ( 'NONE', ( #113, #61 ) ) ;
#193 = CYLINDRICAL_SURFACE ( 'NONE', #238, 0.1562500000000000278 ) ;
#194 = ORIENTED_EDGE ( 'NONE', *, *, #180, .F. ) ;
#195 = DIMENSIONAL_EXPONENTS ( 1.000000000000000000, 0.000000000000000000, 0.000000000000000000, 0.000000000000000000, 0.000000000000000000, 0.000000000000000000, 0.000000000000000000 ) ;
#196 = MECHANICAL_DESIGN_GEOMETRIC_PRESENTATION_REPRESENTATION (  '', ( #237 ), #286 ) ;
#197 =( NAMED_UNIT ( * ) SI_UNIT ( $, .STERADIAN. ) SOLID_ANGLE_UNIT ( ) );
#198 = COLOUR_RGB ( '',0.7921568627450980005, 0.8196078431372548767, 0.9333333333333333481 ) ;
#199 = CARTESIAN_POINT ( 'NONE',  ( -6.123233995736772199E-17, 3.000000000000000444, 0.000000000000000000 ) ) ;
#200 = DIRECTION ( 'NONE',  ( 0.000000000000000000, 0.000000000000000000, -1.000000000000000000 ) ) ;
#201 = FILL_AREA_STYLE_COLOUR ( '', #304 ) ;
#202 = DIRECTION ( 'NONE',  ( 0.000000000000000000, 0.000000000000000000, -1.000000000000000000 ) ) ;
#203 = PRODUCT_DEFINITION_FORMATION_WITH_SPECIFIED_SOURCE ( 'ANY', '', #99, .NOT_KNOWN. ) ;
#204 = EDGE_LOOP ( 'NONE', ( #190, #91, #298, #126 ) ) ;
#205 = LINE ( 'NONE', #209, #119 ) ;
#206 = APPLICATION_CONTEXT ( 'automotive_design' ) ;
#207 = LINE ( 'NONE', #24, #36 ) ;
#208 = PRESENTATION_LAYER_ASSIGNMENT (  '', '', ( #175 ) ) ;
#209 = CARTESIAN_POINT ( 'NONE',  ( 0.1562499999999999722, 3.000000000000000444, 1.913510623667739771E-17 ) ) ;
#210 = VERTEX_POINT ( 'NONE', #239 ) ;
#211 = DIRECTION ( 'NONE',  ( 1.000000000000000000, 0.000000000000000000, 0.000000000000000000 ) ) ;
#212 = SURFACE_SIDE_STYLE ('',( #152 ) ) ;
#213 = VERTEX_POINT ( 'NONE', #132 ) ;
#214 = DIRECTION ( 'NONE',  ( -3.061616997868386099E-17, 1.000000000000000000, -0.000000000000000000 ) ) ;
#215 = VERTEX_POINT ( 'NONE', #240 ) ;
#216 = AXIS2_PLACEMENT_3D ( 'NONE', #227, #252, #57 ) ;
#217 = EDGE_CURVE ( 'NONE', #90, #213, #207, .T. ) ;
#218 =( GEOMETRIC_REPRESENTATION_CONTEXT ( 3 ) GLOBAL_UNCERTAINTY_ASSIGNED_CONTEXT ( ( #293 ) ) GLOBAL_UNIT_ASSIGNED_CONTEXT ( ( #266, #96, #189 ) ) REPRESENTATION_CONTEXT ( 'NONE', 'WORKASPACE' ) );
#219 = ORIENTED_EDGE ( 'NONE', *, *, #2, .F. ) ;
#220 = FILL_AREA_STYLE ('',( #183 ) ) ;
#221 = MANIFOLD_SOLID_BREP ( 'Revolve - Cutting Edge', #41 ) ;
#222 = PLANE ( 'NONE',  #69 ) ;
#223 =( GEOMETRIC_REPRESENTATION_CONTEXT ( 3 ) GLOBAL_UNCERTAINTY_ASSIGNED_CONTEXT ( ( #267 ) ) GLOBAL_UNIT_ASSIGNED_CONTEXT ( ( #275, #84, #14 ) ) REPRESENTATION_CONTEXT ( 'NONE', 'WORKASPACE' ) );
#224 =( NAMED_UNIT ( * ) SI_UNIT ( $, .STERADIAN. ) SOLID_ANGLE_UNIT ( ) );
#225 =( GEOMETRIC_REPRESENTATION_CONTEXT ( 3 ) GLOBAL_UNCERTAINTY_ASSIGNED_CONTEXT ( ( #309 ) ) GLOBAL_UNIT_ASSIGNED_CONTEXT ( ( #34, #276, #224 ) ) REPRESENTATION_CONTEXT ( 'NONE', 'WORKASPACE' ) );
#226 = SURFACE_STYLE_USAGE ( .BOTH. , #177 ) ;
#227 = CARTESIAN_POINT ( 'NONE',  ( 0.000000000000000000, 0.000000000000000000, 0.000000000000000000 ) ) ;
#228 = LENGTH_MEASURE_WITH_UNIT ( LENGTH_MEASURE( 0.02539999999999999897 ), #283 );
#229 = SURFACE_STYLE_FILL_AREA ( #123 ) ;
#230 = EDGE_CURVE ( 'NONE', #215, #210, #188, .T. ) ;
#231 = FILL_AREA_STYLE_COLOUR ( '', #279 ) ;
#232 = CIRCLE ( 'NONE', #92, 0.1562500000000000000 ) ;
#233 = EDGE_LOOP ( 'NONE', ( #270, #106 ) ) ;
#234 = FACE_OUTER_BOUND ( 'NONE', #131, .T. ) ;
#235 = SURFACE_STYLE_USAGE ( .BOTH. , #44 ) ;
#236 = CARTESIAN_POINT ( 'NONE',  ( 7.582401355855259480E-33, 1.000000000000000000, 0.000000000000000000 ) ) ;
#237 = STYLED_ITEM ( 'NONE', ( #273 ), #17 ) ;
#238 = AXIS2_PLACEMENT_3D ( 'NONE', #199, #53, #299 ) ;
#239 = CARTESIAN_POINT ( 'NONE',  ( -0.1562500000000001388, 3.000000000000000444, 0.000000000000000000 ) ) ;
#240 = CARTESIAN_POINT ( 'NONE',  ( 0.1562500000000000000, 3.000000000000000444, 1.913510623667739771E-17 ) ) ;
#241 = EDGE_CURVE ( 'NONE', #294, #213, #153, .T. ) ;
#242 = ADVANCED_FACE ( 'NONE', ( #141 ), #222, .T. ) ;
#243 =( GEOMETRIC_REPRESENTATION_CONTEXT ( 3 ) GLOBAL_UNCERTAINTY_ASSIGNED_CONTEXT ( ( #100 ) ) GLOBAL_UNIT_ASSIGNED_CONTEXT ( ( #70, #161, #43 ) ) REPRESENTATION_CONTEXT ( 'NONE', 'WORKASPACE' ) );
#244 = ORIENTED_EDGE ( 'NONE', *, *, #2, .T. ) ;
#245 =( NAMED_UNIT ( * ) PLANE_ANGLE_UNIT ( ) SI_UNIT ( $, .RADIAN. ) );
#246 = DIMENSIONAL_EXPONENTS ( 1.000000000000000000, 0.000000000000000000, 0.000000000000000000, 0.000000000000000000, 0.000000000000000000, 0.000000000000000000, 0.000000000000000000 ) ;
#247 = DIRECTION ( 'NONE',  ( -0.000000000000000000, -1.000000000000000000, -0.000000000000000000 ) ) ;
#248 = COLOUR_RGB ( '',1.000000000000000000, 0.000000000000000000, 0.000000000000000000 ) ;
#249 = DIRECTION ( 'NONE',  ( -3.061616997868386099E-17, 1.000000000000000000, -0.000000000000000000 ) ) ;
#250 = AXIS2_PLACEMENT_3D ( 'NONE', #77, #247, #253 ) ;
#251 = CARTESIAN_POINT ( 'NONE',  ( -0.1562500000000000000, 1.000000000000000000, 0.000000000000000000 ) ) ;
#252 = DIRECTION ( 'NONE',  ( -0.000000000000000000, -1.000000000000000000, -0.000000000000000000 ) ) ;
#253 = DIRECTION ( 'NONE',  ( 0.000000000000000000, 0.000000000000000000, -1.000000000000000000 ) ) ;
#254 = ADVANCED_FACE ( 'NONE', ( #120 ), #193, .T. ) ;
#255 = EDGE_LOOP ( 'NONE', ( #73, #269 ) ) ;
#256 = PRESENTATION_LAYER_ASSIGNMENT (  '', '', ( #271 ) ) ;
#257 = CARTESIAN_POINT ( 'NONE',  ( 0.1562500000000000000, 3.000000000000000444, 0.000000000000000000 ) ) ;
#258 =( LENGTH_UNIT ( ) NAMED_UNIT ( * ) SI_UNIT ( $, .METRE. ) );
#259 = APPLICATION_CONTEXT ( 'automotive_design' ) ;
#260 = PRESENTATION_STYLE_ASSIGNMENT (( #288 ) ) ;
#261 = DIRECTION ( 'NONE',  ( -3.061616997868386099E-17, 1.000000000000000000, -0.000000000000000000 ) ) ;
#262 = DIRECTION ( 'NONE',  ( -1.000000000000000000, 0.000000000000000000, 0.000000000000000000 ) ) ;
#263 = DIRECTION ( 'NONE',  ( -3.061616997868386099E-17, 1.000000000000000000, -0.000000000000000000 ) ) ;
#264 = EDGE_CURVE ( 'NONE', #26, #90, #42, .T. ) ;
#265 = SURFACE_SIDE_STYLE ('',( #50 ) ) ;
#266 =( CONVERSION_BASED_UNIT ( 'INCH', #93 ) LENGTH_UNIT ( ) NAMED_UNIT ( #246 ) );
#267 = UNCERTAINTY_MEASURE_WITH_UNIT (LENGTH_MEASURE( 1.000000000000000082E-05 ), #275, 'distance_accuracy_value', 'NONE');
#268 = AXIS2_PLACEMENT_3D ( 'NONE', #236, #214, #184 ) ;
#269 = ORIENTED_EDGE ( 'NONE', *, *, #95, .F. ) ;
#270 = ORIENTED_EDGE ( 'NONE', *, *, #60, .T. ) ;
#271 = STYLED_ITEM ( 'NONE', ( #260 ), #221 ) ;
#272 = SURFACE_STYLE_FILL_AREA ( #171 ) ;
#273 = PRESENTATION_STYLE_ASSIGNMENT (( #75 ) ) ;
#274 = ADVANCED_FACE ( 'NONE', ( #305 ), #125, .T. ) ;
#275 =( CONVERSION_BASED_UNIT ( 'INCH', #228 ) LENGTH_UNIT ( ) NAMED_UNIT ( #300 ) );
#276 =( NAMED_UNIT ( * ) PLANE_ANGLE_UNIT ( ) SI_UNIT ( $, .RADIAN. ) );
#277 = PRESENTATION_STYLE_ASSIGNMENT (( #38 ) ) ;
#278 = CARTESIAN_POINT ( 'NONE',  ( 0.000000000000000000, 1.000000000000000000, 0.000000000000000000 ) ) ;
#279 = COLOUR_RGB ( '',1.000000000000000000, 0.000000000000000000, 0.000000000000000000 ) ;
#280 = PRODUCT_DEFINITION ( 'UNKNOWN', '', #203, #142 ) ;
#281 = PRESENTATION_STYLE_ASSIGNMENT (( #226 ) ) ;
#282 = DIMENSIONAL_EXPONENTS ( 1.000000000000000000, 0.000000000000000000, 0.000000000000000000, 0.000000000000000000, 0.000000000000000000, 0.000000000000000000, 0.000000000000000000 ) ;
#283 =( LENGTH_UNIT ( ) NAMED_UNIT ( * ) SI_UNIT ( $, .METRE. ) );
#284 = DIRECTION ( 'NONE',  ( -0.000000000000000000, -1.000000000000000000, -0.000000000000000000 ) ) ;
#285 = DIRECTION ( 'NONE',  ( -3.061616997868386099E-17, 1.000000000000000000, -0.000000000000000000 ) ) ;
#286 =( GEOMETRIC_REPRESENTATION_CONTEXT ( 3 ) GLOBAL_UNCERTAINTY_ASSIGNED_CONTEXT ( ( #33 ) ) GLOBAL_UNIT_ASSIGNED_CONTEXT ( ( #159, #37, #78 ) ) REPRESENTATION_CONTEXT ( 'NONE', 'WORKASPACE' ) );
#287 = AXIS2_PLACEMENT_3D ( 'NONE', #108, #111, #66 ) ;
#288 = SURFACE_STYLE_USAGE ( .BOTH. , #212 ) ;
#289 = PRODUCT_CONTEXT ( 'NONE', #259, 'mechanical' ) ;
#290 = CARTESIAN_POINT ( 'NONE',  ( -0.1562500000000001110, 3.000000000000000444, 0.000000000000000000 ) ) ;
#291 = EDGE_CURVE ( 'NONE', #90, #26, #76, .T. ) ;
#292 = CARTESIAN_POINT ( 'NONE',  ( 0.1562500000000000000, 1.000000000000000000, 1.913510623667739771E-17 ) ) ;
#293 = UNCERTAINTY_MEASURE_WITH_UNIT (LENGTH_MEASURE( 1.000000000000000082E-05 ), #266, 'distance_accuracy_value', 'NONE');
#294 = VERTEX_POINT ( 'NONE', #13 ) ;
#295 = UNCERTAINTY_MEASURE_WITH_UNIT (LENGTH_MEASURE( 1.000000000000000082E-05 ), #62, 'distance_accuracy_value', 'NONE');
#296 = FILL_AREA_STYLE ('',( #231 ) ) ;
#297 = ADVANCED_FACE ( 'NONE', ( #81 ), #137, .T. ) ;
#298 = ORIENTED_EDGE ( 'NONE', *, *, #158, .F. ) ;
#299 = DIRECTION ( 'NONE',  ( -1.000000000000000000, 0.000000000000000000, 0.000000000000000000 ) ) ;
#300 = DIMENSIONAL_EXPONENTS ( 1.000000000000000000, 0.000000000000000000, 0.000000000000000000, 0.000000000000000000, 0.000000000000000000, 0.000000000000000000, 0.000000000000000000 ) ;
#301 = SURFACE_STYLE_USAGE ( .BOTH. , #10 ) ;
#302 =( LENGTH_UNIT ( ) NAMED_UNIT ( * ) SI_UNIT ( $, .METRE. ) );
#303 = FILL_AREA_STYLE ('',( #201 ) ) ;
#304 = COLOUR_RGB ( '',1.000000000000000000, 0.000000000000000000, 0.000000000000000000 ) ;
#305 = FACE_OUTER_BOUND ( 'NONE', #97, .T. ) ;
#306 = SURFACE_SIDE_STYLE ('',( #229 ) ) ;
#307 =( GEOMETRIC_REPRESENTATION_CONTEXT ( 3 ) GLOBAL_UNCERTAINTY_ASSIGNED_CONTEXT ( ( #136 ) ) GLOBAL_UNIT_ASSIGNED_CONTEXT ( ( #7, #245, #197 ) ) REPRESENTATION_CONTEXT ( 'NONE', 'WORKASPACE' ) );
#308 = DIRECTION ( 'NONE',  ( -0.000000000000000000, -1.000000000000000000, -0.000000000000000000 ) ) ;
#309 = UNCERTAINTY_MEASURE_WITH_UNIT (LENGTH_MEASURE( 1.000000000000000082E-05 ), #34, 'distance_accuracy_value', 'NONE');
ENDSEC;
END-ISO-10303-21;
