ISO-10303-21;
HEADER;
FILE_DESCRIPTION (( 'STEP AP214' ),
    '1' );
FILE_NAME ('Micro_BMS-012-2X.STEP',
    '2021-09-03T14:44:34',
    ( '' ),
    ( '' ),
    'SwSTEP 2.0',
    'SolidWorks 2020',
    '' );
FILE_SCHEMA (( 'AUTOMOTIVE_DESIGN' ));
ENDSEC;

DATA;
#1 = CARTESIAN_POINT ( 'NONE',  ( 0.0000000000000000000, 0.0000000000000000000, 1.485000000000000764 ) ) ;
#2 = ORIENTED_EDGE ( 'NONE', *, *, #215, .F. ) ;
#3 = EDGE_CURVE ( 'NONE', #203, #307, #48, .T. ) ;
#4 = ORIENTED_EDGE ( 'NONE', *, *, #24, .T. ) ;
#5 = ORIENTED_EDGE ( 'NONE', *, *, #199, .T. ) ;
#6 = FILL_AREA_STYLE ('',( #180 ) ) ;
#7 = ORIENTED_EDGE ( 'NONE', *, *, #306, .T. ) ;
#8 = CIRCLE ( 'NONE', #241, 0.005993999999999999329 ) ;
#9 = ORIENTED_EDGE ( 'NONE', *, *, #322, .T. ) ;
#10 = EDGE_CURVE ( 'NONE', #281, #203, #90, .T. ) ;
#11 = CYLINDRICAL_SURFACE ( 'NONE', #133, 0.06250000000000000000 ) ;
#12 = LINE ( 'NONE', #242, #183 ) ;
#13 = DIRECTION ( 'NONE',  ( 0.0000000000000000000, 1.000000000000000000, 0.0000000000000000000 ) ) ;
#14 = DIRECTION ( 'NONE',  ( 0.1736481776669313581, 0.0000000000000000000, 0.9848077530122077983 ) ) ;
#15 =( LENGTH_UNIT ( ) NAMED_UNIT ( * ) SI_UNIT ( $, .METRE. ) );
#16 = AXIS2_PLACEMENT_3D ( 'NONE', #75, #221, #127 ) ;
#17 = DIRECTION ( 'NONE',  ( 0.0000000000000000000, 0.0000000000000000000, -1.000000000000000000 ) ) ;
#18 = VECTOR ( 'NONE', #301, 39.37007874015748143 ) ;
#19 = CYLINDRICAL_SURFACE ( 'NONE', #314, 0.005994000000000001931 ) ;
#20 = LINE ( 'NONE', #139, #47 ) ;
#21 = CIRCLE ( 'NONE', #254, 0.06250000000000000000 ) ;
#22 = DIRECTION ( 'NONE',  ( -1.224646799147353454E-16, -0.0000000000000000000, -1.000000000000000000 ) ) ;
#23 = VERTEX_POINT ( 'NONE', #271 ) ;
#24 = EDGE_CURVE ( 'NONE', #74, #148, #12, .T. ) ;
#25 = CARTESIAN_POINT ( 'NONE',  ( 0.04750000000000064587, 6.735557395310482421E-18, 1.500000000000000222 ) ) ;
#26 = VERTEX_POINT ( 'NONE', #317 ) ;
#27 = DIRECTION ( 'NONE',  ( -1.224646799147353454E-16, -0.0000000000000000000, -1.000000000000000000 ) ) ;
#28 = EDGE_LOOP ( 'NONE', ( #32, #4, #262, #151 ) ) ;
#29 = APPLICATION_CONTEXT ( 'automotive_design' ) ;
#30 = ORIENTED_EDGE ( 'NONE', *, *, #267, .F. ) ;
#31 = ADVANCED_FACE ( 'NONE', ( #34 ), #190, .T. ) ;
#32 = ORIENTED_EDGE ( 'NONE', *, *, #199, .F. ) ;
#33 = APPLICATION_PROTOCOL_DEFINITION ( 'draft international standard', 'automotive_design', 1998, #29 ) ;
#34 = FACE_OUTER_BOUND ( 'NONE', #315, .T. ) ;
#35 = AXIS2_PLACEMENT_3D ( 'NONE', #302, #64, #168 ) ;
#36 = CARTESIAN_POINT ( 'NONE',  ( 2.204364238465235899E-18, 0.0000000000000000000, 0.01799999999999999864 ) ) ;
#37 = DIRECTION ( 'NONE',  ( -1.000000000000000000, 0.0000000000000000000, 0.0000000000000000000 ) ) ;
#38 = CARTESIAN_POINT ( 'NONE',  ( 0.0000000000000000000, 0.0000000000000000000, 1.500000000000000222 ) ) ;
#39 = CIRCLE ( 'NONE', #16, 0.06250000000000000000 ) ;
#40 = DIRECTION ( 'NONE',  ( -1.000000000000000000, 0.0000000000000000000, 0.0000000000000000000 ) ) ;
#41 = AXIS2_PLACEMENT_3D ( 'NONE', #65, #42, #278 ) ;
#42 = DIRECTION ( 'NONE',  ( 1.224646799147353207E-16, 1.000000000000000000, -0.0000000000000000000 ) ) ;
#43 =( CONVERSION_BASED_UNIT ( 'INCH', #45 ) LENGTH_UNIT ( ) NAMED_UNIT ( #159 ) );
#44 = AXIS2_PLACEMENT_3D ( 'NONE', #104, #318, #37 ) ;
#45 = LENGTH_MEASURE_WITH_UNIT ( LENGTH_MEASURE( 0.02539999999999999897 ), #15 );
#46 = PRODUCT_DEFINITION_SHAPE ( 'NONE', 'NONE',  #160 ) ;
#47 = VECTOR ( 'NONE', #106, 39.37007874015748143 ) ;
#48 = LINE ( 'NONE', #144, #118 ) ;
#49 = CIRCLE ( 'NONE', #191, 0.005993999999999999329 ) ;
#50 = ORIENTED_EDGE ( 'NONE', *, *, #219, .F. ) ;
#51 = DIRECTION ( 'NONE',  ( 1.224646799147353454E-16, 0.0000000000000000000, 1.000000000000000000 ) ) ;
#52 = ORIENTED_EDGE ( 'NONE', *, *, #322, .F. ) ;
#53 = ORIENTED_EDGE ( 'NONE', *, *, #306, .F. ) ;
#54 =( CONVERSION_BASED_UNIT ( 'INCH', #233 ) LENGTH_UNIT ( ) NAMED_UNIT ( #107 ) );
#55 = ORIENTED_EDGE ( 'NONE', *, *, #275, .T. ) ;
#56 = FACE_OUTER_BOUND ( 'NONE', #313, .T. ) ;
#57 = FACE_OUTER_BOUND ( 'NONE', #285, .T. ) ;
#58 = DIRECTION ( 'NONE',  ( 1.000000000000000000, 0.0000000000000000000, 0.0000000000000000000 ) ) ;
#59 = CARTESIAN_POINT ( 'NONE',  ( 0.06250000000000004163, 7.654042494670960626E-18, 0.3384614504993165296 ) ) ;
#60 = ADVANCED_FACE ( 'NONE', ( #56 ), #157, .T. ) ;
#61 =( NAMED_UNIT ( * ) PLANE_ANGLE_UNIT ( ) SI_UNIT ( $, .RADIAN. ) );
#62 = VECTOR ( 'NONE', #96, 39.37007874015748143 ) ;
#63 = CARTESIAN_POINT ( 'NONE',  ( 0.06250000000000000000, 7.654042494670956004E-18, 1.500000000000000222 ) ) ;
#64 = DIRECTION ( 'NONE',  ( 1.224646799147353454E-16, 0.0000000000000000000, 1.000000000000000000 ) ) ;
#65 = CARTESIAN_POINT ( 'NONE',  ( 7.340532914089237189E-19, 0.0000000000000000000, 0.005994000000000000196 ) ) ;
#66 =( NAMED_UNIT ( * ) SI_UNIT ( $, .STERADIAN. ) SOLID_ANGLE_UNIT ( ) );
#67 = ORIENTED_EDGE ( 'NONE', *, *, #24, .F. ) ;
#68 = LINE ( 'NONE', #263, #164 ) ;
#69 = ORIENTED_EDGE ( 'NONE', *, *, #296, .T. ) ;
#70 = ORIENTED_EDGE ( 'NONE', *, *, #310, .F. ) ;
#71 = DIRECTION ( 'NONE',  ( -1.000000000000000000, 0.0000000000000000000, 0.0000000000000000000 ) ) ;
#72 = ORIENTED_EDGE ( 'NONE', *, *, #277, .F. ) ;
#73 = ADVANCED_FACE ( 'NONE', ( #270 ), #163, .T. ) ;
#74 = VERTEX_POINT ( 'NONE', #188 ) ;
#75 = CARTESIAN_POINT ( 'NONE',  ( 0.0000000000000000000, 0.0000000000000000000, 1.485000000000000764 ) ) ;
#76 = DIRECTION ( 'NONE',  ( 1.000000000000000000, 0.0000000000000000000, 0.0000000000000000000 ) ) ;
#77 = CARTESIAN_POINT ( 'NONE',  ( 0.0000000000000000000, 0.0000000000000000000, 0.0000000000000000000 ) ) ;
#78 = DIRECTION ( 'NONE',  ( -0.7071067811865456854, 0.0000000000000000000, -0.7071067811865493491 ) ) ;
#79 = CARTESIAN_POINT ( 'NONE',  ( 0.0000000000000000000, 0.0000000000000000000, 1.500000000000000222 ) ) ;
#80 = DIRECTION ( 'NONE',  ( -1.000000000000000000, 0.0000000000000000000, 0.0000000000000000000 ) ) ;
#81 = EDGE_CURVE ( 'NONE', #307, #26, #39, .T. ) ;
#82 = CARTESIAN_POINT ( 'NONE',  ( 1.101079937113385482E-18, 0.0000000000000000000, 0.0000000000000000000 ) ) ;
#83 = FILL_AREA_STYLE ('',( #84 ) ) ;
#84 = FILL_AREA_STYLE_COLOUR ( '', #165 ) ;
#85 = CARTESIAN_POINT ( 'NONE',  ( 0.0000000000000000000, 0.0000000000000000000, 0.0000000000000000000 ) ) ;
#86 = ADVANCED_FACE ( 'NONE', ( #57 ), #176, .T. ) ;
#87 = CARTESIAN_POINT ( 'NONE',  ( 4.144957319887584730E-17, 0.0000000000000000000, 0.3384614504993165296 ) ) ;
#88 = PRODUCT_RELATED_PRODUCT_CATEGORY ( 'part', '', ( #136 ) ) ;
#89 = EDGE_LOOP ( 'NONE', ( #50, #7, #115, #152 ) ) ;
#90 = CIRCLE ( 'NONE', #98, 0.04750000000000064587 ) ;
#91 = CARTESIAN_POINT ( 'NONE',  ( -0.06250000000000000000, 0.0000000000000000000, 1.485000000000000764 ) ) ;
#92 = APPLICATION_CONTEXT ( 'automotive_design' ) ;
#93 = ORIENTED_EDGE ( 'NONE', *, *, #215, .T. ) ;
#94 = APPLICATION_PROTOCOL_DEFINITION ( 'draft international standard', 'automotive_design', 1998, #92 ) ;
#95 = ORIENTED_EDGE ( 'NONE', *, *, #228, .T. ) ;
#96 = DIRECTION ( 'NONE',  ( -1.224646799147353454E-16, -0.0000000000000000000, -1.000000000000000000 ) ) ;
#97 = ORIENTED_EDGE ( 'NONE', *, *, #219, .T. ) ;
#98 = AXIS2_PLACEMENT_3D ( 'NONE', #79, #266, #76 ) ;
#99 = CARTESIAN_POINT ( 'NONE',  ( 7.340532914089237189E-19, 0.0000000000000000000, 0.005994000000000000196 ) ) ;
#100 = VECTOR ( 'NONE', #276, 39.37007874015748143 ) ;
#101 = DIRECTION ( 'NONE',  ( 0.0000000000000000000, 1.000000000000000000, 0.0000000000000000000 ) ) ;
#102 = DIRECTION ( 'NONE',  ( 1.000000000000000000, 0.0000000000000000000, -0.0000000000000000000 ) ) ;
#103 = AXIS2_PLACEMENT_3D ( 'NONE', #220, #101, #291 ) ;
#104 = CARTESIAN_POINT ( 'NONE',  ( 0.0000000000000000000, 0.0000000000000000000, 1.500000000000000222 ) ) ;
#105 = DIRECTION ( 'NONE',  ( 1.000000000000000000, 0.0000000000000000000, 0.0000000000000000000 ) ) ;
#106 = DIRECTION ( 'NONE',  ( -1.224646799147353454E-16, -0.0000000000000000000, -1.000000000000000000 ) ) ;
#107 = DIMENSIONAL_EXPONENTS ( 1.000000000000000000, 0.0000000000000000000, 0.0000000000000000000, 0.0000000000000000000, 0.0000000000000000000, 0.0000000000000000000, 0.0000000000000000000 ) ;
#108 = FACE_OUTER_BOUND ( 'NONE', #255, .T. ) ;
#109 = PRODUCT_DEFINITION_CONTEXT ( 'detailed design', #29, 'design' ) ;
#110 = AXIS2_PLACEMENT_3D ( 'NONE', #226, #250, #324 ) ;
#111 = CARTESIAN_POINT ( 'NONE',  ( 7.340532914089237189E-19, 0.0000000000000000000, 0.005994000000000000196 ) ) ;
#112 = DIRECTION ( 'NONE',  ( -1.224646799147353454E-16, -0.0000000000000000000, -1.000000000000000000 ) ) ;
#113 = DIRECTION ( 'NONE',  ( 0.0000000000000000000, 0.0000000000000000000, -1.000000000000000000 ) ) ;
#114 =( NAMED_UNIT ( * ) SI_UNIT ( $, .STERADIAN. ) SOLID_ANGLE_UNIT ( ) );
#115 = ORIENTED_EDGE ( 'NONE', *, *, #277, .T. ) ;
#116 = DIRECTION ( 'NONE',  ( 0.0000000000000000000, 0.0000000000000000000, -1.000000000000000000 ) ) ;
#117 = EDGE_LOOP ( 'NONE', ( #67, #52, #206, #287 ) ) ;
#118 = VECTOR ( 'NONE', #78, 39.37007874015748143 ) ;
#119 = FACE_OUTER_BOUND ( 'NONE', #311, .T. ) ;
#120 = VERTEX_POINT ( 'NONE', #124 ) ;
#121 = SURFACE_STYLE_FILL_AREA ( #6 ) ;
#122 = ORIENTED_EDGE ( 'NONE', *, *, #216, .T. ) ;
#123 = ORIENTED_EDGE ( 'NONE', *, *, #187, .F. ) ;
#124 = CARTESIAN_POINT ( 'NONE',  ( 0.005994000000000001931, 0.0000000000000000000, 0.01799999999999999864 ) ) ;
#125 = ADVANCED_FACE ( 'NONE', ( #192 ), #225, .T. ) ;
#126 = CARTESIAN_POINT ( 'NONE',  ( 0.0000000000000000000, 0.0000000000000000000, 1.500000000000000222 ) ) ;
#127 = DIRECTION ( 'NONE',  ( 1.000000000000000000, 0.0000000000000000000, 0.0000000000000000000 ) ) ;
#128 = DIRECTION ( 'NONE',  ( 0.0000000000000000000, 0.0000000000000000000, 1.000000000000000000 ) ) ;
#129 = ADVANCED_FACE ( 'NONE', ( #320 ), #261, .T. ) ;
#130 = CARTESIAN_POINT ( 'NONE',  ( 2.204364238465235899E-18, 0.0000000000000000000, 0.01799999999999999864 ) ) ;
#131 = DIRECTION ( 'NONE',  ( -1.224646799147353454E-16, -0.0000000000000000000, -1.000000000000000000 ) ) ;
#132 = LINE ( 'NONE', #63, #100 ) ;
#133 = AXIS2_PLACEMENT_3D ( 'NONE', #126, #217, #80 ) ;
#134 = AXIS2_PLACEMENT_3D ( 'NONE', #282, #22, #232 ) ;
#135 = CARTESIAN_POINT ( 'NONE',  ( -0.04750000000000064587, 0.0000000000000000000, 1.500000000000000222 ) ) ;
#136 = PRODUCT ( 'Micro_BMS-012-2X', 'Micro_BMS-012-2X', '', ( #269 ) ) ;
#137 = AXIS2_PLACEMENT_3D ( 'NONE', #77, #128, #158 ) ;
#138 = DIRECTION ( 'NONE',  ( -1.224646799147353454E-16, -0.0000000000000000000, -1.000000000000000000 ) ) ;
#139 = CARTESIAN_POINT ( 'NONE',  ( -0.005994000000000001931, 0.0000000000000000000, 7.340532914089238152E-19 ) ) ;
#140 = ADVANCED_FACE ( 'NONE', ( #161 ), #11, .T. ) ;
#141 = ADVANCED_FACE ( 'NONE', ( #193 ), #297, .T. ) ;
#142 = AXIS2_PLACEMENT_3D ( 'NONE', #87, #274, #198 ) ;
#143 = CIRCLE ( 'NONE', #292, 0.005994000000000001931 ) ;
#144 = CARTESIAN_POINT ( 'NONE',  ( -0.04750000000000064587, 0.0000000000000000000, 1.500000000000000222 ) ) ;
#145 = MECHANICAL_DESIGN_GEOMETRIC_PRESENTATION_REPRESENTATION (  '', ( #200 ), #246 ) ;
#146 = VERTEX_POINT ( 'NONE', #59 ) ;
#147 = DIRECTION ( 'NONE',  ( -0.0000000000000000000, -0.0000000000000000000, -1.000000000000000000 ) ) ;
#148 = VERTEX_POINT ( 'NONE', #189 ) ;
#149 = EDGE_CURVE ( 'NONE', #146, #148, #229, .T. ) ;
#150 =( NAMED_UNIT ( * ) PLANE_ANGLE_UNIT ( ) SI_UNIT ( $, .RADIAN. ) );
#151 = ORIENTED_EDGE ( 'NONE', *, *, #204, .F. ) ;
#152 = ORIENTED_EDGE ( 'NONE', *, *, #149, .F. ) ;
#153 = ADVANCED_FACE ( 'NONE', ( #108 ), #19, .T. ) ;
#154 = DIRECTION ( 'NONE',  ( 1.224646799147353454E-16, 0.0000000000000000000, 1.000000000000000000 ) ) ;
#155 = CLOSED_SHELL ( 'NONE', ( #141, #319, #129, #86, #73, #140, #60, #178, #125, #153, #31 ) ) ;
#156 = SHAPE_DEFINITION_REPRESENTATION ( #46, #184 ) ;
#157 = PLANE ( 'NONE',  #237 ) ;
#158 = DIRECTION ( 'NONE',  ( 1.000000000000000000, 0.0000000000000000000, 0.0000000000000000000 ) ) ;
#159 = DIMENSIONAL_EXPONENTS ( 1.000000000000000000, 0.0000000000000000000, 0.0000000000000000000, 0.0000000000000000000, 0.0000000000000000000, 0.0000000000000000000, 0.0000000000000000000 ) ;
#160 = PRODUCT_DEFINITION ( 'UNKNOWN', '', #293, #109 ) ;
#161 = FACE_OUTER_BOUND ( 'NONE', #89, .T. ) ;
#162 = CONICAL_SURFACE ( 'NONE', #253, 0.04750000000000064587, 0.7853981633974457255 ) ;
#163 = CYLINDRICAL_SURFACE ( 'NONE', #44, 0.06250000000000000000 ) ;
#164 = VECTOR ( 'NONE', #147, 39.37007874015748143 ) ;
#165 = COLOUR_RGB ( '',0.7921568627450980005, 0.8196078431372548767, 0.9333333333333333481 ) ;
#166 = CARTESIAN_POINT ( 'NONE',  ( 0.04750000000000064587, 5.817072295950006528E-18, 1.500000000000000222 ) ) ;
#167 = DIRECTION ( 'NONE',  ( 0.0000000000000000000, -1.000000000000000000, 0.0000000000000000000 ) ) ;
#168 = DIRECTION ( 'NONE',  ( -1.000000000000000000, 0.0000000000000000000, 1.780327198073244060E-16 ) ) ;
#169 = AXIS2_PLACEMENT_3D ( 'NONE', #243, #268, #40 ) ;
#170 = SURFACE_STYLE_FILL_AREA ( #83 ) ;
#171 = PRESENTATION_LAYER_ASSIGNMENT (  '', '', ( #222 ) ) ;
#172 = EDGE_CURVE ( 'NONE', #74, #23, #20, .T. ) ;
#173 = DIRECTION ( 'NONE',  ( -1.000000000000000000, 0.0000000000000000000, 0.0000000000000000000 ) ) ;
#174 =( NAMED_UNIT ( * ) PLANE_ANGLE_UNIT ( ) SI_UNIT ( $, .RADIAN. ) );
#175 = ORIENTED_EDGE ( 'NONE', *, *, #228, .F. ) ;
#176 = CONICAL_SURFACE ( 'NONE', #169, 0.04750000000000064587, 0.7853981633974457255 ) ;
#177 =( GEOMETRIC_REPRESENTATION_CONTEXT ( 3 ) GLOBAL_UNCERTAINTY_ASSIGNED_CONTEXT ( ( #210 ) ) GLOBAL_UNIT_ASSIGNED_CONTEXT ( ( #286, #174, #114 ) ) REPRESENTATION_CONTEXT ( 'NONE', 'WORKASPACE' ) );
#178 = ADVANCED_FACE ( 'NONE', ( #325 ), #162, .T. ) ;
#179 = ORIENTED_EDGE ( 'NONE', *, *, #310, .T. ) ;
#180 = FILL_AREA_STYLE_COLOUR ( '', #257 ) ;
#181 = ORIENTED_EDGE ( 'NONE', *, *, #10, .T. ) ;
#182 = VERTEX_POINT ( 'NONE', #224 ) ;
#183 = VECTOR ( 'NONE', #244, 39.37007874015747433 ) ;
#184 = ADVANCED_BREP_SHAPE_REPRESENTATION ( 'Micro_BMS-012-2X', ( #213, #137 ), #177 ) ;
#185 = CARTESIAN_POINT ( 'NONE',  ( 7.340532914089237189E-19, 0.0000000000000000000, 0.005994000000000000196 ) ) ;
#186 = ORIENTED_EDGE ( 'NONE', *, *, #10, .F. ) ;
#187 = EDGE_CURVE ( 'NONE', #148, #146, #298, .T. ) ;
#188 = CARTESIAN_POINT ( 'NONE',  ( -0.005993999999999997594, 4.194047893039940536E-18, 0.01799999999999999864 ) ) ;
#189 = CARTESIAN_POINT ( 'NONE',  ( -0.06249999999999995837, 0.0000000000000000000, 0.3384614504993165296 ) ) ;
#190 = SPHERICAL_SURFACE ( 'NONE', #303, 0.005994000000000000196 ) ;
#191 = AXIS2_PLACEMENT_3D ( 'NONE', #211, #27, #71 ) ;
#192 = FACE_OUTER_BOUND ( 'NONE', #117, .T. ) ;
#193 = FACE_OUTER_BOUND ( 'NONE', #240, .T. ) ;
#194 = AXIS2_PLACEMENT_3D ( 'NONE', #130, #154, #223 ) ;
#195 = PRESENTATION_STYLE_ASSIGNMENT (( #305 ) ) ;
#196 = LINE ( 'NONE', #166, #18 ) ;
#197 = DIRECTION ( 'NONE',  ( -1.000000000000000000, 0.0000000000000000000, 0.0000000000000000000 ) ) ;
#198 = DIRECTION ( 'NONE',  ( 1.000000000000000000, 0.0000000000000000000, 0.0000000000000000000 ) ) ;
#199 = EDGE_CURVE ( 'NONE', #74, #120, #8, .T. ) ;
#200 = STYLED_ITEM ( 'NONE', ( #195 ), #213 ) ;
#201 = MECHANICAL_DESIGN_GEOMETRIC_PRESENTATION_REPRESENTATION (  '', ( #222 ), #256 ) ;
#202 = SURFACE_STYLE_USAGE ( .BOTH. , #205 ) ;
#203 = VERTEX_POINT ( 'NONE', #135 ) ;
#204 = EDGE_CURVE ( 'NONE', #120, #146, #248, .T. ) ;
#205 = SURFACE_SIDE_STYLE ('',( #121 ) ) ;
#206 = ORIENTED_EDGE ( 'NONE', *, *, #204, .T. ) ;
#207 = AXIS2_PLACEMENT_3D ( 'NONE', #36, #295, #58 ) ;
#208 = LENGTH_MEASURE_WITH_UNIT ( LENGTH_MEASURE( 0.02539999999999999897 ), #235 );
#209 = EDGE_LOOP ( 'NONE', ( #2, #30, #289, #53 ) ) ;
#210 = UNCERTAINTY_MEASURE_WITH_UNIT (LENGTH_MEASURE( 1.000000000000000082E-05 ), #286, 'distance_accuracy_value', 'NONE');
#211 = CARTESIAN_POINT ( 'NONE',  ( 2.204364238465235899E-18, 0.0000000000000000000, 0.01799999999999999864 ) ) ;
#212 = VERTEX_POINT ( 'NONE', #82 ) ;
#213 = MANIFOLD_SOLID_BREP ( 'Fillet1', #155 ) ;
#214 = ORIENTED_EDGE ( 'NONE', *, *, #172, .F. ) ;
#215 = EDGE_CURVE ( 'NONE', #281, #26, #196, .T. ) ;
#216 = EDGE_CURVE ( 'NONE', #212, #23, #245, .T. ) ;
#217 = DIRECTION ( 'NONE',  ( -0.0000000000000000000, -0.0000000000000000000, -1.000000000000000000 ) ) ;
#218 = CIRCLE ( 'NONE', #110, 0.04750000000000064587 ) ;
#219 = EDGE_CURVE ( 'NONE', #26, #146, #132, .T. ) ;
#220 = CARTESIAN_POINT ( 'NONE',  ( 7.340532914089237189E-19, 0.0000000000000000000, 0.005994000000000000196 ) ) ;
#221 = DIRECTION ( 'NONE',  ( 0.0000000000000000000, 0.0000000000000000000, -1.000000000000000000 ) ) ;
#222 = STYLED_ITEM ( 'NONE', ( #284 ), #184 ) ;
#223 = DIRECTION ( 'NONE',  ( 1.000000000000000000, 0.0000000000000000000, 0.0000000000000000000 ) ) ;
#224 = CARTESIAN_POINT ( 'NONE',  ( 0.005994000000000002798, 7.340532914089237189E-19, 0.005993999999999999329 ) ) ;
#225 = CONICAL_SURFACE ( 'NONE', #194, 0.005993999999999999329, 0.1745329251994338637 ) ;
#226 = CARTESIAN_POINT ( 'NONE',  ( 0.0000000000000000000, 0.0000000000000000000, 1.500000000000000222 ) ) ;
#227 = CARTESIAN_POINT ( 'NONE',  ( 0.005994000000000001931, 0.0000000000000000000, 0.01799999999999999864 ) ) ;
#228 = EDGE_CURVE ( 'NONE', #212, #182, #231, .T. ) ;
#229 = CIRCLE ( 'NONE', #249, 0.06250000000000000000 ) ;
#230 = UNCERTAINTY_MEASURE_WITH_UNIT (LENGTH_MEASURE( 1.000000000000000082E-05 ), #43, 'distance_accuracy_value', 'NONE');
#231 = CIRCLE ( 'NONE', #316, 0.005994000000000000196 ) ;
#232 = DIRECTION ( 'NONE',  ( -1.000000000000000000, 0.0000000000000000000, 1.224646799147353207E-16 ) ) ;
#233 = LENGTH_MEASURE_WITH_UNIT ( LENGTH_MEASURE( 0.02539999999999999897 ), #312 );
#234 = ORIENTED_EDGE ( 'NONE', *, *, #216, .F. ) ;
#235 =( LENGTH_UNIT ( ) NAMED_UNIT ( * ) SI_UNIT ( $, .METRE. ) );
#236 = ORIENTED_EDGE ( 'NONE', *, *, #172, .T. ) ;
#237 = AXIS2_PLACEMENT_3D ( 'NONE', #38, #290, #102 ) ;
#238 = EDGE_LOOP ( 'NONE', ( #239, #97, #123, #72 ) ) ;
#239 = ORIENTED_EDGE ( 'NONE', *, *, #81, .T. ) ;
#240 = EDGE_LOOP ( 'NONE', ( #175, #122, #70 ) ) ;
#241 = AXIS2_PLACEMENT_3D ( 'NONE', #304, #112, #173 ) ;
#242 = CARTESIAN_POINT ( 'NONE',  ( -0.005993999999999997594, 7.340532914089234300E-19, 0.01799999999999999864 ) ) ;
#243 = CARTESIAN_POINT ( 'NONE',  ( 0.0000000000000000000, 0.0000000000000000000, 1.500000000000000222 ) ) ;
#244 = DIRECTION ( 'NONE',  ( -0.1736481776669311639, 2.126576849575783008E-17, 0.9848077530122080203 ) ) ;
#245 = CIRCLE ( 'NONE', #41, 0.005994000000000000196 ) ;
#246 =( GEOMETRIC_REPRESENTATION_CONTEXT ( 3 ) GLOBAL_UNCERTAINTY_ASSIGNED_CONTEXT ( ( #230 ) ) GLOBAL_UNIT_ASSIGNED_CONTEXT ( ( #43, #61, #66 ) ) REPRESENTATION_CONTEXT ( 'NONE', 'WORKASPACE' ) );
#247 = DIRECTION ( 'NONE',  ( 1.000000000000000000, 0.0000000000000000000, 0.0000000000000000000 ) ) ;
#248 = LINE ( 'NONE', #227, #280 ) ;
#249 = AXIS2_PLACEMENT_3D ( 'NONE', #272, #131, #247 ) ;
#250 = DIRECTION ( 'NONE',  ( 0.0000000000000000000, 0.0000000000000000000, 1.000000000000000000 ) ) ;
#251 = DIRECTION ( 'NONE',  ( -1.000000000000000000, 0.0000000000000000000, 1.224646799147353207E-16 ) ) ;
#252 = DIRECTION ( 'NONE',  ( 1.000000000000000000, 0.0000000000000000000, 0.0000000000000000000 ) ) ;
#253 = AXIS2_PLACEMENT_3D ( 'NONE', #321, #113, #197 ) ;
#254 = AXIS2_PLACEMENT_3D ( 'NONE', #1, #116, #252 ) ;
#255 = EDGE_LOOP ( 'NONE', ( #309, #9, #236, #55 ) ) ;
#256 =( GEOMETRIC_REPRESENTATION_CONTEXT ( 3 ) GLOBAL_UNCERTAINTY_ASSIGNED_CONTEXT ( ( #323 ) ) GLOBAL_UNIT_ASSIGNED_CONTEXT ( ( #54, #150, #279 ) ) REPRESENTATION_CONTEXT ( 'NONE', 'WORKASPACE' ) );
#257 = COLOUR_RGB ( '',0.7921568627450980005, 0.8196078431372548767, 0.9333333333333333481 ) ;
#258 = LINE ( 'NONE', #260, #62 ) ;
#259 = ORIENTED_EDGE ( 'NONE', *, *, #81, .F. ) ;
#260 = CARTESIAN_POINT ( 'NONE',  ( 0.005994000000000001931, 7.340532914089237189E-19, -7.340532914089238152E-19 ) ) ;
#261 = CONICAL_SURFACE ( 'NONE', #207, 0.005993999999999999329, 0.1745329251994338637 ) ;
#262 = ORIENTED_EDGE ( 'NONE', *, *, #187, .T. ) ;
#263 = CARTESIAN_POINT ( 'NONE',  ( -0.06250000000000000000, 0.0000000000000000000, 1.500000000000000222 ) ) ;
#264 = ORIENTED_EDGE ( 'NONE', *, *, #267, .T. ) ;
#265 = ORIENTED_EDGE ( 'NONE', *, *, #275, .F. ) ;
#266 = DIRECTION ( 'NONE',  ( 0.0000000000000000000, 0.0000000000000000000, 1.000000000000000000 ) ) ;
#267 = EDGE_CURVE ( 'NONE', #203, #281, #218, .T. ) ;
#268 = DIRECTION ( 'NONE',  ( 0.0000000000000000000, 0.0000000000000000000, -1.000000000000000000 ) ) ;
#269 = PRODUCT_CONTEXT ( 'NONE', #92, 'mechanical' ) ;
#270 = FACE_OUTER_BOUND ( 'NONE', #238, .T. ) ;
#271 = CARTESIAN_POINT ( 'NONE',  ( -0.005994000000000000196, 0.0000000000000000000, 0.005994000000000001931 ) ) ;
#272 = CARTESIAN_POINT ( 'NONE',  ( 4.144957319887584730E-17, 0.0000000000000000000, 0.3384614504993165296 ) ) ;
#273 = SURFACE_SIDE_STYLE ('',( #170 ) ) ;
#274 = DIRECTION ( 'NONE',  ( -1.224646799147353454E-16, -0.0000000000000000000, -1.000000000000000000 ) ) ;
#275 = EDGE_CURVE ( 'NONE', #23, #182, #299, .T. ) ;
#276 = DIRECTION ( 'NONE',  ( -0.0000000000000000000, -0.0000000000000000000, -1.000000000000000000 ) ) ;
#277 = EDGE_CURVE ( 'NONE', #307, #148, #68, .T. ) ;
#278 = DIRECTION ( 'NONE',  ( -1.000000000000000000, 1.224646799147353207E-16, 0.0000000000000000000 ) ) ;
#279 =( NAMED_UNIT ( * ) SI_UNIT ( $, .STERADIAN. ) SOLID_ANGLE_UNIT ( ) );
#280 = VECTOR ( 'NONE', #14, 39.37007874015748143 ) ;
#281 = VERTEX_POINT ( 'NONE', #25 ) ;
#282 = CARTESIAN_POINT ( 'NONE',  ( 0.0000000000000000000, 0.0000000000000000000, 0.0000000000000000000 ) ) ;
#283 = ORIENTED_EDGE ( 'NONE', *, *, #3, .F. ) ;
#284 = PRESENTATION_STYLE_ASSIGNMENT (( #202 ) ) ;
#285 = EDGE_LOOP ( 'NONE', ( #186, #93, #259, #283 ) ) ;
#286 =( CONVERSION_BASED_UNIT ( 'INCH', #208 ) LENGTH_UNIT ( ) NAMED_UNIT ( #294 ) );
#287 = ORIENTED_EDGE ( 'NONE', *, *, #149, .T. ) ;
#288 = CYLINDRICAL_SURFACE ( 'NONE', #134, 0.005994000000000001931 ) ;
#289 = ORIENTED_EDGE ( 'NONE', *, *, #3, .T. ) ;
#290 = DIRECTION ( 'NONE',  ( 0.0000000000000000000, 0.0000000000000000000, 1.000000000000000000 ) ) ;
#291 = DIRECTION ( 'NONE',  ( 1.000000000000000000, 0.0000000000000000000, 0.0000000000000000000 ) ) ;
#292 = AXIS2_PLACEMENT_3D ( 'NONE', #185, #51, #308 ) ;
#293 = PRODUCT_DEFINITION_FORMATION_WITH_SPECIFIED_SOURCE ( 'ANY', '', #136, .NOT_KNOWN. ) ;
#294 = DIMENSIONAL_EXPONENTS ( 1.000000000000000000, 0.0000000000000000000, 0.0000000000000000000, 0.0000000000000000000, 0.0000000000000000000, 0.0000000000000000000, 0.0000000000000000000 ) ;
#295 = DIRECTION ( 'NONE',  ( 1.224646799147353454E-16, 0.0000000000000000000, 1.000000000000000000 ) ) ;
#296 = EDGE_CURVE ( 'NONE', #120, #182, #258, .T. ) ;
#297 = SPHERICAL_SURFACE ( 'NONE', #103, 0.005994000000000000196 ) ;
#298 = CIRCLE ( 'NONE', #142, 0.06250000000000000000 ) ;
#299 = CIRCLE ( 'NONE', #35, 0.005994000000000001931 ) ;
#300 = PRESENTATION_LAYER_ASSIGNMENT (  '', '', ( #200 ) ) ;
#301 = DIRECTION ( 'NONE',  ( 0.7071067811865456854, 8.659560562354911904E-17, -0.7071067811865493491 ) ) ;
#302 = CARTESIAN_POINT ( 'NONE',  ( 7.340532914089237189E-19, 0.0000000000000000000, 0.005994000000000000196 ) ) ;
#303 = AXIS2_PLACEMENT_3D ( 'NONE', #99, #13, #105 ) ;
#304 = CARTESIAN_POINT ( 'NONE',  ( 2.204364238465235899E-18, 0.0000000000000000000, 0.01799999999999999864 ) ) ;
#305 = SURFACE_STYLE_USAGE ( .BOTH. , #273 ) ;
#306 = EDGE_CURVE ( 'NONE', #26, #307, #21, .T. ) ;
#307 = VERTEX_POINT ( 'NONE', #91 ) ;
#308 = DIRECTION ( 'NONE',  ( -1.000000000000000000, 0.0000000000000000000, 1.780327198073244060E-16 ) ) ;
#309 = ORIENTED_EDGE ( 'NONE', *, *, #296, .F. ) ;
#310 = EDGE_CURVE ( 'NONE', #182, #23, #143, .T. ) ;
#311 = EDGE_LOOP ( 'NONE', ( #5, #69, #179, #214 ) ) ;
#312 =( LENGTH_UNIT ( ) NAMED_UNIT ( * ) SI_UNIT ( $, .METRE. ) );
#313 = EDGE_LOOP ( 'NONE', ( #264, #181 ) ) ;
#314 = AXIS2_PLACEMENT_3D ( 'NONE', #85, #138, #251 ) ;
#315 = EDGE_LOOP ( 'NONE', ( #234, #95, #265 ) ) ;
#316 = AXIS2_PLACEMENT_3D ( 'NONE', #111, #167, #17 ) ;
#317 = CARTESIAN_POINT ( 'NONE',  ( 0.06250000000000000000, 7.654042494670956004E-18, 1.485000000000000764 ) ) ;
#318 = DIRECTION ( 'NONE',  ( -0.0000000000000000000, -0.0000000000000000000, -1.000000000000000000 ) ) ;
#319 = ADVANCED_FACE ( 'NONE', ( #119 ), #288, .T. ) ;
#320 = FACE_OUTER_BOUND ( 'NONE', #28, .T. ) ;
#321 = CARTESIAN_POINT ( 'NONE',  ( 0.0000000000000000000, 0.0000000000000000000, 1.500000000000000222 ) ) ;
#322 = EDGE_CURVE ( 'NONE', #120, #74, #49, .T. ) ;
#323 = UNCERTAINTY_MEASURE_WITH_UNIT (LENGTH_MEASURE( 1.000000000000000082E-05 ), #54, 'distance_accuracy_value', 'NONE');
#324 = DIRECTION ( 'NONE',  ( 1.000000000000000000, 0.0000000000000000000, 0.0000000000000000000 ) ) ;
#325 = FACE_OUTER_BOUND ( 'NONE', #209, .T. ) ;
ENDSEC;
END-ISO-10303-21;
