ISO-10303-21;
HEADER;
FILE_DESCRIPTION (( 'STEP AP214' ),
    '1' );
FILE_NAME ('48076.STEP',
    '2023-06-22T21:09:24',
    ( '' ),
    ( '' ),
    'SwSTEP 2.0',
    'SolidWorks 2023',
    '' );
FILE_SCHEMA (( 'AUTOMOTIVE_DESIGN' ));
ENDSEC;

DATA;
#1 = MECHANICAL_DESIGN_GEOMETRIC_PRESENTATION_REPRESENTATION (  '', ( #215 ), #39 ) ;
#2 = SURFACE_STYLE_FILL_AREA ( #199 ) ;
#3 = UNCERTAINTY_MEASURE_WITH_UNIT (LENGTH_MEASURE( 1.000000000000000082E-05 ), #243, 'distance_accuracy_value', 'NONE');
#4 = CARTESIAN_POINT ( 'NONE',  ( 0.000000000000000000, 0.000000000000000000, 0.000000000000000000 ) ) ;
#5 = CARTESIAN_POINT ( 'NONE',  ( 0.000000000000000000, 0.3749999999999999445, 0.000000000000000000 ) ) ;
#6 = STYLED_ITEM ( 'NONE', ( #68 ), #262 ) ;
#7 = ADVANCED_FACE ( 'NONE', ( #71 ), #213, .F. ) ;
#8 = DIMENSIONAL_EXPONENTS ( 1.000000000000000000, 0.000000000000000000, 0.000000000000000000, 0.000000000000000000, 0.000000000000000000, 0.000000000000000000, 0.000000000000000000 ) ;
#9 = VERTEX_POINT ( 'NONE', #170 ) ;
#10 = PRODUCT_RELATED_PRODUCT_CATEGORY ( 'part', '', ( #219 ) ) ;
#11 = LINE ( 'NONE', #163, #142 ) ;
#12 = DIRECTION ( 'NONE',  ( 0.000000000000000000, 0.000000000000000000, -1.000000000000000000 ) ) ;
#13 = ADVANCED_FACE ( 'NONE', ( #244 ), #118, .F. ) ;
#14 = CARTESIAN_POINT ( 'NONE',  ( 0.000000000000000000, 0.000000000000000000, 0.000000000000000000 ) ) ;
#15 = VERTEX_POINT ( 'NONE', #194 ) ;
#16 = PRODUCT_DEFINITION_SHAPE ( 'NONE', 'NONE',  #282 ) ;
#17 = AXIS2_PLACEMENT_3D ( 'NONE', #5, #138, #53 ) ;
#18 = ORIENTED_EDGE ( 'NONE', *, *, #190, .T. ) ;
#19 = CARTESIAN_POINT ( 'NONE',  ( 0.1250000000000000278, 0.3749999999999999445, 1.530808498934191509E-17 ) ) ;
#20 = CARTESIAN_POINT ( 'NONE',  ( 0.1250000000000000278, 2.000000000000000000, 0.000000000000000000 ) ) ;
#21 = SURFACE_STYLE_FILL_AREA ( #145 ) ;
#22 = AXIS2_PLACEMENT_3D ( 'NONE', #287, #172, #72 ) ;
#23 = DIRECTION ( 'NONE',  ( -0.000000000000000000, -1.000000000000000000, -0.000000000000000000 ) ) ;
#24 = FACE_OUTER_BOUND ( 'NONE', #112, .T. ) ;
#25 = AXIS2_PLACEMENT_3D ( 'NONE', #14, #280, #91 ) ;
#26 = DIRECTION ( 'NONE',  ( -0.000000000000000000, -1.000000000000000000, -0.000000000000000000 ) ) ;
#27 = SURFACE_SIDE_STYLE ('',( #2 ) ) ;
#28 = DIRECTION ( 'NONE',  ( 7.536287994752946416E-17, 1.000000000000000000, -0.000000000000000000 ) ) ;
#29 = EDGE_CURVE ( 'NONE', #37, #180, #101, .T. ) ;
#30 = DIRECTION ( 'NONE',  ( 7.536287994752946416E-17, 1.000000000000000000, -0.000000000000000000 ) ) ;
#31 =( CONVERSION_BASED_UNIT ( 'INCH', #76 ) LENGTH_UNIT ( ) NAMED_UNIT ( #56 ) );
#32 = CARTESIAN_POINT ( 'NONE',  ( 0.1250000000000000833, 2.000000000000000000, 1.530808498934191201E-17 ) ) ;
#33 = AXIS2_PLACEMENT_3D ( 'NONE', #189, #44, #195 ) ;
#34 = STYLED_ITEM ( 'NONE', ( #272 ), #174 ) ;
#35 = DIRECTION ( 'NONE',  ( -1.000000000000000000, 0.000000000000000000, 0.000000000000000000 ) ) ;
#36 =( CONVERSION_BASED_UNIT ( 'INCH', #253 ) LENGTH_UNIT ( ) NAMED_UNIT ( #80 ) );
#37 = VERTEX_POINT ( 'NONE', #47 ) ;
#38 = SURFACE_SIDE_STYLE ('',( #255 ) ) ;
#39 =( GEOMETRIC_REPRESENTATION_CONTEXT ( 3 ) GLOBAL_UNCERTAINTY_ASSIGNED_CONTEXT ( ( #309 ) ) GLOBAL_UNIT_ASSIGNED_CONTEXT ( ( #31, #104, #106 ) ) REPRESENTATION_CONTEXT ( 'NONE', 'WORKASPACE' ) );
#40 = ORIENTED_EDGE ( 'NONE', *, *, #266, .T. ) ;
#41 =( CONVERSION_BASED_UNIT ( 'INCH', #183 ) LENGTH_UNIT ( ) NAMED_UNIT ( #254 ) );
#42 = AXIS2_PLACEMENT_3D ( 'NONE', #281, #169, #261 ) ;
#43 = PRESENTATION_LAYER_ASSIGNMENT (  '', '', ( #215 ) ) ;
#44 = DIRECTION ( 'NONE',  ( 0.000000000000000000, -1.000000000000000000, -0.000000000000000000 ) ) ;
#45 = CARTESIAN_POINT ( 'NONE',  ( 0.000000000000000000, 0.3749999999999999445, 0.000000000000000000 ) ) ;
#46 = APPLICATION_PROTOCOL_DEFINITION ( 'draft international standard', 'automotive_design', 1998, #227 ) ;
#47 = CARTESIAN_POINT ( 'NONE',  ( 1.530808498934191509E-17, 0.000000000000000000, 0.1250000000000000000 ) ) ;
#48 = DIRECTION ( 'NONE',  ( -1.000000000000000000, 7.536287994752946416E-17, 0.000000000000000000 ) ) ;
#49 = CYLINDRICAL_SURFACE ( 'NONE', #200, 0.1249999999999999584 ) ;
#50 = CLOSED_SHELL ( 'NONE', ( #262, #96, #127, #222 ) ) ;
#51 =( GEOMETRIC_REPRESENTATION_CONTEXT ( 3 ) GLOBAL_UNCERTAINTY_ASSIGNED_CONTEXT ( ( #242 ) ) GLOBAL_UNIT_ASSIGNED_CONTEXT ( ( #165, #143, #100 ) ) REPRESENTATION_CONTEXT ( 'NONE', 'WORKASPACE' ) );
#52 =( GEOMETRIC_REPRESENTATION_CONTEXT ( 3 ) GLOBAL_UNCERTAINTY_ASSIGNED_CONTEXT ( ( #196 ) ) GLOBAL_UNIT_ASSIGNED_CONTEXT ( ( #36, #297, #147 ) ) REPRESENTATION_CONTEXT ( 'NONE', 'WORKASPACE' ) );
#53 = DIRECTION ( 'NONE',  ( -1.000000000000000000, 0.000000000000000000, 0.000000000000000000 ) ) ;
#54 =( NAMED_UNIT ( * ) SI_UNIT ( $, .STERADIAN. ) SOLID_ANGLE_UNIT ( ) );
#55 = FILL_AREA_STYLE ('',( #210 ) ) ;
#56 = DIMENSIONAL_EXPONENTS ( 1.000000000000000000, 0.000000000000000000, 0.000000000000000000, 0.000000000000000000, 0.000000000000000000, 0.000000000000000000, 0.000000000000000000 ) ;
#57 = SURFACE_SIDE_STYLE ('',( #289 ) ) ;
#58 = ORIENTED_EDGE ( 'NONE', *, *, #82, .F. ) ;
#59 = ORIENTED_EDGE ( 'NONE', *, *, #168, .T. ) ;
#60 = SURFACE_STYLE_USAGE ( .BOTH. , #73 ) ;
#61 = EDGE_LOOP ( 'NONE', ( #134, #270 ) ) ;
#62 = EDGE_LOOP ( 'NONE', ( #18, #88 ) ) ;
#63 = COLOUR_RGB ( '',1.000000000000000000, 0.000000000000000000, 0.000000000000000000 ) ;
#64 = CARTESIAN_POINT ( 'NONE',  ( 1.530808498934191509E-17, 0.000000000000000000, 0.1250000000000000000 ) ) ;
#65 = UNCERTAINTY_MEASURE_WITH_UNIT (LENGTH_MEASURE( 1.000000000000000082E-05 ), #161, 'distance_accuracy_value', 'NONE');
#66 = CARTESIAN_POINT ( 'NONE',  ( -0.1249999999999997780, 2.000000000000000000, 0.000000000000000000 ) ) ;
#67 = ADVANCED_BREP_SHAPE_REPRESENTATION ( '48076', ( #174, #177, #25 ), #152 ) ;
#68 = PRESENTATION_STYLE_ASSIGNMENT (( #123 ) ) ;
#69 = VECTOR ( 'NONE', #263, 39.37007874015748143 ) ;
#70 = SURFACE_SIDE_STYLE ('',( #21 ) ) ;
#71 = FACE_OUTER_BOUND ( 'NONE', #92, .T. ) ;
#72 = DIRECTION ( 'NONE',  ( -1.000000000000000000, 0.000000000000000000, 0.000000000000000000 ) ) ;
#73 = SURFACE_SIDE_STYLE ('',( #217 ) ) ;
#74 = CIRCLE ( 'NONE', #256, 0.1250000000000000278 ) ;
#75 = AXIS2_PLACEMENT_3D ( 'NONE', #252, #198, #35 ) ;
#76 = LENGTH_MEASURE_WITH_UNIT ( LENGTH_MEASURE( 0.02539999999999999897 ), #98 );
#77 = APPLICATION_CONTEXT ( 'automotive_design' ) ;
#78 = MECHANICAL_DESIGN_GEOMETRIC_PRESENTATION_REPRESENTATION (  '', ( #206 ), #52 ) ;
#79 = CARTESIAN_POINT ( 'NONE',  ( 0.000000000000000000, 0.3749999999999999445, 0.000000000000000000 ) ) ;
#80 = DIMENSIONAL_EXPONENTS ( 1.000000000000000000, 0.000000000000000000, 0.000000000000000000, 0.000000000000000000, 0.000000000000000000, 0.000000000000000000, 0.000000000000000000 ) ;
#81 = ORIENTED_EDGE ( 'NONE', *, *, #168, .F. ) ;
#82 = EDGE_CURVE ( 'NONE', #160, #276, #201, .T. ) ;
#83 = ORIENTED_EDGE ( 'NONE', *, *, #236, .T. ) ;
#84 =( LENGTH_UNIT ( ) NAMED_UNIT ( * ) SI_UNIT ( $, .METRE. ) );
#85 = SURFACE_SIDE_STYLE ('',( #298 ) ) ;
#86 =( GEOMETRIC_REPRESENTATION_CONTEXT ( 3 ) GLOBAL_UNCERTAINTY_ASSIGNED_CONTEXT ( ( #126 ) ) GLOBAL_UNIT_ASSIGNED_CONTEXT ( ( #159, #191, #285 ) ) REPRESENTATION_CONTEXT ( 'NONE', 'WORKASPACE' ) );
#87 = SURFACE_STYLE_USAGE ( .BOTH. , #57 ) ;
#88 = ORIENTED_EDGE ( 'NONE', *, *, #179, .T. ) ;
#89 = DIRECTION ( 'NONE',  ( 7.536287994752946416E-17, 1.000000000000000000, -0.000000000000000000 ) ) ;
#90 =( NAMED_UNIT ( * ) PLANE_ANGLE_UNIT ( ) SI_UNIT ( $, .RADIAN. ) );
#91 = DIRECTION ( 'NONE',  ( 1.000000000000000000, 0.000000000000000000, 0.000000000000000000 ) ) ;
#92 = EDGE_LOOP ( 'NONE', ( #295, #140 ) ) ;
#93 = PLANE ( 'NONE',  #33 ) ;
#94 = LENGTH_MEASURE_WITH_UNIT ( LENGTH_MEASURE( 0.02539999999999999897 ), #111 );
#95 = ORIENTED_EDGE ( 'NONE', *, *, #179, .F. ) ;
#96 = ADVANCED_FACE ( 'NONE', ( #124 ), #292, .T. ) ;
#97 = CARTESIAN_POINT ( 'NONE',  ( 1.224646799147353700E-16, 2.000000000000000000, 0.000000000000000000 ) ) ;
#98 =( LENGTH_UNIT ( ) NAMED_UNIT ( * ) SI_UNIT ( $, .METRE. ) );
#99 = CYLINDRICAL_SURFACE ( 'NONE', #304, 0.1250000000000000000 ) ;
#100 =( NAMED_UNIT ( * ) SI_UNIT ( $, .STERADIAN. ) SOLID_ANGLE_UNIT ( ) );
#101 = CIRCLE ( 'NONE', #42, 0.1250000000000000000 ) ;
#102 = AXIS2_PLACEMENT_3D ( 'NONE', #231, #208, #218 ) ;
#103 = CYLINDRICAL_SURFACE ( 'NONE', #233, 0.1249999999999999584 ) ;
#104 =( NAMED_UNIT ( * ) PLANE_ANGLE_UNIT ( ) SI_UNIT ( $, .RADIAN. ) );
#105 = LENGTH_MEASURE_WITH_UNIT ( LENGTH_MEASURE( 0.02539999999999999897 ), #156 );
#106 =( NAMED_UNIT ( * ) SI_UNIT ( $, .STERADIAN. ) SOLID_ANGLE_UNIT ( ) );
#107 = COLOUR_RGB ( '',1.000000000000000000, 0.000000000000000000, 0.000000000000000000 ) ;
#108 = EDGE_LOOP ( 'NONE', ( #81, #58 ) ) ;
#109 = PRODUCT_DEFINITION_FORMATION_WITH_SPECIFIED_SOURCE ( 'ANY', '', #219, .NOT_KNOWN. ) ;
#110 = CARTESIAN_POINT ( 'NONE',  ( 1.530808498934191817E-17, 0.3749999999999999445, 0.1250000000000000278 ) ) ;
#111 =( LENGTH_UNIT ( ) NAMED_UNIT ( * ) SI_UNIT ( $, .METRE. ) );
#112 = EDGE_LOOP ( 'NONE', ( #59, #83, #113, #228 ) ) ;
#113 = ORIENTED_EDGE ( 'NONE', *, *, #212, .F. ) ;
#114 =( GEOMETRIC_REPRESENTATION_CONTEXT ( 3 ) GLOBAL_UNCERTAINTY_ASSIGNED_CONTEXT ( ( #264 ) ) GLOBAL_UNIT_ASSIGNED_CONTEXT ( ( #41, #90, #167 ) ) REPRESENTATION_CONTEXT ( 'NONE', 'WORKASPACE' ) );
#115 = ORIENTED_EDGE ( 'NONE', *, *, #190, .F. ) ;
#116 = FILL_AREA_STYLE_COLOUR ( '', #230 ) ;
#117 = FILL_AREA_STYLE_COLOUR ( '', #137 ) ;
#118 = PLANE ( 'NONE',  #293 ) ;
#119 = DIRECTION ( 'NONE',  ( 1.000000000000000000, -7.536287994752946416E-17, 0.000000000000000000 ) ) ;
#120 = CIRCLE ( 'NONE', #221, 0.1250000000000000278 ) ;
#121 = CIRCLE ( 'NONE', #22, 0.1249999999999999029 ) ;
#122 = EDGE_CURVE ( 'NONE', #276, #180, #11, .T. ) ;
#123 = SURFACE_STYLE_USAGE ( .BOTH. , #70 ) ;
#124 = FACE_OUTER_BOUND ( 'NONE', #108, .T. ) ;
#125 = DIRECTION ( 'NONE',  ( -7.536287994752946416E-17, -1.000000000000000000, 0.000000000000000000 ) ) ;
#126 = UNCERTAINTY_MEASURE_WITH_UNIT (LENGTH_MEASURE( 1.000000000000000082E-05 ), #159, 'distance_accuracy_value', 'NONE');
#127 = ADVANCED_FACE ( 'NONE', ( #305 ), #130, .T. ) ;
#128 = AXIS2_PLACEMENT_3D ( 'NONE', #265, #308, #48 ) ;
#129 = CIRCLE ( 'NONE', #17, 0.1250000000000000278 ) ;
#130 = CYLINDRICAL_SURFACE ( 'NONE', #214, 0.1250000000000000000 ) ;
#131 = DIRECTION ( 'NONE',  ( -0.000000000000000000, -1.000000000000000000, -0.000000000000000000 ) ) ;
#132 = CARTESIAN_POINT ( 'NONE',  ( 0.000000000000000000, 0.3749999999999999445, 0.000000000000000000 ) ) ;
#133 = VECTOR ( 'NONE', #238, 39.37007874015748143 ) ;
#134 = ORIENTED_EDGE ( 'NONE', *, *, #212, .T. ) ;
#135 = DIRECTION ( 'NONE',  ( -0.000000000000000000, -1.000000000000000000, -0.000000000000000000 ) ) ;
#136 = DIMENSIONAL_EXPONENTS ( 1.000000000000000000, 0.000000000000000000, 0.000000000000000000, 0.000000000000000000, 0.000000000000000000, 0.000000000000000000, 0.000000000000000000 ) ;
#137 = COLOUR_RGB ( '',1.000000000000000000, 0.000000000000000000, 0.000000000000000000 ) ;
#138 = DIRECTION ( 'NONE',  ( 7.536287994752946416E-17, 1.000000000000000000, -0.000000000000000000 ) ) ;
#139 = ORIENTED_EDGE ( 'NONE', *, *, #307, .F. ) ;
#140 = ORIENTED_EDGE ( 'NONE', *, *, #158, .F. ) ;
#141 = ORIENTED_EDGE ( 'NONE', *, *, #236, .F. ) ;
#142 = VECTOR ( 'NONE', #207, 39.37007874015748143 ) ;
#143 =( NAMED_UNIT ( * ) PLANE_ANGLE_UNIT ( ) SI_UNIT ( $, .RADIAN. ) );
#144 = ADVANCED_FACE ( 'NONE', ( #154 ), #103, .T. ) ;
#145 = FILL_AREA_STYLE ('',( #117 ) ) ;
#146 = AXIS2_PLACEMENT_3D ( 'NONE', #79, #151, #274 ) ;
#147 =( NAMED_UNIT ( * ) SI_UNIT ( $, .STERADIAN. ) SOLID_ANGLE_UNIT ( ) );
#148 = DIRECTION ( 'NONE',  ( -1.000000000000000000, 0.000000000000000000, 0.000000000000000000 ) ) ;
#149 = CARTESIAN_POINT ( 'NONE',  ( 1.224646799147353700E-16, 2.000000000000000000, 0.000000000000000000 ) ) ;
#150 = CARTESIAN_POINT ( 'NONE',  ( -0.1249999999999998473, 2.000000000000000000, 0.000000000000000000 ) ) ;
#151 = DIRECTION ( 'NONE',  ( 0.000000000000000000, 1.000000000000000000, 0.000000000000000000 ) ) ;
#152 =( GEOMETRIC_REPRESENTATION_CONTEXT ( 3 ) GLOBAL_UNCERTAINTY_ASSIGNED_CONTEXT ( ( #3 ) ) GLOBAL_UNIT_ASSIGNED_CONTEXT ( ( #243, #173, #153 ) ) REPRESENTATION_CONTEXT ( 'NONE', 'WORKASPACE' ) );
#153 =( NAMED_UNIT ( * ) SI_UNIT ( $, .STERADIAN. ) SOLID_ANGLE_UNIT ( ) );
#154 = FACE_OUTER_BOUND ( 'NONE', #273, .T. ) ;
#155 = CARTESIAN_POINT ( 'NONE',  ( 0.000000000000000000, 0.000000000000000000, -0.1250000000000000000 ) ) ;
#156 =( LENGTH_UNIT ( ) NAMED_UNIT ( * ) SI_UNIT ( $, .METRE. ) );
#157 =( LENGTH_UNIT ( ) NAMED_UNIT ( * ) SI_UNIT ( $, .METRE. ) );
#158 = EDGE_CURVE ( 'NONE', #235, #9, #74, .T. ) ;
#159 =( CONVERSION_BASED_UNIT ( 'INCH', #105 ) LENGTH_UNIT ( ) NAMED_UNIT ( #136 ) );
#160 = VERTEX_POINT ( 'NONE', #110 ) ;
#161 =( CONVERSION_BASED_UNIT ( 'INCH', #94 ) LENGTH_UNIT ( ) NAMED_UNIT ( #294 ) );
#162 = ORIENTED_EDGE ( 'NONE', *, *, #29, .F. ) ;
#163 = CARTESIAN_POINT ( 'NONE',  ( 0.000000000000000000, 0.000000000000000000, -0.1250000000000000000 ) ) ;
#164 = SURFACE_STYLE_USAGE ( .BOTH. , #85 ) ;
#165 =( CONVERSION_BASED_UNIT ( 'INCH', #237 ) LENGTH_UNIT ( ) NAMED_UNIT ( #8 ) );
#166 = VECTOR ( 'NONE', #28, 39.37007874015748143 ) ;
#167 =( NAMED_UNIT ( * ) SI_UNIT ( $, .STERADIAN. ) SOLID_ANGLE_UNIT ( ) );
#168 = EDGE_CURVE ( 'NONE', #276, #160, #120, .T. ) ;
#169 = DIRECTION ( 'NONE',  ( -0.000000000000000000, -1.000000000000000000, -0.000000000000000000 ) ) ;
#170 = CARTESIAN_POINT ( 'NONE',  ( -0.1250000000000000278, 0.3749999999999999445, 0.000000000000000000 ) ) ;
#171 = MECHANICAL_DESIGN_GEOMETRIC_PRESENTATION_REPRESENTATION (  '', ( #184 ), #197 ) ;
#172 = DIRECTION ( 'NONE',  ( 7.536287994752946416E-17, 1.000000000000000000, -0.000000000000000000 ) ) ;
#173 =( NAMED_UNIT ( * ) PLANE_ANGLE_UNIT ( ) SI_UNIT ( $, .RADIAN. ) );
#174 = MANIFOLD_SOLID_BREP ( 'Revolve - Cutting Edge', #50 ) ;
#175 = APPLICATION_PROTOCOL_DEFINITION ( 'draft international standard', 'automotive_design', 1998, #77 ) ;
#176 = FILL_AREA_STYLE ('',( #300 ) ) ;
#177 = MANIFOLD_SOLID_BREP ( 'Revolve - Tool Body (Straight Shanked)', #193 ) ;
#178 = SURFACE_STYLE_USAGE ( .BOTH. , #27 ) ;
#179 = EDGE_CURVE ( 'NONE', #15, #232, #257, .T. ) ;
#180 = VERTEX_POINT ( 'NONE', #155 ) ;
#181 = DIMENSIONAL_EXPONENTS ( 1.000000000000000000, 0.000000000000000000, 0.000000000000000000, 0.000000000000000000, 0.000000000000000000, 0.000000000000000000, 0.000000000000000000 ) ;
#182 = DIRECTION ( 'NONE',  ( -1.000000000000000000, 0.000000000000000000, 0.000000000000000000 ) ) ;
#183 = LENGTH_MEASURE_WITH_UNIT ( LENGTH_MEASURE( 0.02539999999999999897 ), #84 );
#184 = STYLED_ITEM ( 'NONE', ( #224 ), #127 ) ;
#185 = EDGE_LOOP ( 'NONE', ( #40, #205, #115, #301 ) ) ;
#186 = PRESENTATION_LAYER_ASSIGNMENT (  '', '', ( #6 ) ) ;
#187 = ORIENTED_EDGE ( 'NONE', *, *, #158, .T. ) ;
#188 = PRESENTATION_STYLE_ASSIGNMENT (( #87 ) ) ;
#189 = CARTESIAN_POINT ( 'NONE',  ( 0.000000000000000000, 0.000000000000000000, 0.000000000000000000 ) ) ;
#190 = EDGE_CURVE ( 'NONE', #232, #15, #121, .T. ) ;
#191 =( NAMED_UNIT ( * ) PLANE_ANGLE_UNIT ( ) SI_UNIT ( $, .RADIAN. ) );
#192 = FILL_AREA_STYLE_COLOUR ( '', #107 ) ;
#193 = CLOSED_SHELL ( 'NONE', ( #204, #7, #144, #13 ) ) ;
#194 = CARTESIAN_POINT ( 'NONE',  ( 0.1250000000000000278, 2.000000000000000000, 1.530808498934191509E-17 ) ) ;
#195 = DIRECTION ( 'NONE',  ( 0.000000000000000000, 0.000000000000000000, -1.000000000000000000 ) ) ;
#196 = UNCERTAINTY_MEASURE_WITH_UNIT (LENGTH_MEASURE( 1.000000000000000082E-05 ), #36, 'distance_accuracy_value', 'NONE');
#197 =( GEOMETRIC_REPRESENTATION_CONTEXT ( 3 ) GLOBAL_UNCERTAINTY_ASSIGNED_CONTEXT ( ( #65 ) ) GLOBAL_UNIT_ASSIGNED_CONTEXT ( ( #161, #271, #54 ) ) REPRESENTATION_CONTEXT ( 'NONE', 'WORKASPACE' ) );
#198 = DIRECTION ( 'NONE',  ( 7.536287994752946416E-17, 1.000000000000000000, -0.000000000000000000 ) ) ;
#199 = FILL_AREA_STYLE ('',( #291 ) ) ;
#200 = AXIS2_PLACEMENT_3D ( 'NONE', #149, #245, #296 ) ;
#201 = CIRCLE ( 'NONE', #220, 0.1250000000000000278 ) ;
#202 = MECHANICAL_DESIGN_GEOMETRIC_PRESENTATION_REPRESENTATION (  '', ( #34 ), #51 ) ;
#203 =( LENGTH_UNIT ( ) NAMED_UNIT ( * ) SI_UNIT ( $, .METRE. ) );
#204 = ADVANCED_FACE ( 'NONE', ( #268 ), #49, .T. ) ;
#205 = ORIENTED_EDGE ( 'NONE', *, *, #307, .T. ) ;
#206 = STYLED_ITEM ( 'NONE', ( #188 ), #222 ) ;
#207 = DIRECTION ( 'NONE',  ( -0.000000000000000000, -1.000000000000000000, -0.000000000000000000 ) ) ;
#208 = DIRECTION ( 'NONE',  ( -0.000000000000000000, -1.000000000000000000, -0.000000000000000000 ) ) ;
#209 = ORIENTED_EDGE ( 'NONE', *, *, #275, .T. ) ;
#210 = FILL_AREA_STYLE_COLOUR ( '', #269 ) ;
#211 = FILL_AREA_STYLE ('',( #116 ) ) ;
#212 = EDGE_CURVE ( 'NONE', #180, #37, #241, .T. ) ;
#213 = PLANE ( 'NONE',  #128 ) ;
#214 = AXIS2_PLACEMENT_3D ( 'NONE', #4, #26, #226 ) ;
#215 = STYLED_ITEM ( 'NONE', ( #251 ), #177 ) ;
#216 = PRESENTATION_STYLE_ASSIGNMENT (( #60 ) ) ;
#217 = SURFACE_STYLE_FILL_AREA ( #279 ) ;
#218 = DIRECTION ( 'NONE',  ( 0.000000000000000000, 0.000000000000000000, -1.000000000000000000 ) ) ;
#219 = PRODUCT ( '48076', '48076', '', ( #277 ) ) ;
#220 = AXIS2_PLACEMENT_3D ( 'NONE', #45, #23, #239 ) ;
#221 = AXIS2_PLACEMENT_3D ( 'NONE', #302, #135, #12 ) ;
#222 = ADVANCED_FACE ( 'NONE', ( #267 ), #93, .T. ) ;
#223 = CARTESIAN_POINT ( 'NONE',  ( 0.000000000000000000, 0.3749999999999999445, -0.1250000000000000278 ) ) ;
#224 = PRESENTATION_STYLE_ASSIGNMENT (( #247 ) ) ;
#225 = MECHANICAL_DESIGN_GEOMETRIC_PRESENTATION_REPRESENTATION (  '', ( #6 ), #86 ) ;
#226 = DIRECTION ( 'NONE',  ( 0.000000000000000000, 0.000000000000000000, -1.000000000000000000 ) ) ;
#227 = APPLICATION_CONTEXT ( 'automotive_design' ) ;
#228 = ORIENTED_EDGE ( 'NONE', *, *, #122, .F. ) ;
#229 = MECHANICAL_DESIGN_GEOMETRIC_PRESENTATION_REPRESENTATION (  '', ( #303 ), #114 ) ;
#230 = COLOUR_RGB ( '',0.7921568627450980005, 0.8196078431372548767, 0.9333333333333333481 ) ;
#231 = CARTESIAN_POINT ( 'NONE',  ( 0.000000000000000000, 0.000000000000000000, 0.000000000000000000 ) ) ;
#232 = VERTEX_POINT ( 'NONE', #66 ) ;
#233 = AXIS2_PLACEMENT_3D ( 'NONE', #97, #30, #148 ) ;
#234 = PRESENTATION_LAYER_ASSIGNMENT (  '', '', ( #34 ) ) ;
#235 = VERTEX_POINT ( 'NONE', #19 ) ;
#236 = EDGE_CURVE ( 'NONE', #160, #37, #283, .T. ) ;
#237 = LENGTH_MEASURE_WITH_UNIT ( LENGTH_MEASURE( 0.02539999999999999897 ), #259 );
#238 = DIRECTION ( 'NONE',  ( 7.536287994752946416E-17, 1.000000000000000000, -0.000000000000000000 ) ) ;
#239 = DIRECTION ( 'NONE',  ( 0.000000000000000000, 0.000000000000000000, -1.000000000000000000 ) ) ;
#240 = PRESENTATION_LAYER_ASSIGNMENT (  '', '', ( #303 ) ) ;
#241 = CIRCLE ( 'NONE', #102, 0.1250000000000000000 ) ;
#242 = UNCERTAINTY_MEASURE_WITH_UNIT (LENGTH_MEASURE( 1.000000000000000082E-05 ), #165, 'distance_accuracy_value', 'NONE');
#243 =( CONVERSION_BASED_UNIT ( 'INCH', #288 ) LENGTH_UNIT ( ) NAMED_UNIT ( #181 ) );
#244 = FACE_OUTER_BOUND ( 'NONE', #62, .T. ) ;
#245 = DIRECTION ( 'NONE',  ( 7.536287994752946416E-17, 1.000000000000000000, -0.000000000000000000 ) ) ;
#246 = PRESENTATION_LAYER_ASSIGNMENT (  '', '', ( #206 ) ) ;
#247 = SURFACE_STYLE_USAGE ( .BOTH. , #38 ) ;
#248 = DIRECTION ( 'NONE',  ( 0.000000000000000000, 0.000000000000000000, -1.000000000000000000 ) ) ;
#249 = CARTESIAN_POINT ( 'NONE',  ( 0.000000000000000000, 0.000000000000000000, 0.000000000000000000 ) ) ;
#250 = LINE ( 'NONE', #32, #133 ) ;
#251 = PRESENTATION_STYLE_ASSIGNMENT (( #178 ) ) ;
#252 = CARTESIAN_POINT ( 'NONE',  ( 1.224646799147353700E-16, 2.000000000000000000, 0.000000000000000000 ) ) ;
#253 = LENGTH_MEASURE_WITH_UNIT ( LENGTH_MEASURE( 0.02539999999999999897 ), #157 );
#254 = DIMENSIONAL_EXPONENTS ( 1.000000000000000000, 0.000000000000000000, 0.000000000000000000, 0.000000000000000000, 0.000000000000000000, 0.000000000000000000, 0.000000000000000000 ) ;
#255 = SURFACE_STYLE_FILL_AREA ( #55 ) ;
#256 = AXIS2_PLACEMENT_3D ( 'NONE', #132, #89, #182 ) ;
#257 = CIRCLE ( 'NONE', #75, 0.1249999999999999029 ) ;
#258 = ORIENTED_EDGE ( 'NONE', *, *, #122, .T. ) ;
#259 =( LENGTH_UNIT ( ) NAMED_UNIT ( * ) SI_UNIT ( $, .METRE. ) );
#260 = SHAPE_DEFINITION_REPRESENTATION ( #16, #67 ) ;
#261 = DIRECTION ( 'NONE',  ( 0.000000000000000000, 0.000000000000000000, -1.000000000000000000 ) ) ;
#262 = ADVANCED_FACE ( 'NONE', ( #24 ), #99, .T. ) ;
#263 = DIRECTION ( 'NONE',  ( -0.000000000000000000, -1.000000000000000000, -0.000000000000000000 ) ) ;
#264 = UNCERTAINTY_MEASURE_WITH_UNIT (LENGTH_MEASURE( 1.000000000000000082E-05 ), #41, 'distance_accuracy_value', 'NONE');
#265 = CARTESIAN_POINT ( 'NONE',  ( 3.549727296241087278E-34, 0.3749999999999999445, 0.000000000000000000 ) ) ;
#266 = EDGE_CURVE ( 'NONE', #9, #235, #129, .T. ) ;
#267 = FACE_OUTER_BOUND ( 'NONE', #61, .T. ) ;
#268 = FACE_OUTER_BOUND ( 'NONE', #185, .T. ) ;
#269 = COLOUR_RGB ( '',1.000000000000000000, 0.000000000000000000, 0.000000000000000000 ) ;
#270 = ORIENTED_EDGE ( 'NONE', *, *, #29, .T. ) ;
#271 =( NAMED_UNIT ( * ) PLANE_ANGLE_UNIT ( ) SI_UNIT ( $, .RADIAN. ) );
#272 = PRESENTATION_STYLE_ASSIGNMENT (( #164 ) ) ;
#273 = EDGE_LOOP ( 'NONE', ( #139, #187, #209, #95 ) ) ;
#274 = DIRECTION ( 'NONE',  ( 0.000000000000000000, -0.000000000000000000, 1.000000000000000000 ) ) ;
#275 = EDGE_CURVE ( 'NONE', #9, #232, #299, .T. ) ;
#276 = VERTEX_POINT ( 'NONE', #223 ) ;
#277 = PRODUCT_CONTEXT ( 'NONE', #77, 'mechanical' ) ;
#278 = EDGE_LOOP ( 'NONE', ( #141, #306, #258, #162 ) ) ;
#279 = FILL_AREA_STYLE ('',( #192 ) ) ;
#280 = DIRECTION ( 'NONE',  ( 0.000000000000000000, 0.000000000000000000, 1.000000000000000000 ) ) ;
#281 = CARTESIAN_POINT ( 'NONE',  ( 0.000000000000000000, 0.000000000000000000, 0.000000000000000000 ) ) ;
#282 = PRODUCT_DEFINITION ( 'UNKNOWN', '', #109, #284 ) ;
#283 = LINE ( 'NONE', #64, #69 ) ;
#284 = PRODUCT_DEFINITION_CONTEXT ( 'detailed design', #227, 'design' ) ;
#285 =( NAMED_UNIT ( * ) SI_UNIT ( $, .STERADIAN. ) SOLID_ANGLE_UNIT ( ) );
#286 = PRESENTATION_LAYER_ASSIGNMENT (  '', '', ( #184 ) ) ;
#287 = CARTESIAN_POINT ( 'NONE',  ( 1.224646799147353700E-16, 2.000000000000000000, 0.000000000000000000 ) ) ;
#288 = LENGTH_MEASURE_WITH_UNIT ( LENGTH_MEASURE( 0.02539999999999999897 ), #203 );
#289 = SURFACE_STYLE_FILL_AREA ( #176 ) ;
#290 = COLOUR_RGB ( '',0.7921568627450980005, 0.8196078431372548767, 0.9333333333333333481 ) ;
#291 = FILL_AREA_STYLE_COLOUR ( '', #290 ) ;
#292 = PLANE ( 'NONE',  #146 ) ;
#293 = AXIS2_PLACEMENT_3D ( 'NONE', #20, #125, #119 ) ;
#294 = DIMENSIONAL_EXPONENTS ( 1.000000000000000000, 0.000000000000000000, 0.000000000000000000, 0.000000000000000000, 0.000000000000000000, 0.000000000000000000, 0.000000000000000000 ) ;
#295 = ORIENTED_EDGE ( 'NONE', *, *, #266, .F. ) ;
#296 = DIRECTION ( 'NONE',  ( -1.000000000000000000, 0.000000000000000000, 0.000000000000000000 ) ) ;
#297 =( NAMED_UNIT ( * ) PLANE_ANGLE_UNIT ( ) SI_UNIT ( $, .RADIAN. ) );
#298 = SURFACE_STYLE_FILL_AREA ( #211 ) ;
#299 = LINE ( 'NONE', #150, #166 ) ;
#300 = FILL_AREA_STYLE_COLOUR ( '', #63 ) ;
#301 = ORIENTED_EDGE ( 'NONE', *, *, #275, .F. ) ;
#302 = CARTESIAN_POINT ( 'NONE',  ( 0.000000000000000000, 0.3749999999999999445, 0.000000000000000000 ) ) ;
#303 = STYLED_ITEM ( 'NONE', ( #216 ), #96 ) ;
#304 = AXIS2_PLACEMENT_3D ( 'NONE', #249, #131, #248 ) ;
#305 = FACE_OUTER_BOUND ( 'NONE', #278, .T. ) ;
#306 = ORIENTED_EDGE ( 'NONE', *, *, #82, .T. ) ;
#307 = EDGE_CURVE ( 'NONE', #235, #15, #250, .T. ) ;
#308 = DIRECTION ( 'NONE',  ( 7.536287994752946416E-17, 1.000000000000000000, -0.000000000000000000 ) ) ;
#309 = UNCERTAINTY_MEASURE_WITH_UNIT (LENGTH_MEASURE( 1.000000000000000082E-05 ), #31, 'distance_accuracy_value', 'NONE');
ENDSEC;
END-ISO-10303-21;
