ISO-10303-21;
HEADER;
FILE_DESCRIPTION (( 'STEP AP214' ),
    '1' );
FILE_NAME ('Micro_KC-125-190-045.STEP',
    '2021-09-03T19:08:07',
    ( '' ),
    ( '' ),
    'SwSTEP 2.0',
    'SolidWorks 2020',
    '' );
FILE_SCHEMA (( 'AUTOMOTIVE_DESIGN' ));
ENDSEC;

DATA;
#1 = ADVANCED_FACE ( 'NONE', ( #113 ), #232, .T. ) ;
#2 = EDGE_LOOP ( 'NONE', ( #132, #103 ) ) ;
#3 = DIRECTION ( 'NONE',  ( -1.000000000000000000, 0.0000000000000000000, 0.0000000000000000000 ) ) ;
#4 = CARTESIAN_POINT ( 'NONE',  ( 0.0000000000000000000, 0.0000000000000000000, 0.04499999999999999833 ) ) ;
#5 = VECTOR ( 'NONE', #214, 39.37007874015748143 ) ;
#6 = PRESENTATION_STYLE_ASSIGNMENT (( #236 ) ) ;
#7 = DIRECTION ( 'NONE',  ( 1.000000000000000000, 0.0000000000000000000, 0.0000000000000000000 ) ) ;
#8 = FILL_AREA_STYLE ('',( #353 ) ) ;
#9 = ORIENTED_EDGE ( 'NONE', *, *, #52, .F. ) ;
#10 = CARTESIAN_POINT ( 'NONE',  ( 0.0000000000000000000, 0.0000000000000000000, 0.1899999999999999745 ) ) ;
#11 = UNCERTAINTY_MEASURE_WITH_UNIT (LENGTH_MEASURE( 1.000000000000000082E-05 ), #171, 'distance_accuracy_value', 'NONE');
#12 = CARTESIAN_POINT ( 'NONE',  ( -0.03100000000000000672, 0.0000000000000000000, 0.0000000000000000000 ) ) ;
#13 = ADVANCED_FACE ( 'NONE', ( #148 ), #172, .F. ) ;
#14 = DIRECTION ( 'NONE',  ( 0.0000000000000000000, 0.0000000000000000000, 1.000000000000000000 ) ) ;
#15 = DIRECTION ( 'NONE',  ( 1.000000000000000000, 0.0000000000000000000, 0.0000000000000000000 ) ) ;
#16 = CYLINDRICAL_SURFACE ( 'NONE', #38, 0.06250000000000000000 ) ;
#17 = ORIENTED_EDGE ( 'NONE', *, *, #142, .F. ) ;
#18 = AXIS2_PLACEMENT_3D ( 'NONE', #271, #246, #360 ) ;
#19 = DIRECTION ( 'NONE',  ( 0.0000000000000000000, 0.0000000000000000000, 1.000000000000000000 ) ) ;
#20 = EDGE_LOOP ( 'NONE', ( #313, #105, #316, #36 ) ) ;
#21 = LINE ( 'NONE', #194, #109 ) ;
#22 = ORIENTED_EDGE ( 'NONE', *, *, #323, .F. ) ;
#23 = DIRECTION ( 'NONE',  ( 1.000000000000000000, 0.0000000000000000000, 0.0000000000000000000 ) ) ;
#24 = EDGE_LOOP ( 'NONE', ( #347, #112 ) ) ;
#25 = EDGE_CURVE ( 'NONE', #164, #61, #306, .T. ) ;
#26 = CARTESIAN_POINT ( 'NONE',  ( 0.0000000000000000000, 0.0000000000000000000, 1.500000000000000222 ) ) ;
#27 = VECTOR ( 'NONE', #346, 39.37007874015748143 ) ;
#28 = VERTEX_POINT ( 'NONE', #119 ) ;
#29 = FACE_OUTER_BOUND ( 'NONE', #140, .T. ) ;
#30 = EDGE_CURVE ( 'NONE', #159, #89, #265, .T. ) ;
#31 = MANIFOLD_SOLID_BREP ( 'Cut-Revolve1', #361 ) ;
#32 = DIRECTION ( 'NONE',  ( 0.0000000000000000000, 0.0000000000000000000, 1.000000000000000000 ) ) ;
#33 = AXIS2_PLACEMENT_3D ( 'NONE', #151, #365, #216 ) ;
#34 = VERTEX_POINT ( 'NONE', #63 ) ;
#35 = APPLICATION_CONTEXT ( 'automotive_design' ) ;
#36 = ORIENTED_EDGE ( 'NONE', *, *, #243, .F. ) ;
#37 = DIRECTION ( 'NONE',  ( -0.0000000000000000000, -0.0000000000000000000, -1.000000000000000000 ) ) ;
#38 = AXIS2_PLACEMENT_3D ( 'NONE', #26, #251, #165 ) ;
#39 = DIRECTION ( 'NONE',  ( 1.000000000000000000, 0.0000000000000000000, 0.0000000000000000000 ) ) ;
#40 = CARTESIAN_POINT ( 'NONE',  ( 0.06250000000000000000, 7.654042494670956004E-18, 0.04499999999999999833 ) ) ;
#41 = EDGE_CURVE ( 'NONE', #34, #191, #237, .T. ) ;
#42 = DIRECTION ( 'NONE',  ( -0.0000000000000000000, -0.0000000000000000000, -1.000000000000000000 ) ) ;
#43 = LINE ( 'NONE', #78, #262 ) ;
#44 = ORIENTED_EDGE ( 'NONE', *, *, #25, .T. ) ;
#45 = AXIS2_PLACEMENT_3D ( 'NONE', #82, #282, #370 ) ;
#46 = DIRECTION ( 'NONE',  ( 1.000000000000000000, 0.0000000000000000000, -0.0000000000000000000 ) ) ;
#47 = ORIENTED_EDGE ( 'NONE', *, *, #323, .T. ) ;
#48 = AXIS2_PLACEMENT_3D ( 'NONE', #94, #303, #210 ) ;
#49 = EDGE_LOOP ( 'NONE', ( #17, #54 ) ) ;
#50 = DIRECTION ( 'NONE',  ( 0.0000000000000000000, 0.0000000000000000000, -1.000000000000000000 ) ) ;
#51 = ORIENTED_EDGE ( 'NONE', *, *, #120, .T. ) ;
#52 = EDGE_CURVE ( 'NONE', #193, #230, #92, .T. ) ;
#53 = CARTESIAN_POINT ( 'NONE',  ( -0.06250000000000000000, 0.0000000000000000000, 1.500000000000000222 ) ) ;
#54 = ORIENTED_EDGE ( 'NONE', *, *, #359, .F. ) ;
#55 = DIRECTION ( 'NONE',  ( -0.0000000000000000000, -0.0000000000000000000, -1.000000000000000000 ) ) ;
#56 =( NAMED_UNIT ( * ) SI_UNIT ( $, .STERADIAN. ) SOLID_ANGLE_UNIT ( ) );
#57 =( NAMED_UNIT ( * ) PLANE_ANGLE_UNIT ( ) SI_UNIT ( $, .RADIAN. ) );
#58 =( NAMED_UNIT ( * ) PLANE_ANGLE_UNIT ( ) SI_UNIT ( $, .RADIAN. ) );
#59 =( NAMED_UNIT ( * ) PLANE_ANGLE_UNIT ( ) SI_UNIT ( $, .RADIAN. ) );
#60 = VECTOR ( 'NONE', #176, 39.37007874015748143 ) ;
#61 = VERTEX_POINT ( 'NONE', #87 ) ;
#62 = AXIS2_PLACEMENT_3D ( 'NONE', #72, #131, #310 ) ;
#63 = CARTESIAN_POINT ( 'NONE',  ( -0.03100000000000001713, 5.725223786013877433E-18, 0.1899999999999999745 ) ) ;
#64 = ADVANCED_FACE ( 'NONE', ( #269 ), #122, .T. ) ;
#65 = CARTESIAN_POINT ( 'NONE',  ( 0.0000000000000000000, 0.0000000000000000000, 1.500000000000000222 ) ) ;
#66 = DIRECTION ( 'NONE',  ( -1.000000000000000000, 0.0000000000000000000, 0.0000000000000000000 ) ) ;
#67 = VECTOR ( 'NONE', #158, 39.37007874015748143 ) ;
#68 = FACE_OUTER_BOUND ( 'NONE', #96, .T. ) ;
#69 = PRESENTATION_LAYER_ASSIGNMENT (  '', '', ( #238 ) ) ;
#70 = CARTESIAN_POINT ( 'NONE',  ( 0.0000000000000000000, 0.0000000000000000000, 0.0000000000000000000 ) ) ;
#71 = DIRECTION ( 'NONE',  ( -1.000000000000000000, 0.0000000000000000000, 0.0000000000000000000 ) ) ;
#72 = CARTESIAN_POINT ( 'NONE',  ( 0.0000000000000000000, 0.0000000000000000000, 0.04499999999999999833 ) ) ;
#73 = ADVANCED_FACE ( 'NONE', ( #29 ), #357, .T. ) ;
#74 = DIRECTION ( 'NONE',  ( 1.000000000000000000, 0.0000000000000000000, 0.0000000000000000000 ) ) ;
#75 = ORIENTED_EDGE ( 'NONE', *, *, #304, .T. ) ;
#76 = ORIENTED_EDGE ( 'NONE', *, *, #364, .F. ) ;
#77 = AXIS2_PLACEMENT_3D ( 'NONE', #305, #212, #279 ) ;
#78 = CARTESIAN_POINT ( 'NONE',  ( 0.04750000000000064587, 5.817072295950006528E-18, 1.500000000000000222 ) ) ;
#79 = EDGE_CURVE ( 'NONE', #34, #258, #248, .T. ) ;
#80 = ORIENTED_EDGE ( 'NONE', *, *, #178, .F. ) ;
#81 =( GEOMETRIC_REPRESENTATION_CONTEXT ( 3 ) GLOBAL_UNCERTAINTY_ASSIGNED_CONTEXT ( ( #275 ) ) GLOBAL_UNIT_ASSIGNED_CONTEXT ( ( #85, #58, #56 ) ) REPRESENTATION_CONTEXT ( 'NONE', 'WORKASPACE' ) );
#82 = CARTESIAN_POINT ( 'NONE',  ( 0.0000000000000000000, 0.0000000000000000000, 0.04499999999999999833 ) ) ;
#83 = VERTEX_POINT ( 'NONE', #278 ) ;
#84 = APPLICATION_CONTEXT ( 'automotive_design' ) ;
#85 =( CONVERSION_BASED_UNIT ( 'INCH', #350 ) LENGTH_UNIT ( ) NAMED_UNIT ( #292 ) );
#86 = CIRCLE ( 'NONE', #133, 0.06250000000000000000 ) ;
#87 = CARTESIAN_POINT ( 'NONE',  ( -0.06250000000000000000, 0.0000000000000000000, 0.04499999999999999833 ) ) ;
#88 = SHAPE_DEFINITION_REPRESENTATION ( #367, #338 ) ;
#89 = VERTEX_POINT ( 'NONE', #335 ) ;
#90 = ORIENTED_EDGE ( 'NONE', *, *, #41, .T. ) ;
#91 = FILL_AREA_STYLE_COLOUR ( '', #299 ) ;
#92 = LINE ( 'NONE', #207, #60 ) ;
#93 = AXIS2_PLACEMENT_3D ( 'NONE', #134, #188, #219 ) ;
#94 = CARTESIAN_POINT ( 'NONE',  ( 0.0000000000000000000, 0.0000000000000000000, 0.1899999999999999745 ) ) ;
#95 = CYLINDRICAL_SURFACE ( 'NONE', #377, 0.06250000000000000000 ) ;
#96 = EDGE_LOOP ( 'NONE', ( #108, #80, #221, #373 ) ) ;
#97 = CARTESIAN_POINT ( 'NONE',  ( 0.0000000000000000000, 0.0000000000000000000, 1.485000000000000764 ) ) ;
#98 = COLOUR_RGB ( '',0.7921568627450980005, 0.8196078431372548767, 0.9333333333333333481 ) ;
#99 = AXIS2_PLACEMENT_3D ( 'NONE', #139, #319, #74 ) ;
#100 = CARTESIAN_POINT ( 'NONE',  ( 0.03100000000000000672, 3.796405077356795780E-18, 0.0000000000000000000 ) ) ;
#101 = CARTESIAN_POINT ( 'NONE',  ( 0.06250000000000000000, 7.654042494670956004E-18, 0.2214999999999998359 ) ) ;
#102 = DIRECTION ( 'NONE',  ( 0.0000000000000000000, 0.0000000000000000000, 1.000000000000000000 ) ) ;
#103 = ORIENTED_EDGE ( 'NONE', *, *, #243, .T. ) ;
#104 = CARTESIAN_POINT ( 'NONE',  ( 0.03100000000000001713, 0.0000000000000000000, 0.1899999999999999745 ) ) ;
#105 = ORIENTED_EDGE ( 'NONE', *, *, #178, .T. ) ;
#106 = AXIS2_PLACEMENT_3D ( 'NONE', #160, #228, #286 ) ;
#107 = PLANE ( 'NONE',  #253 ) ;
#108 = ORIENTED_EDGE ( 'NONE', *, *, #41, .F. ) ;
#109 = VECTOR ( 'NONE', #366, 39.37007874015748143 ) ;
#110 = DIRECTION ( 'NONE',  ( 1.000000000000000000, 0.0000000000000000000, 0.0000000000000000000 ) ) ;
#111 = VERTEX_POINT ( 'NONE', #183 ) ;
#112 = ORIENTED_EDGE ( 'NONE', *, *, #25, .F. ) ;
#113 = FACE_OUTER_BOUND ( 'NONE', #281, .T. ) ;
#114 = EDGE_CURVE ( 'NONE', #28, #191, #363, .T. ) ;
#115 = SURFACE_STYLE_FILL_AREA ( #324 ) ;
#116 = AXIS2_PLACEMENT_3D ( 'NONE', #190, #50, #23 ) ;
#117 = DIRECTION ( 'NONE',  ( -0.0000000000000000000, -0.0000000000000000000, -1.000000000000000000 ) ) ;
#118 = UNCERTAINTY_MEASURE_WITH_UNIT (LENGTH_MEASURE( 1.000000000000000082E-05 ), #291, 'distance_accuracy_value', 'NONE');
#119 = CARTESIAN_POINT ( 'NONE',  ( -0.06250000000000000000, 0.0000000000000000000, 1.485000000000000764 ) ) ;
#120 = EDGE_CURVE ( 'NONE', #258, #111, #334, .T. ) ;
#121 = SURFACE_SIDE_STYLE ('',( #201 ) ) ;
#122 = CYLINDRICAL_SURFACE ( 'NONE', #174, 0.03100000000000000672 ) ;
#123 = FACE_OUTER_BOUND ( 'NONE', #223, .T. ) ;
#124 = ORIENTED_EDGE ( 'NONE', *, *, #155, .T. ) ;
#125 = DIRECTION ( 'NONE',  ( -0.0000000000000000000, -0.0000000000000000000, -1.000000000000000000 ) ) ;
#126 = MECHANICAL_DESIGN_GEOMETRIC_PRESENTATION_REPRESENTATION (  '', ( #238 ), #81 ) ;
#127 = DIRECTION ( 'NONE',  ( -0.0000000000000000000, -0.0000000000000000000, -1.000000000000000000 ) ) ;
#128 = CIRCLE ( 'NONE', #62, 0.03100000000000000325 ) ;
#129 = DIRECTION ( 'NONE',  ( -1.000000000000000000, 0.0000000000000000000, 0.0000000000000000000 ) ) ;
#130 = DIRECTION ( 'NONE',  ( -0.0000000000000000000, -0.0000000000000000000, -1.000000000000000000 ) ) ;
#131 = DIRECTION ( 'NONE',  ( -0.0000000000000000000, -0.0000000000000000000, -1.000000000000000000 ) ) ;
#132 = ORIENTED_EDGE ( 'NONE', *, *, #364, .T. ) ;
#133 = AXIS2_PLACEMENT_3D ( 'NONE', #137, #19, #110 ) ;
#134 = CARTESIAN_POINT ( 'NONE',  ( 0.0000000000000000000, 0.0000000000000000000, 1.500000000000000222 ) ) ;
#135 = EDGE_LOOP ( 'NONE', ( #9, #263, #226, #345 ) ) ;
#136 = ADVANCED_FACE ( 'NONE', ( #308 ), #344, .T. ) ;
#137 = CARTESIAN_POINT ( 'NONE',  ( 0.0000000000000000000, 0.0000000000000000000, 0.0000000000000000000 ) ) ;
#138 = ORIENTED_EDGE ( 'NONE', *, *, #247, .T. ) ;
#139 = CARTESIAN_POINT ( 'NONE',  ( 0.0000000000000000000, 0.0000000000000000000, 0.2214999999999998359 ) ) ;
#140 = EDGE_LOOP ( 'NONE', ( #297, #44, #261, #289 ) ) ;
#141 = ORIENTED_EDGE ( 'NONE', *, *, #259, .F. ) ;
#142 = EDGE_CURVE ( 'NONE', #83, #254, #241, .T. ) ;
#143 =( LENGTH_UNIT ( ) NAMED_UNIT ( * ) SI_UNIT ( $, .METRE. ) );
#144 = PRODUCT ( 'Micro_KC-125-190-045', 'Micro_KC-125-190-045', '', ( #354 ) ) ;
#145 = LENGTH_MEASURE_WITH_UNIT ( LENGTH_MEASURE( 0.02539999999999999897 ), #143 );
#146 = AXIS2_PLACEMENT_3D ( 'NONE', #152, #42, #180 ) ;
#147 = ADVANCED_FACE ( 'NONE', ( #123 ), #227, .T. ) ;
#148 = FACE_OUTER_BOUND ( 'NONE', #49, .T. ) ;
#149 = CARTESIAN_POINT ( 'NONE',  ( -0.06250000000000000000, 0.0000000000000000000, 0.2214999999999998359 ) ) ;
#150 = CYLINDRICAL_SURFACE ( 'NONE', #18, 0.03100000000000000672 ) ;
#151 = CARTESIAN_POINT ( 'NONE',  ( 0.0000000000000000000, 0.0000000000000000000, 0.1899999999999999745 ) ) ;
#152 = CARTESIAN_POINT ( 'NONE',  ( 0.0000000000000000000, 0.0000000000000000000, 1.500000000000000222 ) ) ;
#153 = AXIS2_PLACEMENT_3D ( 'NONE', #351, #32, #7 ) ;
#154 = CONICAL_SURFACE ( 'NONE', #33, 0.03100000000000001713, 0.7853981633974502774 ) ;
#155 = EDGE_CURVE ( 'NONE', #89, #159, #162, .T. ) ;
#156 = DIRECTION ( 'NONE',  ( 0.0000000000000000000, 0.0000000000000000000, 1.000000000000000000 ) ) ;
#157 = PRODUCT_DEFINITION ( 'UNKNOWN', '', #202, #205 ) ;
#158 = DIRECTION ( 'NONE',  ( -0.0000000000000000000, -0.0000000000000000000, -1.000000000000000000 ) ) ;
#159 = VERTEX_POINT ( 'NONE', #333 ) ;
#160 = CARTESIAN_POINT ( 'NONE',  ( 0.0000000000000000000, 0.0000000000000000000, 0.04499999999999999833 ) ) ;
#161 = ORIENTED_EDGE ( 'NONE', *, *, #371, .T. ) ;
#162 = CIRCLE ( 'NONE', #362, 0.04750000000000064587 ) ;
#163 =( LENGTH_UNIT ( ) NAMED_UNIT ( * ) SI_UNIT ( $, .METRE. ) );
#164 = VERTEX_POINT ( 'NONE', #40 ) ;
#165 = DIRECTION ( 'NONE',  ( -1.000000000000000000, 0.0000000000000000000, 0.0000000000000000000 ) ) ;
#166 = ORIENTED_EDGE ( 'NONE', *, *, #79, .T. ) ;
#167 = CARTESIAN_POINT ( 'NONE',  ( 0.06250000000000000000, 7.654042494670956004E-18, 0.0000000000000000000 ) ) ;
#168 = ORIENTED_EDGE ( 'NONE', *, *, #272, .F. ) ;
#169 = DIMENSIONAL_EXPONENTS ( 1.000000000000000000, 0.0000000000000000000, 0.0000000000000000000, 0.0000000000000000000, 0.0000000000000000000, 0.0000000000000000000, 0.0000000000000000000 ) ;
#170 = DIRECTION ( 'NONE',  ( -1.000000000000000000, 0.0000000000000000000, 0.0000000000000000000 ) ) ;
#171 =( CONVERSION_BASED_UNIT ( 'INCH', #224 ) LENGTH_UNIT ( ) NAMED_UNIT ( #374 ) );
#172 = PLANE ( 'NONE',  #225 ) ;
#173 = AXIS2_PLACEMENT_3D ( 'NONE', #4, #55, #235 ) ;
#174 = AXIS2_PLACEMENT_3D ( 'NONE', #242, #197, #170 ) ;
#175 = ORIENTED_EDGE ( 'NONE', *, *, #155, .F. ) ;
#176 = DIRECTION ( 'NONE',  ( -0.0000000000000000000, -0.0000000000000000000, -1.000000000000000000 ) ) ;
#177 = DIRECTION ( 'NONE',  ( 1.000000000000000000, 0.0000000000000000000, 0.0000000000000000000 ) ) ;
#178 = EDGE_CURVE ( 'NONE', #258, #34, #352, .T. ) ;
#179 = VECTOR ( 'NONE', #186, 39.37007874015748143 ) ;
#180 = DIRECTION ( 'NONE',  ( -1.000000000000000000, 0.0000000000000000000, 0.0000000000000000000 ) ) ;
#181 = AXIS2_PLACEMENT_3D ( 'NONE', #204, #326, #298 ) ;
#182 = CARTESIAN_POINT ( 'NONE',  ( 0.0000000000000000000, 0.0000000000000000000, 0.2214999999999998359 ) ) ;
#183 = CARTESIAN_POINT ( 'NONE',  ( 0.03100000000000000325, 3.796405077356795010E-18, 0.04499999999999999833 ) ) ;
#184 = EDGE_CURVE ( 'NONE', #193, #28, #356, .T. ) ;
#185 = VECTOR ( 'NONE', #332, 39.37007874015748143 ) ;
#186 = DIRECTION ( 'NONE',  ( -0.7071067811865456854, 0.0000000000000000000, -0.7071067811865493491 ) ) ;
#187 = ORIENTED_EDGE ( 'NONE', *, *, #217, .F. ) ;
#188 = DIRECTION ( 'NONE',  ( 0.0000000000000000000, 0.0000000000000000000, -1.000000000000000000 ) ) ;
#189 = ORIENTED_EDGE ( 'NONE', *, *, #30, .F. ) ;
#190 = CARTESIAN_POINT ( 'NONE',  ( 0.0000000000000000000, 0.0000000000000000000, 1.485000000000000764 ) ) ;
#191 = VERTEX_POINT ( 'NONE', #149 ) ;
#192 = LINE ( 'NONE', #53, #67 ) ;
#193 = VERTEX_POINT ( 'NONE', #300 ) ;
#194 = CARTESIAN_POINT ( 'NONE',  ( 0.06250000000000000000, 7.654042494670956004E-18, 1.500000000000000222 ) ) ;
#195 = ORIENTED_EDGE ( 'NONE', *, *, #359, .T. ) ;
#196 = EDGE_CURVE ( 'NONE', #230, #191, #296, .T. ) ;
#197 = DIRECTION ( 'NONE',  ( -0.0000000000000000000, -0.0000000000000000000, -1.000000000000000000 ) ) ;
#198 =( GEOMETRIC_REPRESENTATION_CONTEXT ( 3 ) GLOBAL_UNCERTAINTY_ASSIGNED_CONTEXT ( ( #118 ) ) GLOBAL_UNIT_ASSIGNED_CONTEXT ( ( #291, #57, #321 ) ) REPRESENTATION_CONTEXT ( 'NONE', 'WORKASPACE' ) );
#199 = PRODUCT_RELATED_PRODUCT_CATEGORY ( 'part', '', ( #144 ) ) ;
#200 = AXIS2_PLACEMENT_3D ( 'NONE', #97, #244, #177 ) ;
#201 = SURFACE_STYLE_FILL_AREA ( #8 ) ;
#202 = PRODUCT_DEFINITION_FORMATION_WITH_SPECIFIED_SOURCE ( 'ANY', '', #144, .NOT_KNOWN. ) ;
#203 = ADVANCED_FACE ( 'NONE', ( #270 ), #95, .T. ) ;
#204 = CARTESIAN_POINT ( 'NONE',  ( 0.0000000000000000000, 0.0000000000000000000, 0.0000000000000000000 ) ) ;
#205 = PRODUCT_DEFINITION_CONTEXT ( 'detailed design', #35, 'design' ) ;
#206 = CONICAL_SURFACE ( 'NONE', #93, 0.04750000000000064587, 0.7853981633974457255 ) ;
#207 = CARTESIAN_POINT ( 'NONE',  ( 0.06250000000000000000, 7.654042494670956004E-18, 1.500000000000000222 ) ) ;
#208 = CARTESIAN_POINT ( 'NONE',  ( 0.0000000000000000000, 0.0000000000000000000, 1.500000000000000222 ) ) ;
#209 = ADVANCED_FACE ( 'NONE', ( #250 ), #150, .T. ) ;
#210 = DIRECTION ( 'NONE',  ( -1.000000000000000000, 0.0000000000000000000, 0.0000000000000000000 ) ) ;
#211 = AXIS2_PLACEMENT_3D ( 'NONE', #208, #302, #66 ) ;
#212 = DIRECTION ( 'NONE',  ( 0.0000000000000000000, 0.0000000000000000000, 1.000000000000000000 ) ) ;
#213 = ADVANCED_FACE ( 'NONE', ( #68 ), #154, .T. ) ;
#214 = DIRECTION ( 'NONE',  ( -0.0000000000000000000, -0.0000000000000000000, -1.000000000000000000 ) ) ;
#215 = ORIENTED_EDGE ( 'NONE', *, *, #30, .T. ) ;
#216 = DIRECTION ( 'NONE',  ( 1.000000000000000000, 0.0000000000000000000, 0.0000000000000000000 ) ) ;
#217 = EDGE_CURVE ( 'NONE', #34, #378, #274, .T. ) ;
#218 = CIRCLE ( 'NONE', #45, 0.06250000000000000000 ) ;
#219 = DIRECTION ( 'NONE',  ( -1.000000000000000000, 0.0000000000000000000, 0.0000000000000000000 ) ) ;
#220 = PLANE ( 'NONE',  #307 ) ;
#221 = ORIENTED_EDGE ( 'NONE', *, *, #341, .T. ) ;
#222 = CARTESIAN_POINT ( 'NONE',  ( -0.03100000000000000325, 0.0000000000000000000, 0.04499999999999999833 ) ) ;
#223 = EDGE_LOOP ( 'NONE', ( #348, #90, #318, #229 ) ) ;
#224 = LENGTH_MEASURE_WITH_UNIT ( LENGTH_MEASURE( 0.02539999999999999897 ), #163 );
#225 = AXIS2_PLACEMENT_3D ( 'NONE', #325, #294, #267 ) ;
#226 = ORIENTED_EDGE ( 'NONE', *, *, #114, .T. ) ;
#227 = CONICAL_SURFACE ( 'NONE', #77, 0.03100000000000001713, 0.7853981633974502774 ) ;
#228 = DIRECTION ( 'NONE',  ( -0.0000000000000000000, -0.0000000000000000000, -1.000000000000000000 ) ) ;
#229 = ORIENTED_EDGE ( 'NONE', *, *, #341, .F. ) ;
#230 = VERTEX_POINT ( 'NONE', #101 ) ;
#231 = SURFACE_SIDE_STYLE ('',( #115 ) ) ;
#232 = CYLINDRICAL_SURFACE ( 'NONE', #276, 0.06250000000000000000 ) ;
#233 = AXIS2_PLACEMENT_3D ( 'NONE', #70, #156, #39 ) ;
#234 = APPLICATION_PROTOCOL_DEFINITION ( 'draft international standard', 'automotive_design', 1998, #84 ) ;
#235 = DIRECTION ( 'NONE',  ( -1.000000000000000000, 0.0000000000000000000, 0.0000000000000000000 ) ) ;
#236 = SURFACE_STYLE_USAGE ( .BOTH. , #231 ) ;
#237 = LINE ( 'NONE', #327, #252 ) ;
#238 = STYLED_ITEM ( 'NONE', ( #6 ), #338 ) ;
#239 =( NAMED_UNIT ( * ) SI_UNIT ( $, .STERADIAN. ) SOLID_ANGLE_UNIT ( ) );
#240 = SURFACE_STYLE_USAGE ( .BOTH. , #121 ) ;
#241 = CIRCLE ( 'NONE', #233, 0.06250000000000000000 ) ;
#242 = CARTESIAN_POINT ( 'NONE',  ( 0.0000000000000000000, 0.0000000000000000000, 0.0000000000000000000 ) ) ;
#243 = EDGE_CURVE ( 'NONE', #111, #378, #128, .T. ) ;
#244 = DIRECTION ( 'NONE',  ( 0.0000000000000000000, 0.0000000000000000000, -1.000000000000000000 ) ) ;
#245 = EDGE_LOOP ( 'NONE', ( #284, #189, #75, #285 ) ) ;
#246 = DIRECTION ( 'NONE',  ( -0.0000000000000000000, -0.0000000000000000000, -1.000000000000000000 ) ) ;
#247 = EDGE_CURVE ( 'NONE', #89, #193, #43, .T. ) ;
#248 = CIRCLE ( 'NONE', #48, 0.03100000000000001713 ) ;
#249 = CARTESIAN_POINT ( 'NONE',  ( 0.0000000000000000000, 0.0000000000000000000, 1.500000000000000222 ) ) ;
#250 = FACE_OUTER_BOUND ( 'NONE', #342, .T. ) ;
#251 = DIRECTION ( 'NONE',  ( -0.0000000000000000000, -0.0000000000000000000, -1.000000000000000000 ) ) ;
#252 = VECTOR ( 'NONE', #355, 39.37007874015748143 ) ;
#253 = AXIS2_PLACEMENT_3D ( 'NONE', #312, #102, #46 ) ;
#254 = VERTEX_POINT ( 'NONE', #167 ) ;
#255 = DIRECTION ( 'NONE',  ( 1.000000000000000000, 0.0000000000000000000, -0.0000000000000000000 ) ) ;
#256 = ORIENTED_EDGE ( 'NONE', *, *, #304, .F. ) ;
#257 = CARTESIAN_POINT ( 'NONE',  ( 0.06250000000000000000, 0.0000000000000000000, 0.04499999999999999833 ) ) ;
#258 = VERTEX_POINT ( 'NONE', #104 ) ;
#259 = EDGE_CURVE ( 'NONE', #191, #230, #277, .T. ) ;
#260 = DIRECTION ( 'NONE',  ( 0.7071067811865456854, 8.659560562354911904E-17, -0.7071067811865493491 ) ) ;
#261 = ORIENTED_EDGE ( 'NONE', *, *, #272, .T. ) ;
#262 = VECTOR ( 'NONE', #260, 39.37007874015748143 ) ;
#263 = ORIENTED_EDGE ( 'NONE', *, *, #184, .T. ) ;
#264 = CARTESIAN_POINT ( 'NONE',  ( 0.0000000000000000000, 0.0000000000000000000, 1.500000000000000222 ) ) ;
#265 = CIRCLE ( 'NONE', #153, 0.04750000000000064587 ) ;
#266 = AXIS2_PLACEMENT_3D ( 'NONE', #182, #37, #358 ) ;
#267 = DIRECTION ( 'NONE',  ( 1.000000000000000000, 0.0000000000000000000, -0.0000000000000000000 ) ) ;
#268 = EDGE_CURVE ( 'NONE', #164, #254, #21, .T. ) ;
#269 = FACE_OUTER_BOUND ( 'NONE', #20, .T. ) ;
#270 = FACE_OUTER_BOUND ( 'NONE', #287, .T. ) ;
#271 = CARTESIAN_POINT ( 'NONE',  ( 0.0000000000000000000, 0.0000000000000000000, 0.0000000000000000000 ) ) ;
#272 = EDGE_CURVE ( 'NONE', #61, #83, #192, .T. ) ;
#273 = CIRCLE ( 'NONE', #106, 0.03100000000000000325 ) ;
#274 = LINE ( 'NONE', #12, #328 ) ;
#275 = UNCERTAINTY_MEASURE_WITH_UNIT (LENGTH_MEASURE( 1.000000000000000082E-05 ), #85, 'distance_accuracy_value', 'NONE');
#276 = AXIS2_PLACEMENT_3D ( 'NONE', #264, #117, #3 ) ;
#277 = CIRCLE ( 'NONE', #99, 0.06250000000000000000 ) ;
#278 = CARTESIAN_POINT ( 'NONE',  ( -0.06250000000000000000, 0.0000000000000000000, 0.0000000000000000000 ) ) ;
#279 = DIRECTION ( 'NONE',  ( 1.000000000000000000, 0.0000000000000000000, 0.0000000000000000000 ) ) ;
#280 = LINE ( 'NONE', #339, #179 ) ;
#281 = EDGE_LOOP ( 'NONE', ( #47, #340, #141, #320 ) ) ;
#282 = DIRECTION ( 'NONE',  ( -0.0000000000000000000, -0.0000000000000000000, -1.000000000000000000 ) ) ;
#283 = CIRCLE ( 'NONE', #116, 0.06250000000000000000 ) ;
#284 = ORIENTED_EDGE ( 'NONE', *, *, #247, .F. ) ;
#285 = ORIENTED_EDGE ( 'NONE', *, *, #184, .F. ) ;
#286 = DIRECTION ( 'NONE',  ( -1.000000000000000000, 0.0000000000000000000, 0.0000000000000000000 ) ) ;
#287 = EDGE_LOOP ( 'NONE', ( #161, #311, #195, #168 ) ) ;
#288 = FACE_OUTER_BOUND ( 'NONE', #330, .T. ) ;
#289 = ORIENTED_EDGE ( 'NONE', *, *, #142, .T. ) ;
#290 = PRESENTATION_STYLE_ASSIGNMENT (( #240 ) ) ;
#291 =( CONVERSION_BASED_UNIT ( 'INCH', #145 ) LENGTH_UNIT ( ) NAMED_UNIT ( #169 ) );
#292 = DIMENSIONAL_EXPONENTS ( 1.000000000000000000, 0.0000000000000000000, 0.0000000000000000000, 0.0000000000000000000, 0.0000000000000000000, 0.0000000000000000000, 0.0000000000000000000 ) ;
#293 =( GEOMETRIC_REPRESENTATION_CONTEXT ( 3 ) GLOBAL_UNCERTAINTY_ASSIGNED_CONTEXT ( ( #11 ) ) GLOBAL_UNIT_ASSIGNED_CONTEXT ( ( #171, #59, #239 ) ) REPRESENTATION_CONTEXT ( 'NONE', 'WORKASPACE' ) );
#294 = DIRECTION ( 'NONE',  ( 0.0000000000000000000, 0.0000000000000000000, 1.000000000000000000 ) ) ;
#295 = MECHANICAL_DESIGN_GEOMETRIC_PRESENTATION_REPRESENTATION (  '', ( #376 ), #198 ) ;
#296 = CIRCLE ( 'NONE', #266, 0.06250000000000000000 ) ;
#297 = ORIENTED_EDGE ( 'NONE', *, *, #268, .F. ) ;
#298 = DIRECTION ( 'NONE',  ( 1.000000000000000000, 0.0000000000000000000, 0.0000000000000000000 ) ) ;
#299 = COLOUR_RGB ( '',0.7921568627450980005, 0.8196078431372548767, 0.9333333333333333481 ) ;
#300 = CARTESIAN_POINT ( 'NONE',  ( 0.06250000000000000000, 7.654042494670956004E-18, 1.485000000000000764 ) ) ;
#301 = AXIS2_PLACEMENT_3D ( 'NONE', #10, #130, #71 ) ;
#302 = DIRECTION ( 'NONE',  ( 0.0000000000000000000, 0.0000000000000000000, -1.000000000000000000 ) ) ;
#303 = DIRECTION ( 'NONE',  ( -0.0000000000000000000, -0.0000000000000000000, -1.000000000000000000 ) ) ;
#304 = EDGE_CURVE ( 'NONE', #159, #28, #280, .T. ) ;
#305 = CARTESIAN_POINT ( 'NONE',  ( 0.0000000000000000000, 0.0000000000000000000, 0.1899999999999999745 ) ) ;
#306 = CIRCLE ( 'NONE', #173, 0.06250000000000000000 ) ;
#307 = AXIS2_PLACEMENT_3D ( 'NONE', #257, #343, #255 ) ;
#308 = FACE_OUTER_BOUND ( 'NONE', #245, .T. ) ;
#309 = ADVANCED_FACE ( 'NONE', ( #288 ), #206, .T. ) ;
#310 = DIRECTION ( 'NONE',  ( -1.000000000000000000, 0.0000000000000000000, 0.0000000000000000000 ) ) ;
#311 = ORIENTED_EDGE ( 'NONE', *, *, #268, .T. ) ;
#312 = CARTESIAN_POINT ( 'NONE',  ( 0.0000000000000000000, 0.0000000000000000000, 1.500000000000000222 ) ) ;
#313 = ORIENTED_EDGE ( 'NONE', *, *, #120, .F. ) ;
#314 = CARTESIAN_POINT ( 'NONE',  ( 0.03100000000000001713, 0.0000000000000000000, 0.1899999999999999745 ) ) ;
#315 = ADVANCED_FACE ( 'NONE', ( #317, #337 ), #220, .T. ) ;
#316 = ORIENTED_EDGE ( 'NONE', *, *, #217, .T. ) ;
#317 = FACE_BOUND ( 'NONE', #2, .T. ) ;
#318 = ORIENTED_EDGE ( 'NONE', *, *, #259, .T. ) ;
#319 = DIRECTION ( 'NONE',  ( -0.0000000000000000000, -0.0000000000000000000, -1.000000000000000000 ) ) ;
#320 = ORIENTED_EDGE ( 'NONE', *, *, #114, .F. ) ;
#321 =( NAMED_UNIT ( * ) SI_UNIT ( $, .STERADIAN. ) SOLID_ANGLE_UNIT ( ) );
#322 = PRESENTATION_LAYER_ASSIGNMENT (  '', '', ( #376 ) ) ;
#323 = EDGE_CURVE ( 'NONE', #28, #193, #283, .T. ) ;
#324 = FILL_AREA_STYLE ('',( #91 ) ) ;
#325 = CARTESIAN_POINT ( 'NONE',  ( 0.0000000000000000000, 0.0000000000000000000, 0.0000000000000000000 ) ) ;
#326 = DIRECTION ( 'NONE',  ( 0.0000000000000000000, 0.0000000000000000000, 1.000000000000000000 ) ) ;
#327 = CARTESIAN_POINT ( 'NONE',  ( -0.03100000000000001713, 3.796405077356796551E-18, 0.1899999999999999745 ) ) ;
#328 = VECTOR ( 'NONE', #127, 39.37007874015748143 ) ;
#329 =( LENGTH_UNIT ( ) NAMED_UNIT ( * ) SI_UNIT ( $, .METRE. ) );
#330 = EDGE_LOOP ( 'NONE', ( #175, #138, #22, #256 ) ) ;
#331 = CARTESIAN_POINT ( 'NONE',  ( -0.06250000000000000000, 0.0000000000000000000, 1.500000000000000222 ) ) ;
#332 = DIRECTION ( 'NONE',  ( -0.0000000000000000000, -0.0000000000000000000, -1.000000000000000000 ) ) ;
#333 = CARTESIAN_POINT ( 'NONE',  ( -0.04750000000000064587, 0.0000000000000000000, 1.500000000000000222 ) ) ;
#334 = LINE ( 'NONE', #100, #5 ) ;
#335 = CARTESIAN_POINT ( 'NONE',  ( 0.04750000000000064587, 6.735557395310482421E-18, 1.500000000000000222 ) ) ;
#336 = ADVANCED_FACE ( 'NONE', ( #375 ), #16, .T. ) ;
#337 = FACE_OUTER_BOUND ( 'NONE', #24, .T. ) ;
#338 = ADVANCED_BREP_SHAPE_REPRESENTATION ( 'Micro_KC-125-190-045', ( #31, #181 ), #293 ) ;
#339 = CARTESIAN_POINT ( 'NONE',  ( -0.04750000000000064587, 0.0000000000000000000, 1.500000000000000222 ) ) ;
#340 = ORIENTED_EDGE ( 'NONE', *, *, #52, .T. ) ;
#341 = EDGE_CURVE ( 'NONE', #258, #230, #368, .T. ) ;
#342 = EDGE_LOOP ( 'NONE', ( #166, #51, #76, #187 ) ) ;
#343 = DIRECTION ( 'NONE',  ( 0.0000000000000000000, 0.0000000000000000000, 1.000000000000000000 ) ) ;
#344 = CONICAL_SURFACE ( 'NONE', #211, 0.04750000000000064587, 0.7853981633974457255 ) ;
#345 = ORIENTED_EDGE ( 'NONE', *, *, #196, .F. ) ;
#346 = DIRECTION ( 'NONE',  ( 0.7071067811865489050, 0.0000000000000000000, 0.7071067811865461294 ) ) ;
#347 = ORIENTED_EDGE ( 'NONE', *, *, #371, .F. ) ;
#348 = ORIENTED_EDGE ( 'NONE', *, *, #79, .F. ) ;
#349 = ADVANCED_FACE ( 'NONE', ( #372 ), #107, .T. ) ;
#350 = LENGTH_MEASURE_WITH_UNIT ( LENGTH_MEASURE( 0.02539999999999999897 ), #329 );
#351 = CARTESIAN_POINT ( 'NONE',  ( 0.0000000000000000000, 0.0000000000000000000, 1.500000000000000222 ) ) ;
#352 = CIRCLE ( 'NONE', #301, 0.03100000000000001713 ) ;
#353 = FILL_AREA_STYLE_COLOUR ( '', #98 ) ;
#354 = PRODUCT_CONTEXT ( 'NONE', #84, 'mechanical' ) ;
#355 = DIRECTION ( 'NONE',  ( -0.7071067811865489050, 8.659560562354950115E-17, 0.7071067811865461294 ) ) ;
#356 = CIRCLE ( 'NONE', #200, 0.06250000000000000000 ) ;
#357 = CYLINDRICAL_SURFACE ( 'NONE', #146, 0.06250000000000000000 ) ;
#358 = DIRECTION ( 'NONE',  ( 1.000000000000000000, 0.0000000000000000000, 0.0000000000000000000 ) ) ;
#359 = EDGE_CURVE ( 'NONE', #254, #83, #86, .T. ) ;
#360 = DIRECTION ( 'NONE',  ( -1.000000000000000000, 0.0000000000000000000, 0.0000000000000000000 ) ) ;
#361 = CLOSED_SHELL ( 'NONE', ( #203, #209, #147, #309, #1, #336, #349, #136, #213, #64, #315, #13, #73 ) ) ;
#362 = AXIS2_PLACEMENT_3D ( 'NONE', #65, #14, #15 ) ;
#363 = LINE ( 'NONE', #331, #185 ) ;
#364 = EDGE_CURVE ( 'NONE', #378, #111, #273, .T. ) ;
#365 = DIRECTION ( 'NONE',  ( 0.0000000000000000000, 0.0000000000000000000, 1.000000000000000000 ) ) ;
#366 = DIRECTION ( 'NONE',  ( -0.0000000000000000000, -0.0000000000000000000, -1.000000000000000000 ) ) ;
#367 = PRODUCT_DEFINITION_SHAPE ( 'NONE', 'NONE',  #157 ) ;
#368 = LINE ( 'NONE', #314, #27 ) ;
#369 = EDGE_LOOP ( 'NONE', ( #215, #124 ) ) ;
#370 = DIRECTION ( 'NONE',  ( -1.000000000000000000, 0.0000000000000000000, 0.0000000000000000000 ) ) ;
#371 = EDGE_CURVE ( 'NONE', #61, #164, #218, .T. ) ;
#372 = FACE_OUTER_BOUND ( 'NONE', #369, .T. ) ;
#373 = ORIENTED_EDGE ( 'NONE', *, *, #196, .T. ) ;
#374 = DIMENSIONAL_EXPONENTS ( 1.000000000000000000, 0.0000000000000000000, 0.0000000000000000000, 0.0000000000000000000, 0.0000000000000000000, 0.0000000000000000000, 0.0000000000000000000 ) ;
#375 = FACE_OUTER_BOUND ( 'NONE', #135, .T. ) ;
#376 = STYLED_ITEM ( 'NONE', ( #290 ), #31 ) ;
#377 = AXIS2_PLACEMENT_3D ( 'NONE', #249, #125, #129 ) ;
#378 = VERTEX_POINT ( 'NONE', #222 ) ;
#379 = APPLICATION_PROTOCOL_DEFINITION ( 'draft international standard', 'automotive_design', 1998, #35 ) ;
ENDSEC;
END-ISO-10303-21;
