ISO-10303-21;
HEADER;
FILE_DESCRIPTION (( 'STEP AP214' ),
    '1' );
FILE_NAME ('03497.STEP',
    '2023-06-22T15:23:37',
    ( '' ),
    ( '' ),
    'SwSTEP 2.0',
    'SolidWorks 2023',
    '' );
FILE_SCHEMA (( 'AUTOMOTIVE_DESIGN' ));
ENDSEC;

DATA;
#1 = SURFACE_STYLE_FILL_AREA ( #198 ) ;
#2 = DIRECTION ( 'NONE',  ( -0.000000000000000000, -1.000000000000000000, -0.000000000000000000 ) ) ;
#3 = CLOSED_SHELL ( 'NONE', ( #212, #122, #157, #65 ) ) ;
#4 = LINE ( 'NONE', #99, #38 ) ;
#5 = CARTESIAN_POINT ( 'NONE',  ( -0.2500000000000002220, 4.000000000000000000, 0.000000000000000000 ) ) ;
#6 = CARTESIAN_POINT ( 'NONE',  ( 0.000000000000000000, 2.000000000000000000, 0.000000000000000000 ) ) ;
#7 = UNCERTAINTY_MEASURE_WITH_UNIT (LENGTH_MEASURE( 1.000000000000000082E-05 ), #187, 'distance_accuracy_value', 'NONE');
#8 = CIRCLE ( 'NONE', #43, 0.2500000000000000000 ) ;
#9 = DIRECTION ( 'NONE',  ( -1.000000000000000000, 0.000000000000000000, 0.000000000000000000 ) ) ;
#10 = ORIENTED_EDGE ( 'NONE', *, *, #105, .T. ) ;
#11 = AXIS2_PLACEMENT_3D ( 'NONE', #194, #62, #220 ) ;
#12 = EDGE_LOOP ( 'NONE', ( #10, #36 ) ) ;
#13 = FILL_AREA_STYLE_COLOUR ( '', #108 ) ;
#14 = DIMENSIONAL_EXPONENTS ( 1.000000000000000000, 0.000000000000000000, 0.000000000000000000, 0.000000000000000000, 0.000000000000000000, 0.000000000000000000, 0.000000000000000000 ) ;
#15 = VERTEX_POINT ( 'NONE', #299 ) ;
#16 = LENGTH_MEASURE_WITH_UNIT ( LENGTH_MEASURE( 0.02539999999999999897 ), #234 );
#17 = EDGE_LOOP ( 'NONE', ( #289, #104, #107, #265 ) ) ;
#18 = DIRECTION ( 'NONE',  ( -1.000000000000000000, 0.000000000000000000, 0.000000000000000000 ) ) ;
#19 = DIRECTION ( 'NONE',  ( -0.000000000000000000, -1.000000000000000000, -0.000000000000000000 ) ) ;
#20 = COLOUR_RGB ( '',1.000000000000000000, 0.000000000000000000, 0.000000000000000000 ) ;
#21 =( GEOMETRIC_REPRESENTATION_CONTEXT ( 3 ) GLOBAL_UNCERTAINTY_ASSIGNED_CONTEXT ( ( #164 ) ) GLOBAL_UNIT_ASSIGNED_CONTEXT ( ( #241, #84, #143 ) ) REPRESENTATION_CONTEXT ( 'NONE', 'WORKASPACE' ) );
#22 =( NAMED_UNIT ( * ) PLANE_ANGLE_UNIT ( ) SI_UNIT ( $, .RADIAN. ) );
#23 = DIRECTION ( 'NONE',  ( 0.000000000000000000, 0.000000000000000000, -1.000000000000000000 ) ) ;
#24 =( NAMED_UNIT ( * ) SI_UNIT ( $, .STERADIAN. ) SOLID_ANGLE_UNIT ( ) );
#25 = DIRECTION ( 'NONE',  ( 0.000000000000000000, -1.000000000000000000, -0.000000000000000000 ) ) ;
#26 =( NAMED_UNIT ( * ) PLANE_ANGLE_UNIT ( ) SI_UNIT ( $, .RADIAN. ) );
#27 = SURFACE_STYLE_USAGE ( .BOTH. , #55 ) ;
#28 =( NAMED_UNIT ( * ) PLANE_ANGLE_UNIT ( ) SI_UNIT ( $, .RADIAN. ) );
#29 = CARTESIAN_POINT ( 'NONE',  ( -1.224646799147352714E-16, 4.000000000000000000, 0.000000000000000000 ) ) ;
#30 = CARTESIAN_POINT ( 'NONE',  ( -1.224646799147352714E-16, 4.000000000000000000, 0.000000000000000000 ) ) ;
#31 = AXIS2_PLACEMENT_3D ( 'NONE', #156, #255, #35 ) ;
#32 = CARTESIAN_POINT ( 'NONE',  ( 0.000000000000000000, 0.000000000000000000, 0.000000000000000000 ) ) ;
#33 = ORIENTED_EDGE ( 'NONE', *, *, #235, .F. ) ;
#34 = DIRECTION ( 'NONE',  ( -0.000000000000000000, -1.000000000000000000, -0.000000000000000000 ) ) ;
#35 = DIRECTION ( 'NONE',  ( -1.000000000000000000, 0.000000000000000000, 0.000000000000000000 ) ) ;
#36 = ORIENTED_EDGE ( 'NONE', *, *, #75, .T. ) ;
#37 = VERTEX_POINT ( 'NONE', #92 ) ;
#38 = VECTOR ( 'NONE', #190, 39.37007874015748143 ) ;
#39 = CIRCLE ( 'NONE', #112, 0.2500000000000000000 ) ;
#40 = ORIENTED_EDGE ( 'NONE', *, *, #134, .F. ) ;
#41 = ORIENTED_EDGE ( 'NONE', *, *, #221, .T. ) ;
#42 = PRESENTATION_STYLE_ASSIGNMENT (( #48 ) ) ;
#43 = AXIS2_PLACEMENT_3D ( 'NONE', #148, #306, #23 ) ;
#44 = ORIENTED_EDGE ( 'NONE', *, *, #154, .T. ) ;
#45 = MANIFOLD_SOLID_BREP ( 'Revolve - Tool Body (Straight Shanked)', #3 ) ;
#46 = DIRECTION ( 'NONE',  ( 0.000000000000000000, 1.000000000000000000, 0.000000000000000000 ) ) ;
#47 = CYLINDRICAL_SURFACE ( 'NONE', #175, 0.2500000000000000000 ) ;
#48 = SURFACE_STYLE_USAGE ( .BOTH. , #247 ) ;
#49 = CARTESIAN_POINT ( 'NONE',  ( 0.000000000000000000, 0.000000000000000000, 0.000000000000000000 ) ) ;
#50 = CLOSED_SHELL ( 'NONE', ( #189, #223, #132, #98 ) ) ;
#51 = CARTESIAN_POINT ( 'NONE',  ( 0.000000000000000000, 0.000000000000000000, 0.000000000000000000 ) ) ;
#52 = FACE_OUTER_BOUND ( 'NONE', #226, .T. ) ;
#53 =( NAMED_UNIT ( * ) SI_UNIT ( $, .STERADIAN. ) SOLID_ANGLE_UNIT ( ) );
#54 = EDGE_CURVE ( 'NONE', #230, #110, #209, .T. ) ;
#55 = SURFACE_SIDE_STYLE ('',( #1 ) ) ;
#56 = COLOUR_RGB ( '',1.000000000000000000, 0.000000000000000000, 0.000000000000000000 ) ;
#57 = STYLED_ITEM ( 'NONE', ( #109 ), #45 ) ;
#58 = DIRECTION ( 'NONE',  ( -0.000000000000000000, -1.000000000000000000, -0.000000000000000000 ) ) ;
#59 = EDGE_CURVE ( 'NONE', #37, #15, #282, .T. ) ;
#60 = CARTESIAN_POINT ( 'NONE',  ( -0.2500000000000002776, 4.000000000000000000, 0.000000000000000000 ) ) ;
#61 = PRESENTATION_STYLE_ASSIGNMENT (( #27 ) ) ;
#62 = DIRECTION ( 'NONE',  ( -6.123233995736763571E-17, 1.000000000000000000, -0.000000000000000000 ) ) ;
#63 = ORIENTED_EDGE ( 'NONE', *, *, #54, .F. ) ;
#64 =( GEOMETRIC_REPRESENTATION_CONTEXT ( 3 ) GLOBAL_UNCERTAINTY_ASSIGNED_CONTEXT ( ( #117 ) ) GLOBAL_UNIT_ASSIGNED_CONTEXT ( ( #72, #217, #149 ) ) REPRESENTATION_CONTEXT ( 'NONE', 'WORKASPACE' ) );
#65 = ADVANCED_FACE ( 'NONE', ( #177 ), #88, .F. ) ;
#66 = DIMENSIONAL_EXPONENTS ( 1.000000000000000000, 0.000000000000000000, 0.000000000000000000, 0.000000000000000000, 0.000000000000000000, 0.000000000000000000, 0.000000000000000000 ) ;
#67 =( NAMED_UNIT ( * ) PLANE_ANGLE_UNIT ( ) SI_UNIT ( $, .RADIAN. ) );
#68 =( GEOMETRIC_REPRESENTATION_CONTEXT ( 3 ) GLOBAL_UNCERTAINTY_ASSIGNED_CONTEXT ( ( #147 ) ) GLOBAL_UNIT_ASSIGNED_CONTEXT ( ( #93, #22, #258 ) ) REPRESENTATION_CONTEXT ( 'NONE', 'WORKASPACE' ) );
#69 = CARTESIAN_POINT ( 'NONE',  ( 0.000000000000000000, 2.000000000000000000, 0.000000000000000000 ) ) ;
#70 = DIRECTION ( 'NONE',  ( 0.000000000000000000, 0.000000000000000000, -1.000000000000000000 ) ) ;
#71 = SURFACE_SIDE_STYLE ('',( #151 ) ) ;
#72 =( CONVERSION_BASED_UNIT ( 'INCH', #16 ) LENGTH_UNIT ( ) NAMED_UNIT ( #293 ) );
#73 = PRESENTATION_STYLE_ASSIGNMENT (( #91 ) ) ;
#74 =( CONVERSION_BASED_UNIT ( 'INCH', #276 ) LENGTH_UNIT ( ) NAMED_UNIT ( #153 ) );
#75 = EDGE_CURVE ( 'NONE', #199, #225, #8, .T. ) ;
#76 = LENGTH_MEASURE_WITH_UNIT ( LENGTH_MEASURE( 0.02539999999999999897 ), #309 );
#77 = PRESENTATION_STYLE_ASSIGNMENT (( #228 ) ) ;
#78 = AXIS2_PLACEMENT_3D ( 'NONE', #32, #284, #123 ) ;
#79 = CIRCLE ( 'NONE', #83, 0.2500000000000000000 ) ;
#80 = AXIS2_PLACEMENT_3D ( 'NONE', #213, #2, #188 ) ;
#81 =( LENGTH_UNIT ( ) NAMED_UNIT ( * ) SI_UNIT ( $, .METRE. ) );
#82 = AXIS2_PLACEMENT_3D ( 'NONE', #280, #25, #116 ) ;
#83 = AXIS2_PLACEMENT_3D ( 'NONE', #6, #34, #283 ) ;
#84 =( NAMED_UNIT ( * ) PLANE_ANGLE_UNIT ( ) SI_UNIT ( $, .RADIAN. ) );
#85 = ORIENTED_EDGE ( 'NONE', *, *, #59, .T. ) ;
#86 = DIRECTION ( 'NONE',  ( 6.123233995736763571E-17, -1.000000000000000000, 0.000000000000000000 ) ) ;
#87 = PRESENTATION_STYLE_ASSIGNMENT (( #204 ) ) ;
#88 = PLANE ( 'NONE',  #136 ) ;
#89 = COLOUR_RGB ( '',1.000000000000000000, 0.000000000000000000, 0.000000000000000000 ) ;
#90 = PLANE ( 'NONE',  #278 ) ;
#91 = SURFACE_STYLE_USAGE ( .BOTH. , #71 ) ;
#92 = CARTESIAN_POINT ( 'NONE',  ( 0.000000000000000000, 2.000000000000000000, -0.2500000000000000000 ) ) ;
#93 =( CONVERSION_BASED_UNIT ( 'INCH', #279 ) LENGTH_UNIT ( ) NAMED_UNIT ( #181 ) );
#94 = FILL_AREA_STYLE ('',( #267 ) ) ;
#95 = UNCERTAINTY_MEASURE_WITH_UNIT (LENGTH_MEASURE( 1.000000000000000082E-05 ), #74, 'distance_accuracy_value', 'NONE');
#96 = UNCERTAINTY_MEASURE_WITH_UNIT (LENGTH_MEASURE( 1.000000000000000082E-05 ), #260, 'distance_accuracy_value', 'NONE');
#97 = MECHANICAL_DESIGN_GEOMETRIC_PRESENTATION_REPRESENTATION (  '', ( #142 ), #68 ) ;
#98 = ADVANCED_FACE ( 'NONE', ( #183 ), #270, .T. ) ;
#99 = CARTESIAN_POINT ( 'NONE',  ( 0.2499999999999999167, 4.000000000000000000, 3.061616997868383634E-17 ) ) ;
#100 = UNCERTAINTY_MEASURE_WITH_UNIT (LENGTH_MEASURE( 1.000000000000000082E-05 ), #254, 'distance_accuracy_value', 'NONE');
#101 = LINE ( 'NONE', #5, #126 ) ;
#102 = FACE_OUTER_BOUND ( 'NONE', #146, .T. ) ;
#103 = EDGE_CURVE ( 'NONE', #110, #266, #4, .T. ) ;
#104 = ORIENTED_EDGE ( 'NONE', *, *, #292, .T. ) ;
#105 = EDGE_CURVE ( 'NONE', #225, #199, #269, .T. ) ;
#106 = AXIS2_PLACEMENT_3D ( 'NONE', #158, #257, #297 ) ;
#107 = ORIENTED_EDGE ( 'NONE', *, *, #182, .T. ) ;
#108 = COLOUR_RGB ( '',0.7921568627450980005, 0.8196078431372548767, 0.9333333333333333481 ) ;
#109 = PRESENTATION_STYLE_ASSIGNMENT (( #133 ) ) ;
#110 = VERTEX_POINT ( 'NONE', #286 ) ;
#111 = PRESENTATION_LAYER_ASSIGNMENT (  '', '', ( #142 ) ) ;
#112 = AXIS2_PLACEMENT_3D ( 'NONE', #120, #168, #264 ) ;
#113 = PRESENTATION_LAYER_ASSIGNMENT (  '', '', ( #57 ) ) ;
#114 = CIRCLE ( 'NONE', #31, 0.2500000000000001110 ) ;
#115 = SURFACE_SIDE_STYLE ('',( #210 ) ) ;
#116 = DIRECTION ( 'NONE',  ( 0.000000000000000000, 0.000000000000000000, -1.000000000000000000 ) ) ;
#117 = UNCERTAINTY_MEASURE_WITH_UNIT (LENGTH_MEASURE( 1.000000000000000082E-05 ), #72, 'distance_accuracy_value', 'NONE');
#118 = COLOUR_RGB ( '',0.7921568627450980005, 0.8196078431372548767, 0.9333333333333333481 ) ;
#119 = LENGTH_MEASURE_WITH_UNIT ( LENGTH_MEASURE( 0.02539999999999999897 ), #167 );
#120 = CARTESIAN_POINT ( 'NONE',  ( 1.516480271171051896E-32, 2.000000000000000000, 0.000000000000000000 ) ) ;
#121 = AXIS2_PLACEMENT_3D ( 'NONE', #30, #193, #9 ) ;
#122 = ADVANCED_FACE ( 'NONE', ( #231 ), #90, .F. ) ;
#123 = DIRECTION ( 'NONE',  ( 0.000000000000000000, 0.000000000000000000, -1.000000000000000000 ) ) ;
#124 = CARTESIAN_POINT ( 'NONE',  ( 0.2500000000000000555, 4.000000000000000000, 3.061616997868384251E-17 ) ) ;
#125 = ORIENTED_EDGE ( 'NONE', *, *, #305, .T. ) ;
#126 = VECTOR ( 'NONE', #216, 39.37007874015748143 ) ;
#127 = ORIENTED_EDGE ( 'NONE', *, *, #103, .T. ) ;
#128 = FILL_AREA_STYLE_COLOUR ( '', #20 ) ;
#129 = STYLED_ITEM ( 'NONE', ( #42 ), #98 ) ;
#130 =( GEOMETRIC_REPRESENTATION_CONTEXT ( 3 ) GLOBAL_UNCERTAINTY_ASSIGNED_CONTEXT ( ( #96 ) ) GLOBAL_UNIT_ASSIGNED_CONTEXT ( ( #260, #26, #159 ) ) REPRESENTATION_CONTEXT ( 'NONE', 'WORKASPACE' ) );
#131 = DIRECTION ( 'NONE',  ( 0.000000000000000000, -0.000000000000000000, 1.000000000000000000 ) ) ;
#132 = ADVANCED_FACE ( 'NONE', ( #184 ), #47, .T. ) ;
#133 = SURFACE_STYLE_USAGE ( .BOTH. , #115 ) ;
#134 = EDGE_CURVE ( 'NONE', #200, #266, #114, .T. ) ;
#135 = MANIFOLD_SOLID_BREP ( 'Revolve - Cutting Edge', #50 ) ;
#136 = AXIS2_PLACEMENT_3D ( 'NONE', #308, #86, #232 ) ;
#137 = ORIENTED_EDGE ( 'NONE', *, *, #154, .F. ) ;
#138 = DIMENSIONAL_EXPONENTS ( 1.000000000000000000, 0.000000000000000000, 0.000000000000000000, 0.000000000000000000, 0.000000000000000000, 0.000000000000000000, 0.000000000000000000 ) ;
#139 = FILL_AREA_STYLE_COLOUR ( '', #161 ) ;
#140 = MECHANICAL_DESIGN_GEOMETRIC_PRESENTATION_REPRESENTATION (  '', ( #145 ), #21 ) ;
#141 = CYLINDRICAL_SURFACE ( 'NONE', #186, 0.2500000000000000555 ) ;
#142 = STYLED_ITEM ( 'NONE', ( #73 ), #223 ) ;
#143 =( NAMED_UNIT ( * ) SI_UNIT ( $, .STERADIAN. ) SOLID_ANGLE_UNIT ( ) );
#144 = STYLED_ITEM ( 'NONE', ( #77 ), #132 ) ;
#145 = STYLED_ITEM ( 'NONE', ( #61 ), #189 ) ;
#146 = EDGE_LOOP ( 'NONE', ( #176, #127, #40, #246 ) ) ;
#147 = UNCERTAINTY_MEASURE_WITH_UNIT (LENGTH_MEASURE( 1.000000000000000082E-05 ), #93, 'distance_accuracy_value', 'NONE');
#148 = CARTESIAN_POINT ( 'NONE',  ( 0.000000000000000000, 0.000000000000000000, 0.000000000000000000 ) ) ;
#149 =( NAMED_UNIT ( * ) SI_UNIT ( $, .STERADIAN. ) SOLID_ANGLE_UNIT ( ) );
#150 = AXIS2_PLACEMENT_3D ( 'NONE', #69, #46, #131 ) ;
#151 = SURFACE_STYLE_FILL_AREA ( #160 ) ;
#152 = ORIENTED_EDGE ( 'NONE', *, *, #292, .F. ) ;
#153 = DIMENSIONAL_EXPONENTS ( 1.000000000000000000, 0.000000000000000000, 0.000000000000000000, 0.000000000000000000, 0.000000000000000000, 0.000000000000000000, 0.000000000000000000 ) ;
#154 = EDGE_CURVE ( 'NONE', #15, #199, #196, .T. ) ;
#155 =( NAMED_UNIT ( * ) SI_UNIT ( $, .STERADIAN. ) SOLID_ANGLE_UNIT ( ) );
#156 = CARTESIAN_POINT ( 'NONE',  ( -1.224646799147352714E-16, 4.000000000000000000, 0.000000000000000000 ) ) ;
#157 = ADVANCED_FACE ( 'NONE', ( #262 ), #141, .T. ) ;
#158 = CARTESIAN_POINT ( 'NONE',  ( 0.000000000000000000, 2.000000000000000000, 0.000000000000000000 ) ) ;
#159 =( NAMED_UNIT ( * ) SI_UNIT ( $, .STERADIAN. ) SOLID_ANGLE_UNIT ( ) );
#160 = FILL_AREA_STYLE ('',( #139 ) ) ;
#161 = COLOUR_RGB ( '',1.000000000000000000, 0.000000000000000000, 0.000000000000000000 ) ;
#162 =( NAMED_UNIT ( * ) PLANE_ANGLE_UNIT ( ) SI_UNIT ( $, .RADIAN. ) );
#163 = APPLICATION_CONTEXT ( 'automotive_design' ) ;
#164 = UNCERTAINTY_MEASURE_WITH_UNIT (LENGTH_MEASURE( 1.000000000000000082E-05 ), #241, 'distance_accuracy_value', 'NONE');
#165 = CARTESIAN_POINT ( 'NONE',  ( 3.061616997868383018E-17, 0.000000000000000000, 0.2500000000000000000 ) ) ;
#166 = VECTOR ( 'NONE', #240, 39.37007874015748143 ) ;
#167 =( LENGTH_UNIT ( ) NAMED_UNIT ( * ) SI_UNIT ( $, .METRE. ) );
#168 = DIRECTION ( 'NONE',  ( -6.123233995736763571E-17, 1.000000000000000000, -0.000000000000000000 ) ) ;
#169 = PRESENTATION_LAYER_ASSIGNMENT (  '', '', ( #145 ) ) ;
#170 = EDGE_LOOP ( 'NONE', ( #242, #41 ) ) ;
#171 = PRODUCT_DEFINITION_FORMATION_WITH_SPECIFIED_SOURCE ( 'ANY', '', #291, .NOT_KNOWN. ) ;
#172 = MECHANICAL_DESIGN_GEOMETRIC_PRESENTATION_REPRESENTATION (  '', ( #57 ), #288 ) ;
#173 = EDGE_LOOP ( 'NONE', ( #137, #125, #243, #179 ) ) ;
#174 = FILL_AREA_STYLE ('',( #13 ) ) ;
#175 = AXIS2_PLACEMENT_3D ( 'NONE', #49, #19, #70 ) ;
#176 = ORIENTED_EDGE ( 'NONE', *, *, #54, .T. ) ;
#177 = FACE_OUTER_BOUND ( 'NONE', #170, .T. ) ;
#178 = FILL_AREA_STYLE ('',( #128 ) ) ;
#179 = ORIENTED_EDGE ( 'NONE', *, *, #75, .F. ) ;
#180 = PRESENTATION_LAYER_ASSIGNMENT (  '', '', ( #144 ) ) ;
#181 = DIMENSIONAL_EXPONENTS ( 1.000000000000000000, 0.000000000000000000, 0.000000000000000000, 0.000000000000000000, 0.000000000000000000, 0.000000000000000000, 0.000000000000000000 ) ;
#182 = EDGE_CURVE ( 'NONE', #230, #200, #101, .T. ) ;
#183 = FACE_OUTER_BOUND ( 'NONE', #12, .T. ) ;
#184 = FACE_OUTER_BOUND ( 'NONE', #173, .T. ) ;
#185 =( LENGTH_UNIT ( ) NAMED_UNIT ( * ) SI_UNIT ( $, .METRE. ) );
#186 = AXIS2_PLACEMENT_3D ( 'NONE', #29, #237, #281 ) ;
#187 =( CONVERSION_BASED_UNIT ( 'INCH', #76 ) LENGTH_UNIT ( ) NAMED_UNIT ( #14 ) );
#188 = DIRECTION ( 'NONE',  ( 0.000000000000000000, 0.000000000000000000, -1.000000000000000000 ) ) ;
#189 = ADVANCED_FACE ( 'NONE', ( #202 ), #296, .T. ) ;
#190 = DIRECTION ( 'NONE',  ( -6.123233995736763571E-17, 1.000000000000000000, -0.000000000000000000 ) ) ;
#191 = PRESENTATION_LAYER_ASSIGNMENT (  '', '', ( #129 ) ) ;
#192 = AXIS2_PLACEMENT_3D ( 'NONE', #205, #248, #18 ) ;
#193 = DIRECTION ( 'NONE',  ( -6.123233995736763571E-17, 1.000000000000000000, -0.000000000000000000 ) ) ;
#194 = CARTESIAN_POINT ( 'NONE',  ( -1.224646799147352714E-16, 4.000000000000000000, 0.000000000000000000 ) ) ;
#195 = ORIENTED_EDGE ( 'NONE', *, *, #59, .F. ) ;
#196 = LINE ( 'NONE', #165, #285 ) ;
#197 = SURFACE_STYLE_FILL_AREA ( #174 ) ;
#198 = FILL_AREA_STYLE ('',( #249 ) ) ;
#199 = VERTEX_POINT ( 'NONE', #263 ) ;
#200 = VERTEX_POINT ( 'NONE', #60 ) ;
#201 = CIRCLE ( 'NONE', #11, 0.2500000000000001110 ) ;
#202 = FACE_OUTER_BOUND ( 'NONE', #224, .T. ) ;
#203 =( LENGTH_UNIT ( ) NAMED_UNIT ( * ) SI_UNIT ( $, .METRE. ) );
#204 = SURFACE_STYLE_USAGE ( .BOTH. , #298 ) ;
#205 = CARTESIAN_POINT ( 'NONE',  ( 1.516480271171051896E-32, 2.000000000000000000, 0.000000000000000000 ) ) ;
#206 = DIRECTION ( 'NONE',  ( -1.000000000000000000, -6.123233995736763571E-17, 0.000000000000000000 ) ) ;
#207 = MECHANICAL_DESIGN_GEOMETRIC_PRESENTATION_REPRESENTATION (  '', ( #302 ), #218 ) ;
#208 = PRODUCT_DEFINITION ( 'UNKNOWN', '', #171, #300 ) ;
#209 = CIRCLE ( 'NONE', #192, 0.2500000000000000000 ) ;
#210 = SURFACE_STYLE_FILL_AREA ( #303 ) ;
#211 = SHAPE_DEFINITION_REPRESENTATION ( #256, #290 ) ;
#212 = ADVANCED_FACE ( 'NONE', ( #102 ), #219, .T. ) ;
#213 = CARTESIAN_POINT ( 'NONE',  ( 0.000000000000000000, 0.000000000000000000, 0.000000000000000000 ) ) ;
#214 = PLANE ( 'NONE',  #150 ) ;
#215 = MECHANICAL_DESIGN_GEOMETRIC_PRESENTATION_REPRESENTATION (  '', ( #129 ), #239 ) ;
#216 = DIRECTION ( 'NONE',  ( -6.123233995736763571E-17, 1.000000000000000000, -0.000000000000000000 ) ) ;
#217 =( NAMED_UNIT ( * ) PLANE_ANGLE_UNIT ( ) SI_UNIT ( $, .RADIAN. ) );
#218 =( GEOMETRIC_REPRESENTATION_CONTEXT ( 3 ) GLOBAL_UNCERTAINTY_ASSIGNED_CONTEXT ( ( #7 ) ) GLOBAL_UNIT_ASSIGNED_CONTEXT ( ( #187, #162, #24 ) ) REPRESENTATION_CONTEXT ( 'NONE', 'WORKASPACE' ) );
#219 = CYLINDRICAL_SURFACE ( 'NONE', #121, 0.2500000000000000555 ) ;
#220 = DIRECTION ( 'NONE',  ( -1.000000000000000000, 0.000000000000000000, 0.000000000000000000 ) ) ;
#221 = EDGE_CURVE ( 'NONE', #266, #200, #201, .T. ) ;
#222 = ORIENTED_EDGE ( 'NONE', *, *, #105, .F. ) ;
#223 = ADVANCED_FACE ( 'NONE', ( #52 ), #214, .T. ) ;
#224 = EDGE_LOOP ( 'NONE', ( #85, #44, #222, #33 ) ) ;
#225 = VERTEX_POINT ( 'NONE', #229 ) ;
#226 = EDGE_LOOP ( 'NONE', ( #195, #295 ) ) ;
#227 = SURFACE_STYLE_FILL_AREA ( #94 ) ;
#228 = SURFACE_STYLE_USAGE ( .BOTH. , #307 ) ;
#229 = CARTESIAN_POINT ( 'NONE',  ( 0.000000000000000000, 0.000000000000000000, -0.2500000000000000000 ) ) ;
#230 = VERTEX_POINT ( 'NONE', #301 ) ;
#231 = FACE_OUTER_BOUND ( 'NONE', #244, .T. ) ;
#232 = DIRECTION ( 'NONE',  ( 1.000000000000000000, 6.123233995736763571E-17, 0.000000000000000000 ) ) ;
#233 = FILL_AREA_STYLE_COLOUR ( '', #118 ) ;
#234 =( LENGTH_UNIT ( ) NAMED_UNIT ( * ) SI_UNIT ( $, .METRE. ) );
#235 = EDGE_CURVE ( 'NONE', #37, #225, #272, .T. ) ;
#236 = APPLICATION_PROTOCOL_DEFINITION ( 'draft international standard', 'automotive_design', 1998, #163 ) ;
#237 = DIRECTION ( 'NONE',  ( -6.123233995736763571E-17, 1.000000000000000000, -0.000000000000000000 ) ) ;
#238 = LENGTH_MEASURE_WITH_UNIT ( LENGTH_MEASURE( 0.02539999999999999897 ), #81 );
#239 =( GEOMETRIC_REPRESENTATION_CONTEXT ( 3 ) GLOBAL_UNCERTAINTY_ASSIGNED_CONTEXT ( ( #95 ) ) GLOBAL_UNIT_ASSIGNED_CONTEXT ( ( #74, #28, #53 ) ) REPRESENTATION_CONTEXT ( 'NONE', 'WORKASPACE' ) );
#240 = DIRECTION ( 'NONE',  ( -0.000000000000000000, -1.000000000000000000, -0.000000000000000000 ) ) ;
#241 =( CONVERSION_BASED_UNIT ( 'INCH', #238 ) LENGTH_UNIT ( ) NAMED_UNIT ( #304 ) );
#242 = ORIENTED_EDGE ( 'NONE', *, *, #134, .T. ) ;
#243 = ORIENTED_EDGE ( 'NONE', *, *, #235, .T. ) ;
#244 = EDGE_LOOP ( 'NONE', ( #63, #152 ) ) ;
#245 = MECHANICAL_DESIGN_GEOMETRIC_PRESENTATION_REPRESENTATION (  '', ( #144 ), #64 ) ;
#246 = ORIENTED_EDGE ( 'NONE', *, *, #182, .F. ) ;
#247 = SURFACE_SIDE_STYLE ('',( #227 ) ) ;
#248 = DIRECTION ( 'NONE',  ( -6.123233995736763571E-17, 1.000000000000000000, -0.000000000000000000 ) ) ;
#249 = FILL_AREA_STYLE_COLOUR ( '', #56 ) ;
#250 = LENGTH_MEASURE_WITH_UNIT ( LENGTH_MEASURE( 0.02539999999999999897 ), #203 );
#251 = DIRECTION ( 'NONE',  ( 1.000000000000000000, 0.000000000000000000, 0.000000000000000000 ) ) ;
#252 = CARTESIAN_POINT ( 'NONE',  ( 0.000000000000000000, 0.000000000000000000, -0.2500000000000000000 ) ) ;
#253 = DIRECTION ( 'NONE',  ( -6.123233995736763571E-17, 1.000000000000000000, 0.000000000000000000 ) ) ;
#254 =( CONVERSION_BASED_UNIT ( 'INCH', #250 ) LENGTH_UNIT ( ) NAMED_UNIT ( #138 ) );
#255 = DIRECTION ( 'NONE',  ( -6.123233995736763571E-17, 1.000000000000000000, -0.000000000000000000 ) ) ;
#256 = PRODUCT_DEFINITION_SHAPE ( 'NONE', 'NONE',  #208 ) ;
#257 = DIRECTION ( 'NONE',  ( -0.000000000000000000, -1.000000000000000000, -0.000000000000000000 ) ) ;
#258 =( NAMED_UNIT ( * ) SI_UNIT ( $, .STERADIAN. ) SOLID_ANGLE_UNIT ( ) );
#259 = APPLICATION_PROTOCOL_DEFINITION ( 'draft international standard', 'automotive_design', 1998, #268 ) ;
#260 =( CONVERSION_BASED_UNIT ( 'INCH', #119 ) LENGTH_UNIT ( ) NAMED_UNIT ( #66 ) );
#261 = AXIS2_PLACEMENT_3D ( 'NONE', #51, #271, #251 ) ;
#262 = FACE_OUTER_BOUND ( 'NONE', #17, .T. ) ;
#263 = CARTESIAN_POINT ( 'NONE',  ( 3.061616997868383018E-17, 0.000000000000000000, 0.2500000000000000000 ) ) ;
#264 = DIRECTION ( 'NONE',  ( -1.000000000000000000, 0.000000000000000000, 0.000000000000000000 ) ) ;
#265 = ORIENTED_EDGE ( 'NONE', *, *, #221, .F. ) ;
#266 = VERTEX_POINT ( 'NONE', #124 ) ;
#267 = FILL_AREA_STYLE_COLOUR ( '', #89 ) ;
#268 = APPLICATION_CONTEXT ( 'automotive_design' ) ;
#269 = CIRCLE ( 'NONE', #80, 0.2500000000000000000 ) ;
#270 = PLANE ( 'NONE',  #82 ) ;
#271 = DIRECTION ( 'NONE',  ( 0.000000000000000000, 0.000000000000000000, 1.000000000000000000 ) ) ;
#272 = LINE ( 'NONE', #252, #166 ) ;
#273 = CARTESIAN_POINT ( 'NONE',  ( 4.686749320818301603E-34, 2.000000000000000000, 0.000000000000000000 ) ) ;
#274 = SURFACE_STYLE_FILL_AREA ( #178 ) ;
#275 = PRODUCT_CONTEXT ( 'NONE', #163, 'mechanical' ) ;
#276 = LENGTH_MEASURE_WITH_UNIT ( LENGTH_MEASURE( 0.02539999999999999897 ), #277 );
#277 =( LENGTH_UNIT ( ) NAMED_UNIT ( * ) SI_UNIT ( $, .METRE. ) );
#278 = AXIS2_PLACEMENT_3D ( 'NONE', #273, #253, #206 ) ;
#279 = LENGTH_MEASURE_WITH_UNIT ( LENGTH_MEASURE( 0.02539999999999999897 ), #185 );
#280 = CARTESIAN_POINT ( 'NONE',  ( 0.000000000000000000, 0.000000000000000000, 0.000000000000000000 ) ) ;
#281 = DIRECTION ( 'NONE',  ( -1.000000000000000000, 0.000000000000000000, 0.000000000000000000 ) ) ;
#282 = CIRCLE ( 'NONE', #106, 0.2500000000000000000 ) ;
#283 = DIRECTION ( 'NONE',  ( 0.000000000000000000, 0.000000000000000000, -1.000000000000000000 ) ) ;
#284 = DIRECTION ( 'NONE',  ( -0.000000000000000000, -1.000000000000000000, -0.000000000000000000 ) ) ;
#285 = VECTOR ( 'NONE', #58, 39.37007874015748143 ) ;
#286 = CARTESIAN_POINT ( 'NONE',  ( 0.2500000000000000555, 2.000000000000000000, 3.061616997868384251E-17 ) ) ;
#287 = PRODUCT_RELATED_PRODUCT_CATEGORY ( 'part', '', ( #291 ) ) ;
#288 =( GEOMETRIC_REPRESENTATION_CONTEXT ( 3 ) GLOBAL_UNCERTAINTY_ASSIGNED_CONTEXT ( ( #100 ) ) GLOBAL_UNIT_ASSIGNED_CONTEXT ( ( #254, #67, #155 ) ) REPRESENTATION_CONTEXT ( 'NONE', 'WORKASPACE' ) );
#289 = ORIENTED_EDGE ( 'NONE', *, *, #103, .F. ) ;
#290 = ADVANCED_BREP_SHAPE_REPRESENTATION ( '03497', ( #135, #45, #261 ), #130 ) ;
#291 = PRODUCT ( '03497', '03497', '', ( #275 ) ) ;
#292 = EDGE_CURVE ( 'NONE', #110, #230, #39, .T. ) ;
#293 = DIMENSIONAL_EXPONENTS ( 1.000000000000000000, 0.000000000000000000, 0.000000000000000000, 0.000000000000000000, 0.000000000000000000, 0.000000000000000000, 0.000000000000000000 ) ;
#294 = PRESENTATION_LAYER_ASSIGNMENT (  '', '', ( #302 ) ) ;
#295 = ORIENTED_EDGE ( 'NONE', *, *, #305, .F. ) ;
#296 = CYLINDRICAL_SURFACE ( 'NONE', #78, 0.2500000000000000000 ) ;
#297 = DIRECTION ( 'NONE',  ( 0.000000000000000000, 0.000000000000000000, -1.000000000000000000 ) ) ;
#298 = SURFACE_SIDE_STYLE ('',( #197 ) ) ;
#299 = CARTESIAN_POINT ( 'NONE',  ( 3.061616997868383018E-17, 2.000000000000000000, 0.2500000000000000000 ) ) ;
#300 = PRODUCT_DEFINITION_CONTEXT ( 'detailed design', #268, 'design' ) ;
#301 = CARTESIAN_POINT ( 'NONE',  ( -0.2500000000000000000, 2.000000000000000000, 0.000000000000000000 ) ) ;
#302 = STYLED_ITEM ( 'NONE', ( #87 ), #135 ) ;
#303 = FILL_AREA_STYLE ('',( #233 ) ) ;
#304 = DIMENSIONAL_EXPONENTS ( 1.000000000000000000, 0.000000000000000000, 0.000000000000000000, 0.000000000000000000, 0.000000000000000000, 0.000000000000000000, 0.000000000000000000 ) ;
#305 = EDGE_CURVE ( 'NONE', #15, #37, #79, .T. ) ;
#306 = DIRECTION ( 'NONE',  ( -0.000000000000000000, -1.000000000000000000, -0.000000000000000000 ) ) ;
#307 = SURFACE_SIDE_STYLE ('',( #274 ) ) ;
#308 = CARTESIAN_POINT ( 'NONE',  ( 0.2500000000000000000, 4.000000000000000000, 0.000000000000000000 ) ) ;
#309 =( LENGTH_UNIT ( ) NAMED_UNIT ( * ) SI_UNIT ( $, .METRE. ) );
ENDSEC;
END-ISO-10303-21;
