ISO-10303-21;
HEADER;
FILE_DESCRIPTION (( 'STEP AP214' ),
    '1' );
FILE_NAME ('Micro_SFL-250-410.STEP',
    '2021-09-02T04:56:54',
    ( '' ),
    ( '' ),
    'SwSTEP 2.0',
    'SolidWorks 2020',
    '' );
FILE_SCHEMA (( 'AUTOMOTIVE_DESIGN' ));
ENDSEC;

DATA;
#1 = CARTESIAN_POINT ( 'NONE',  ( 0.1248750000000001664, 0.0000000000000000000, 1.250000000000000000 ) ) ;
#2 = FILL_AREA_STYLE_COLOUR ( '', #188 ) ;
#3 = VERTEX_POINT ( 'NONE', #74 ) ;
#4 = AXIS2_PLACEMENT_3D ( 'NONE', #170, #9, #240 ) ;
#5 = SURFACE_STYLE_USAGE ( .BOTH. , #30 ) ;
#6 = AXIS2_PLACEMENT_3D ( 'NONE', #165, #261, #57 ) ;
#7 = DIRECTION ( 'NONE',  ( 1.000000000000000000, 0.0000000000000000000, 0.0000000000000000000 ) ) ;
#8 = DIRECTION ( 'NONE',  ( -1.000000000000000000, 0.0000000000000000000, 0.0000000000000000000 ) ) ;
#9 = DIRECTION ( 'NONE',  ( -1.224646799147353454E-16, -0.0000000000000000000, -1.000000000000000000 ) ) ;
#10 = AXIS2_PLACEMENT_3D ( 'NONE', #239, #61, #214 ) ;
#11 = SURFACE_STYLE_USAGE ( .BOTH. , #55 ) ;
#12 = DIRECTION ( 'NONE',  ( -1.000000000000000000, 0.0000000000000000000, 1.224646799147353700E-16 ) ) ;
#13 = CARTESIAN_POINT ( 'NONE',  ( -0.1100000000000004446, 0.0000000000000000000, 3.000000000000000444 ) ) ;
#14 = CARTESIAN_POINT ( 'NONE',  ( 0.0000000000000000000, 0.0000000000000000000, 3.000000000000000444 ) ) ;
#15 = CIRCLE ( 'NONE', #84, 0.1100000000000004446 ) ;
#16 = DIRECTION ( 'NONE',  ( -1.000000000000000000, 0.0000000000000000000, 0.0000000000000000000 ) ) ;
#17 = CARTESIAN_POINT ( 'NONE',  ( 0.0000000000000000000, 0.0000000000000000000, 0.0000000000000000000 ) ) ;
#18 = VERTEX_POINT ( 'NONE', #159 ) ;
#19 = EDGE_CURVE ( 'NONE', #3, #92, #219, .T. ) ;
#20 = DIRECTION ( 'NONE',  ( 0.0000000000000000000, 0.0000000000000000000, -1.000000000000000000 ) ) ;
#21 = VECTOR ( 'NONE', #107, 39.37007874015748143 ) ;
#22 = ORIENTED_EDGE ( 'NONE', *, *, #271, .F. ) ;
#23 = VERTEX_POINT ( 'NONE', #1 ) ;
#24 = EDGE_LOOP ( 'NONE', ( #256, #88, #189, #186 ) ) ;
#25 = VECTOR ( 'NONE', #292, 39.37007874015748854 ) ;
#26 = VERTEX_POINT ( 'NONE', #204 ) ;
#27 = DIMENSIONAL_EXPONENTS ( 1.000000000000000000, 0.0000000000000000000, 0.0000000000000000000, 0.0000000000000000000, 0.0000000000000000000, 0.0000000000000000000, 0.0000000000000000000 ) ;
#28 = ORIENTED_EDGE ( 'NONE', *, *, #162, .T. ) ;
#29 = DIRECTION ( 'NONE',  ( -1.224646799147353454E-16, -0.0000000000000000000, -1.000000000000000000 ) ) ;
#30 = SURFACE_SIDE_STYLE ('',( #208 ) ) ;
#31 = MECHANICAL_DESIGN_GEOMETRIC_PRESENTATION_REPRESENTATION (  '', ( #93 ), #103 ) ;
#32 = DIRECTION ( 'NONE',  ( -1.000000000000000000, 0.0000000000000000000, 0.0000000000000000000 ) ) ;
#33 = APPLICATION_PROTOCOL_DEFINITION ( 'draft international standard', 'automotive_design', 1998, #267 ) ;
#34 = SURFACE_STYLE_FILL_AREA ( #213 ) ;
#35 = LINE ( 'NONE', #79, #283 ) ;
#36 = AXIS2_PLACEMENT_3D ( 'NONE', #233, #87, #114 ) ;
#37 = MECHANICAL_DESIGN_GEOMETRIC_PRESENTATION_REPRESENTATION (  '', ( #168 ), #112 ) ;
#38 = DIRECTION ( 'NONE',  ( -1.224646799147353454E-16, -0.0000000000000000000, -1.000000000000000000 ) ) ;
#39 =( LENGTH_UNIT ( ) NAMED_UNIT ( * ) SI_UNIT ( $, .METRE. ) );
#40 = FACE_OUTER_BOUND ( 'NONE', #297, .T. ) ;
#41 =( NAMED_UNIT ( * ) PLANE_ANGLE_UNIT ( ) SI_UNIT ( $, .RADIAN. ) );
#42 = CONICAL_SURFACE ( 'NONE', #126, 0.1100000000000004446, 0.7853981633974613796 ) ;
#43 = CARTESIAN_POINT ( 'NONE',  ( -0.1248749999999998472, 1.529277690435257475E-17, 1.250000000000000000 ) ) ;
#44 = EDGE_LOOP ( 'NONE', ( #200, #110, #206, #22 ) ) ;
#45 = EDGE_CURVE ( 'NONE', #163, #92, #295, .T. ) ;
#46 = CARTESIAN_POINT ( 'NONE',  ( -0.1100000000000004446, 0.0000000000000000000, 3.000000000000000444 ) ) ;
#47 = ORIENTED_EDGE ( 'NONE', *, *, #198, .T. ) ;
#48 = AXIS2_PLACEMENT_3D ( 'NONE', #192, #145, #12 ) ;
#49 = ORIENTED_EDGE ( 'NONE', *, *, #271, .T. ) ;
#50 = ORIENTED_EDGE ( 'NONE', *, *, #45, .F. ) ;
#51 = ORIENTED_EDGE ( 'NONE', *, *, #264, .T. ) ;
#52 = AXIS2_PLACEMENT_3D ( 'NONE', #260, #29, #8 ) ;
#53 = ORIENTED_EDGE ( 'NONE', *, *, #296, .T. ) ;
#54 = PRODUCT_RELATED_PRODUCT_CATEGORY ( 'part', '', ( #144 ) ) ;
#55 = SURFACE_SIDE_STYLE ('',( #34 ) ) ;
#56 = EDGE_CURVE ( 'NONE', #23, #18, #75, .T. ) ;
#57 = DIRECTION ( 'NONE',  ( 1.000000000000000000, 0.0000000000000000000, 0.0000000000000000000 ) ) ;
#58 = PRESENTATION_LAYER_ASSIGNMENT (  '', '', ( #168 ) ) ;
#59 = DIMENSIONAL_EXPONENTS ( 1.000000000000000000, 0.0000000000000000000, 0.0000000000000000000, 0.0000000000000000000, 0.0000000000000000000, 0.0000000000000000000, 0.0000000000000000000 ) ;
#60 = LINE ( 'NONE', #43, #71 ) ;
#61 = DIRECTION ( 'NONE',  ( -1.224646799147353454E-16, -0.0000000000000000000, -1.000000000000000000 ) ) ;
#62 = DIRECTION ( 'NONE',  ( -0.0000000000000000000, -0.0000000000000000000, -1.000000000000000000 ) ) ;
#63 = VECTOR ( 'NONE', #276, 39.37007874015748854 ) ;
#64 = DIRECTION ( 'NONE',  ( -1.224646799147353454E-16, -0.0000000000000000000, -1.000000000000000000 ) ) ;
#65 = FACE_OUTER_BOUND ( 'NONE', #70, .T. ) ;
#66 = DIRECTION ( 'NONE',  ( 0.0000000000000000000, 0.0000000000000000000, 1.000000000000000000 ) ) ;
#67 = AXIS2_PLACEMENT_3D ( 'NONE', #125, #245, #194 ) ;
#68 = DIRECTION ( 'NONE',  ( -0.1736481776669310528, 2.126576849575781776E-17, 0.9848077530122080203 ) ) ;
#69 = PRODUCT_CONTEXT ( 'NONE', #252, 'mechanical' ) ;
#70 = EDGE_LOOP ( 'NONE', ( #275, #210 ) ) ;
#71 = VECTOR ( 'NONE', #68, 39.37007874015748854 ) ;
#72 = ADVANCED_FACE ( 'NONE', ( #272 ), #123, .T. ) ;
#73 = EDGE_LOOP ( 'NONE', ( #47, #207 ) ) ;
#74 = CARTESIAN_POINT ( 'NONE',  ( -0.1250000000000000000, 0.0000000000000000000, 2.985000000000001208 ) ) ;
#75 = LINE ( 'NONE', #161, #227 ) ;
#76 = ORIENTED_EDGE ( 'NONE', *, *, #99, .F. ) ;
#77 =( NAMED_UNIT ( * ) PLANE_ANGLE_UNIT ( ) SI_UNIT ( $, .RADIAN. ) );
#78 =( NAMED_UNIT ( * ) SI_UNIT ( $, .STERADIAN. ) SOLID_ANGLE_UNIT ( ) );
#79 = CARTESIAN_POINT ( 'NONE',  ( -0.1248749999999999999, 0.0000000000000000000, 1.529277690435257783E-17 ) ) ;
#80 = PLANE ( 'NONE',  #266 ) ;
#81 = LINE ( 'NONE', #100, #217 ) ;
#82 = LENGTH_MEASURE_WITH_UNIT ( LENGTH_MEASURE( 0.02539999999999999897 ), #117 );
#83 = CIRCLE ( 'NONE', #147, 0.1248749999999999999 ) ;
#84 = AXIS2_PLACEMENT_3D ( 'NONE', #199, #268, #86 ) ;
#85 = DIRECTION ( 'NONE',  ( 0.0000000000000000000, 0.0000000000000000000, 1.000000000000000000 ) ) ;
#86 = DIRECTION ( 'NONE',  ( 1.000000000000000000, 0.0000000000000000000, 0.0000000000000000000 ) ) ;
#87 = DIRECTION ( 'NONE',  ( 0.0000000000000000000, 0.0000000000000000000, -1.000000000000000000 ) ) ;
#88 = ORIENTED_EDGE ( 'NONE', *, *, #166, .T. ) ;
#89 = ORIENTED_EDGE ( 'NONE', *, *, #96, .F. ) ;
#90 = ADVANCED_FACE ( 'NONE', ( #259 ), #95, .T. ) ;
#91 = CARTESIAN_POINT ( 'NONE',  ( 0.1100000000000004446, 1.347111479062094019E-17, 3.000000000000000444 ) ) ;
#92 = VERTEX_POINT ( 'NONE', #146 ) ;
#93 = STYLED_ITEM ( 'NONE', ( #294 ), #195 ) ;
#94 = DIRECTION ( 'NONE',  ( 0.0000000000000000000, 0.0000000000000000000, 1.000000000000000000 ) ) ;
#95 = CYLINDRICAL_SURFACE ( 'NONE', #281, 0.1250000000000000000 ) ;
#96 = EDGE_CURVE ( 'NONE', #26, #18, #83, .T. ) ;
#97 = PRESENTATION_STYLE_ASSIGNMENT (( #11 ) ) ;
#98 = PRODUCT_DEFINITION ( 'UNKNOWN', '', #228, #180 ) ;
#99 = EDGE_CURVE ( 'NONE', #299, #26, #35, .T. ) ;
#100 = CARTESIAN_POINT ( 'NONE',  ( 0.1250000000000000000, 1.530808498934191201E-17, 3.000000000000000444 ) ) ;
#101 = DIMENSIONAL_EXPONENTS ( 1.000000000000000000, 0.0000000000000000000, 0.0000000000000000000, 0.0000000000000000000, 0.0000000000000000000, 0.0000000000000000000, 0.0000000000000000000 ) ;
#102 = LENGTH_MEASURE_WITH_UNIT ( LENGTH_MEASURE( 0.02539999999999999897 ), #39 );
#103 =( GEOMETRIC_REPRESENTATION_CONTEXT ( 3 ) GLOBAL_UNCERTAINTY_ASSIGNED_CONTEXT ( ( #251 ) ) GLOBAL_UNIT_ASSIGNED_CONTEXT ( ( #211, #77, #179 ) ) REPRESENTATION_CONTEXT ( 'NONE', 'WORKASPACE' ) );
#104 = DIRECTION ( 'NONE',  ( 0.0000000000000000000, 0.0000000000000000000, -1.000000000000000000 ) ) ;
#105 = ADVANCED_FACE ( 'NONE', ( #171 ), #80, .T. ) ;
#106 = PLANE ( 'NONE',  #257 ) ;
#107 = DIRECTION ( 'NONE',  ( 0.1736481776669312749, 0.0000000000000000000, 0.9848077530122077983 ) ) ;
#108 =( GEOMETRIC_REPRESENTATION_CONTEXT ( 3 ) GLOBAL_UNCERTAINTY_ASSIGNED_CONTEXT ( ( #221 ) ) GLOBAL_UNIT_ASSIGNED_CONTEXT ( ( #288, #41, #235 ) ) REPRESENTATION_CONTEXT ( 'NONE', 'WORKASPACE' ) );
#109 = EDGE_CURVE ( 'NONE', #234, #229, #135, .T. ) ;
#110 = ORIENTED_EDGE ( 'NONE', *, *, #45, .T. ) ;
#111 = ORIENTED_EDGE ( 'NONE', *, *, #56, .F. ) ;
#112 =( GEOMETRIC_REPRESENTATION_CONTEXT ( 3 ) GLOBAL_UNCERTAINTY_ASSIGNED_CONTEXT ( ( #134 ) ) GLOBAL_UNIT_ASSIGNED_CONTEXT ( ( #120, #143, #78 ) ) REPRESENTATION_CONTEXT ( 'NONE', 'WORKASPACE' ) );
#113 = EDGE_LOOP ( 'NONE', ( #111, #51, #157, #129 ) ) ;
#114 = DIRECTION ( 'NONE',  ( 1.000000000000000000, 0.0000000000000000000, 0.0000000000000000000 ) ) ;
#115 = EDGE_LOOP ( 'NONE', ( #231, #133, #181, #225 ) ) ;
#116 = LENGTH_MEASURE_WITH_UNIT ( LENGTH_MEASURE( 0.02539999999999999897 ), #140 );
#117 =( LENGTH_UNIT ( ) NAMED_UNIT ( * ) SI_UNIT ( $, .METRE. ) );
#118 = CONICAL_SURFACE ( 'NONE', #67, 0.1100000000000004446, 0.7853981633974613796 ) ;
#119 = FILL_AREA_STYLE_COLOUR ( '', #298 ) ;
#120 =( CONVERSION_BASED_UNIT ( 'INCH', #82 ) LENGTH_UNIT ( ) NAMED_UNIT ( #27 ) );
#121 = DIRECTION ( 'NONE',  ( 1.000000000000000000, 0.0000000000000000000, 0.0000000000000000000 ) ) ;
#122 = CIRCLE ( 'NONE', #160, 0.1100000000000004446 ) ;
#123 = CYLINDRICAL_SURFACE ( 'NONE', #4, 0.1248749999999999999 ) ;
#124 = EDGE_CURVE ( 'NONE', #18, #26, #142, .T. ) ;
#125 = CARTESIAN_POINT ( 'NONE',  ( 0.0000000000000000000, 0.0000000000000000000, 3.000000000000000444 ) ) ;
#126 = AXIS2_PLACEMENT_3D ( 'NONE', #14, #20, #16 ) ;
#127 = CARTESIAN_POINT ( 'NONE',  ( 0.1250000000000001665, 1.530808498934193358E-17, 1.250708910227452009 ) ) ;
#128 = CARTESIAN_POINT ( 'NONE',  ( 0.0000000000000000000, 0.0000000000000000000, 0.0000000000000000000 ) ) ;
#129 = ORIENTED_EDGE ( 'NONE', *, *, #124, .F. ) ;
#130 = CYLINDRICAL_SURFACE ( 'NONE', #291, 0.1250000000000000000 ) ;
#131 = ORIENTED_EDGE ( 'NONE', *, *, #154, .T. ) ;
#132 = ORIENTED_EDGE ( 'NONE', *, *, #296, .F. ) ;
#133 = ORIENTED_EDGE ( 'NONE', *, *, #185, .T. ) ;
#134 = UNCERTAINTY_MEASURE_WITH_UNIT (LENGTH_MEASURE( 1.000000000000000082E-05 ), #120, 'distance_accuracy_value', 'NONE');
#135 = CIRCLE ( 'NONE', #10, 0.1250000000000000000 ) ;
#136 = ORIENTED_EDGE ( 'NONE', *, *, #202, .T. ) ;
#137 = ORIENTED_EDGE ( 'NONE', *, *, #185, .F. ) ;
#138 = SHAPE_DEFINITION_REPRESENTATION ( #182, #195 ) ;
#139 = CARTESIAN_POINT ( 'NONE',  ( 1.531676663575124064E-16, 0.0000000000000000000, 1.250708910227452009 ) ) ;
#140 =( LENGTH_UNIT ( ) NAMED_UNIT ( * ) SI_UNIT ( $, .METRE. ) );
#141 = DIRECTION ( 'NONE',  ( -1.224646799147353454E-16, -0.0000000000000000000, -1.000000000000000000 ) ) ;
#142 = CIRCLE ( 'NONE', #48, 0.1248749999999999999 ) ;
#143 =( NAMED_UNIT ( * ) PLANE_ANGLE_UNIT ( ) SI_UNIT ( $, .RADIAN. ) );
#144 = PRODUCT ( 'Micro_SFL-250-410', 'Micro_SFL-250-410', '', ( #69 ) ) ;
#145 = DIRECTION ( 'NONE',  ( -1.224646799147353454E-16, -0.0000000000000000000, -1.000000000000000000 ) ) ;
#146 = CARTESIAN_POINT ( 'NONE',  ( 0.1250000000000000000, 1.530808498934191201E-17, 2.985000000000001208 ) ) ;
#147 = AXIS2_PLACEMENT_3D ( 'NONE', #190, #141, #262 ) ;
#148 = DIRECTION ( 'NONE',  ( -1.000000000000000000, 0.0000000000000000000, 1.224646799147353700E-16 ) ) ;
#149 = DIRECTION ( 'NONE',  ( 1.000000000000000000, 0.0000000000000000000, -0.0000000000000000000 ) ) ;
#150 = CARTESIAN_POINT ( 'NONE',  ( 0.0000000000000000000, 0.0000000000000000000, 3.000000000000000444 ) ) ;
#151 = AXIS2_PLACEMENT_3D ( 'NONE', #17, #64, #148 ) ;
#152 = DIRECTION ( 'NONE',  ( 1.000000000000000000, 0.0000000000000000000, 0.0000000000000000000 ) ) ;
#153 = FACE_OUTER_BOUND ( 'NONE', #258, .T. ) ;
#154 = EDGE_CURVE ( 'NONE', #3, #234, #167, .T. ) ;
#155 = PRESENTATION_LAYER_ASSIGNMENT (  '', '', ( #93 ) ) ;
#156 = DIRECTION ( 'NONE',  ( -1.224646799147353454E-16, -0.0000000000000000000, -1.000000000000000000 ) ) ;
#157 = ORIENTED_EDGE ( 'NONE', *, *, #99, .T. ) ;
#158 = EDGE_CURVE ( 'NONE', #299, #23, #246, .T. ) ;
#159 = CARTESIAN_POINT ( 'NONE',  ( 0.1248749999999999999, 1.529277690435257475E-17, 0.0000000000000000000 ) ) ;
#160 = AXIS2_PLACEMENT_3D ( 'NONE', #150, #66, #152 ) ;
#161 = CARTESIAN_POINT ( 'NONE',  ( 0.1248749999999999999, 1.529277690435257475E-17, -1.529277690435257783E-17 ) ) ;
#162 = EDGE_CURVE ( 'NONE', #229, #234, #175, .T. ) ;
#163 = VERTEX_POINT ( 'NONE', #285 ) ;
#164 = ADVANCED_FACE ( 'NONE', ( #216 ), #273, .T. ) ;
#165 = CARTESIAN_POINT ( 'NONE',  ( 1.530808498934191817E-16, 0.0000000000000000000, 1.250000000000000000 ) ) ;
#166 = EDGE_CURVE ( 'NONE', #92, #229, #81, .T. ) ;
#167 = LINE ( 'NONE', #263, #277 ) ;
#168 = STYLED_ITEM ( 'NONE', ( #97 ), #169 ) ;
#169 = MANIFOLD_SOLID_BREP ( 'Cut-Revolve1', #178 ) ;
#170 = CARTESIAN_POINT ( 'NONE',  ( 0.0000000000000000000, 0.0000000000000000000, 0.0000000000000000000 ) ) ;
#171 = FACE_OUTER_BOUND ( 'NONE', #73, .T. ) ;
#172 = DIRECTION ( 'NONE',  ( 1.000000000000000000, 0.0000000000000000000, 0.0000000000000000000 ) ) ;
#173 = CARTESIAN_POINT ( 'NONE',  ( 0.1248750000000001664, 0.0000000000000000000, 1.250000000000000000 ) ) ;
#174 = DIRECTION ( 'NONE',  ( -0.0000000000000000000, -0.0000000000000000000, -1.000000000000000000 ) ) ;
#175 = CIRCLE ( 'NONE', #183, 0.1250000000000000000 ) ;
#176 = DIRECTION ( 'NONE',  ( 1.224646799147353454E-16, 0.0000000000000000000, 1.000000000000000000 ) ) ;
#177 = APPLICATION_PROTOCOL_DEFINITION ( 'draft international standard', 'automotive_design', 1998, #252 ) ;
#178 = CLOSED_SHELL ( 'NONE', ( #287, #209, #242, #90, #191, #105, #293, #164, #72, #215 ) ) ;
#179 =( NAMED_UNIT ( * ) SI_UNIT ( $, .STERADIAN. ) SOLID_ANGLE_UNIT ( ) );
#180 = PRODUCT_DEFINITION_CONTEXT ( 'detailed design', #267, 'design' ) ;
#181 = ORIENTED_EDGE ( 'NONE', *, *, #109, .T. ) ;
#182 = PRODUCT_DEFINITION_SHAPE ( 'NONE', 'NONE',  #98 ) ;
#183 = AXIS2_PLACEMENT_3D ( 'NONE', #139, #38, #121 ) ;
#184 = EDGE_LOOP ( 'NONE', ( #249, #187, #89, #76 ) ) ;
#185 = EDGE_CURVE ( 'NONE', #299, #234, #60, .T. ) ;
#186 = ORIENTED_EDGE ( 'NONE', *, *, #154, .F. ) ;
#187 = ORIENTED_EDGE ( 'NONE', *, *, #56, .T. ) ;
#188 = COLOUR_RGB ( '',0.7921568627450980005, 0.8196078431372548767, 0.9333333333333333481 ) ;
#189 = ORIENTED_EDGE ( 'NONE', *, *, #109, .F. ) ;
#190 = CARTESIAN_POINT ( 'NONE',  ( 1.872825028598995495E-33, 0.0000000000000000000, 1.529277690435257783E-17 ) ) ;
#191 = ADVANCED_FACE ( 'NONE', ( #153 ), #130, .T. ) ;
#192 = CARTESIAN_POINT ( 'NONE',  ( 1.872825028598995495E-33, 0.0000000000000000000, 1.529277690435257783E-17 ) ) ;
#193 = DIRECTION ( 'NONE',  ( -0.0000000000000000000, -0.0000000000000000000, -1.000000000000000000 ) ) ;
#194 = DIRECTION ( 'NONE',  ( -1.000000000000000000, 0.0000000000000000000, 0.0000000000000000000 ) ) ;
#195 = ADVANCED_BREP_SHAPE_REPRESENTATION ( 'Micro_SFL-250-410', ( #169, #232 ), #108 ) ;
#196 = DIRECTION ( 'NONE',  ( 1.000000000000000000, 0.0000000000000000000, 0.0000000000000000000 ) ) ;
#197 = FACE_OUTER_BOUND ( 'NONE', #115, .T. ) ;
#198 = EDGE_CURVE ( 'NONE', #230, #163, #15, .T. ) ;
#199 = CARTESIAN_POINT ( 'NONE',  ( 0.0000000000000000000, 0.0000000000000000000, 3.000000000000000444 ) ) ;
#200 = ORIENTED_EDGE ( 'NONE', *, *, #248, .F. ) ;
#201 = AXIS2_PLACEMENT_3D ( 'NONE', #220, #104, #196 ) ;
#202 = EDGE_CURVE ( 'NONE', #23, #229, #223, .T. ) ;
#203 = DIRECTION ( 'NONE',  ( -1.000000000000000000, 0.0000000000000000000, 0.0000000000000000000 ) ) ;
#204 = CARTESIAN_POINT ( 'NONE',  ( -0.1248749999999999999, 0.0000000000000000000, 3.058555380870515566E-17 ) ) ;
#205 = EDGE_LOOP ( 'NONE', ( #137, #274, #136, #28 ) ) ;
#206 = ORIENTED_EDGE ( 'NONE', *, *, #19, .F. ) ;
#207 = ORIENTED_EDGE ( 'NONE', *, *, #248, .T. ) ;
#208 = SURFACE_STYLE_FILL_AREA ( #279 ) ;
#209 = ADVANCED_FACE ( 'NONE', ( #197 ), #282, .T. ) ;
#210 = ORIENTED_EDGE ( 'NONE', *, *, #124, .T. ) ;
#211 =( CONVERSION_BASED_UNIT ( 'INCH', #116 ) LENGTH_UNIT ( ) NAMED_UNIT ( #101 ) );
#212 = DIRECTION ( 'NONE',  ( 0.0000000000000000000, 0.0000000000000000000, 1.000000000000000000 ) ) ;
#213 = FILL_AREA_STYLE ('',( #119 ) ) ;
#214 = DIRECTION ( 'NONE',  ( 1.000000000000000000, 0.0000000000000000000, 0.0000000000000000000 ) ) ;
#215 = ADVANCED_FACE ( 'NONE', ( #65 ), #106, .F. ) ;
#216 = FACE_OUTER_BOUND ( 'NONE', #205, .T. ) ;
#217 = VECTOR ( 'NONE', #193, 39.37007874015748143 ) ;
#218 = CARTESIAN_POINT ( 'NONE',  ( 0.0000000000000000000, 0.0000000000000000000, 3.000000000000000444 ) ) ;
#219 = CIRCLE ( 'NONE', #36, 0.1250000000000000000 ) ;
#220 = CARTESIAN_POINT ( 'NONE',  ( 0.0000000000000000000, 0.0000000000000000000, 2.985000000000001208 ) ) ;
#221 = UNCERTAINTY_MEASURE_WITH_UNIT (LENGTH_MEASURE( 1.000000000000000082E-05 ), #288, 'distance_accuracy_value', 'NONE');
#222 = CIRCLE ( 'NONE', #253, 0.1248749999999999999 ) ;
#223 = LINE ( 'NONE', #173, #21 ) ;
#224 = CARTESIAN_POINT ( 'NONE',  ( -0.1249999999999998473, 0.0000000000000000000, 1.250708910227452009 ) ) ;
#225 = ORIENTED_EDGE ( 'NONE', *, *, #202, .F. ) ;
#226 = FACE_OUTER_BOUND ( 'NONE', #44, .T. ) ;
#227 = VECTOR ( 'NONE', #156, 39.37007874015748143 ) ;
#228 = PRODUCT_DEFINITION_FORMATION_WITH_SPECIFIED_SOURCE ( 'ANY', '', #144, .NOT_KNOWN. ) ;
#229 = VERTEX_POINT ( 'NONE', #127 ) ;
#230 = VERTEX_POINT ( 'NONE', #46 ) ;
#231 = ORIENTED_EDGE ( 'NONE', *, *, #158, .F. ) ;
#232 = AXIS2_PLACEMENT_3D ( 'NONE', #236, #212, #7 ) ;
#233 = CARTESIAN_POINT ( 'NONE',  ( 0.0000000000000000000, 0.0000000000000000000, 2.985000000000001208 ) ) ;
#234 = VERTEX_POINT ( 'NONE', #224 ) ;
#235 =( NAMED_UNIT ( * ) SI_UNIT ( $, .STERADIAN. ) SOLID_ANGLE_UNIT ( ) );
#236 = CARTESIAN_POINT ( 'NONE',  ( 0.0000000000000000000, 0.0000000000000000000, 0.0000000000000000000 ) ) ;
#237 = AXIS2_PLACEMENT_3D ( 'NONE', #269, #176, #172 ) ;
#238 = DIRECTION ( 'NONE',  ( -0.0000000000000000000, -0.0000000000000000000, -1.000000000000000000 ) ) ;
#239 = CARTESIAN_POINT ( 'NONE',  ( 1.531676663575124064E-16, 0.0000000000000000000, 1.250708910227452009 ) ) ;
#240 = DIRECTION ( 'NONE',  ( -1.000000000000000000, 0.0000000000000000000, 1.224646799147353700E-16 ) ) ;
#241 = DIRECTION ( 'NONE',  ( 1.000000000000000000, 0.0000000000000000000, -0.0000000000000000000 ) ) ;
#242 = ADVANCED_FACE ( 'NONE', ( #226 ), #42, .T. ) ;
#243 = CARTESIAN_POINT ( 'NONE',  ( -0.1248749999999998472, 1.530043094684724338E-17, 1.250000000000000000 ) ) ;
#244 = CYLINDRICAL_SURFACE ( 'NONE', #151, 0.1248749999999999999 ) ;
#245 = DIRECTION ( 'NONE',  ( 0.0000000000000000000, 0.0000000000000000000, -1.000000000000000000 ) ) ;
#246 = CIRCLE ( 'NONE', #52, 0.1248749999999999999 ) ;
#247 = DIRECTION ( 'NONE',  ( -1.224646799147353454E-16, -0.0000000000000000000, -1.000000000000000000 ) ) ;
#248 = EDGE_CURVE ( 'NONE', #163, #230, #122, .T. ) ;
#249 = ORIENTED_EDGE ( 'NONE', *, *, #158, .T. ) ;
#250 = CARTESIAN_POINT ( 'NONE',  ( 0.0000000000000000000, 0.0000000000000000000, 3.000000000000000444 ) ) ;
#251 = UNCERTAINTY_MEASURE_WITH_UNIT (LENGTH_MEASURE( 1.000000000000000082E-05 ), #211, 'distance_accuracy_value', 'NONE');
#252 = APPLICATION_CONTEXT ( 'automotive_design' ) ;
#253 = AXIS2_PLACEMENT_3D ( 'NONE', #290, #247, #203 ) ;
#254 = ORIENTED_EDGE ( 'NONE', *, *, #162, .F. ) ;
#255 = ORIENTED_EDGE ( 'NONE', *, *, #198, .F. ) ;
#256 = ORIENTED_EDGE ( 'NONE', *, *, #19, .T. ) ;
#257 = AXIS2_PLACEMENT_3D ( 'NONE', #128, #85, #149 ) ;
#258 = EDGE_LOOP ( 'NONE', ( #278, #53, #131, #254 ) ) ;
#259 = FACE_OUTER_BOUND ( 'NONE', #24, .T. ) ;
#260 = CARTESIAN_POINT ( 'NONE',  ( 1.530808498934191817E-16, 0.0000000000000000000, 1.250000000000000000 ) ) ;
#261 = DIRECTION ( 'NONE',  ( 1.224646799147353454E-16, 0.0000000000000000000, 1.000000000000000000 ) ) ;
#262 = DIRECTION ( 'NONE',  ( -1.000000000000000000, 0.0000000000000000000, 1.224646799147353700E-16 ) ) ;
#263 = CARTESIAN_POINT ( 'NONE',  ( -0.1250000000000000000, 0.0000000000000000000, 3.000000000000000444 ) ) ;
#264 = EDGE_CURVE ( 'NONE', #23, #299, #222, .T. ) ;
#265 = FACE_OUTER_BOUND ( 'NONE', #184, .T. ) ;
#266 = AXIS2_PLACEMENT_3D ( 'NONE', #218, #94, #241 ) ;
#267 = APPLICATION_CONTEXT ( 'automotive_design' ) ;
#268 = DIRECTION ( 'NONE',  ( 0.0000000000000000000, 0.0000000000000000000, 1.000000000000000000 ) ) ;
#269 = CARTESIAN_POINT ( 'NONE',  ( 1.530808498934191817E-16, 0.0000000000000000000, 1.250000000000000000 ) ) ;
#270 = LINE ( 'NONE', #13, #25 ) ;
#271 = EDGE_CURVE ( 'NONE', #230, #3, #270, .T. ) ;
#272 = FACE_OUTER_BOUND ( 'NONE', #113, .T. ) ;
#273 = CONICAL_SURFACE ( 'NONE', #6, 0.1248749999999999999, 0.1745329251994337805 ) ;
#274 = ORIENTED_EDGE ( 'NONE', *, *, #264, .F. ) ;
#275 = ORIENTED_EDGE ( 'NONE', *, *, #96, .T. ) ;
#276 = DIRECTION ( 'NONE',  ( 0.7071067811865566766, 8.659560562355046257E-17, -0.7071067811865382469 ) ) ;
#277 = VECTOR ( 'NONE', #62, 39.37007874015748143 ) ;
#278 = ORIENTED_EDGE ( 'NONE', *, *, #166, .F. ) ;
#279 = FILL_AREA_STYLE ('',( #2 ) ) ;
#280 = CARTESIAN_POINT ( 'NONE',  ( 0.0000000000000000000, 0.0000000000000000000, 3.000000000000000444 ) ) ;
#281 = AXIS2_PLACEMENT_3D ( 'NONE', #280, #238, #32 ) ;
#282 = CONICAL_SURFACE ( 'NONE', #237, 0.1248749999999999999, 0.1745329251994337805 ) ;
#283 = VECTOR ( 'NONE', #284, 39.37007874015748143 ) ;
#284 = DIRECTION ( 'NONE',  ( -1.224646799147353454E-16, -0.0000000000000000000, -1.000000000000000000 ) ) ;
#285 = CARTESIAN_POINT ( 'NONE',  ( 0.1100000000000004446, 1.438959988998142687E-17, 3.000000000000000444 ) ) ;
#286 = CIRCLE ( 'NONE', #201, 0.1250000000000000000 ) ;
#287 = ADVANCED_FACE ( 'NONE', ( #265 ), #244, .T. ) ;
#288 =( CONVERSION_BASED_UNIT ( 'INCH', #102 ) LENGTH_UNIT ( ) NAMED_UNIT ( #59 ) );
#289 = DIRECTION ( 'NONE',  ( -1.000000000000000000, 0.0000000000000000000, 0.0000000000000000000 ) ) ;
#290 = CARTESIAN_POINT ( 'NONE',  ( 1.530808498934191817E-16, 0.0000000000000000000, 1.250000000000000000 ) ) ;
#291 = AXIS2_PLACEMENT_3D ( 'NONE', #250, #174, #289 ) ;
#292 = DIRECTION ( 'NONE',  ( -0.7071067811865566766, 0.0000000000000000000, -0.7071067811865382469 ) ) ;
#293 = ADVANCED_FACE ( 'NONE', ( #40 ), #118, .T. ) ;
#294 = PRESENTATION_STYLE_ASSIGNMENT (( #5 ) ) ;
#295 = LINE ( 'NONE', #91, #63 ) ;
#296 = EDGE_CURVE ( 'NONE', #92, #3, #286, .T. ) ;
#297 = EDGE_LOOP ( 'NONE', ( #50, #255, #49, #132 ) ) ;
#298 = COLOUR_RGB ( '',0.7921568627450980005, 0.8196078431372548767, 0.9333333333333333481 ) ;
#299 = VERTEX_POINT ( 'NONE', #243 ) ;
ENDSEC;
END-ISO-10303-21;
