ISO-10303-21;
HEADER;
FILE_DESCRIPTION (( 'STEP AP214' ),
    '1' );
FILE_NAME ('59515.STEP',
    '2023-07-24T15:08:38',
    ( '' ),
    ( '' ),
    'SwSTEP 2.0',
    'SolidWorks 2023',
    '' );
FILE_SCHEMA (( 'AUTOMOTIVE_DESIGN' ));
ENDSEC;

DATA;
#1 = SURFACE_SIDE_STYLE ('',( #8 ) ) ;
#2 = VECTOR ( 'NONE', #303, 1000.000000000000000 ) ;
#3 = DIRECTION ( 'NONE',  ( 0.000000000000000000, 0.000000000000000000, 1.000000000000000000 ) ) ;
#4 = PRESENTATION_LAYER_ASSIGNMENT (  '', '', ( #248 ) ) ;
#5 = FILL_AREA_STYLE_COLOUR ( '', #29 ) ;
#6 = CARTESIAN_POINT ( 'NONE',  ( 4.770489558936219510E-15, 24.00000000000000000, 0.000000000000000000 ) ) ;
#7 = SURFACE_SIDE_STYLE ('',( #320 ) ) ;
#8 = SURFACE_STYLE_FILL_AREA ( #114 ) ;
#9 = EDGE_CURVE ( 'NONE', #312, #27, #193, .T. ) ;
#10 = SURFACE_SIDE_STYLE ('',( #282 ) ) ;
#11 = DIRECTION ( 'NONE',  ( 0.000000000000000000, -0.000000000000000000, 1.000000000000000000 ) ) ;
#12 = EDGE_CURVE ( 'NONE', #125, #184, #319, .T. ) ;
#13 = AXIS2_PLACEMENT_3D ( 'NONE', #28, #278, #342 ) ;
#14 = VECTOR ( 'NONE', #246, 1000.000000000000000 ) ;
#15 = CIRCLE ( 'NONE', #39, 4.000000000000000000 ) ;
#16 = FILL_AREA_STYLE_COLOUR ( '', #228 ) ;
#17 = CIRCLE ( 'NONE', #164, 4.000000000000001776 ) ;
#18 = CARTESIAN_POINT ( 'NONE',  ( 3.999999999999996447, 75.00000000000000000, 4.898587196589410857E-16 ) ) ;
#19 = SURFACE_STYLE_USAGE ( .BOTH. , #156 ) ;
#20 = MANIFOLD_SOLID_BREP ( 'Revolve - Tool Body (Straight Shanked)', #149 ) ;
#21 = CARTESIAN_POINT ( 'NONE',  ( -1.469576158976823750E-15, 75.00000000000000000, 0.000000000000000000 ) ) ;
#22 = ADVANCED_BREP_SHAPE_REPRESENTATION ( '59515', ( #264, #20, #287 ), #77 ) ;
#23 = PRODUCT_RELATED_PRODUCT_CATEGORY ( 'part', '', ( #121 ) ) ;
#24 = AXIS2_PLACEMENT_3D ( 'NONE', #279, #201, #274 ) ;
#25 =( GEOMETRIC_REPRESENTATION_CONTEXT ( 3 ) GLOBAL_UNCERTAINTY_ASSIGNED_CONTEXT ( ( #34 ) ) GLOBAL_UNIT_ASSIGNED_CONTEXT ( ( #162, #144, #140 ) ) REPRESENTATION_CONTEXT ( 'NONE', 'WORKASPACE' ) );
#26 = PRESENTATION_LAYER_ASSIGNMENT (  '', '', ( #218 ) ) ;
#27 = VERTEX_POINT ( 'NONE', #94 ) ;
#28 = CARTESIAN_POINT ( 'NONE',  ( 3.673940397442059868E-16, 1.000000000000000000, 3.000000000000000000 ) ) ;
#29 = COLOUR_RGB ( '',0.7921568627450980005, 0.8196078431372548767, 0.9333333333333333481 ) ;
#30 = STYLED_ITEM ( 'NONE', ( #46 ), #198 ) ;
#31 = APPLICATION_CONTEXT ( 'automotive_design' ) ;
#32 = ORIENTED_EDGE ( 'NONE', *, *, #134, .F. ) ;
#33 = CARTESIAN_POINT ( 'NONE',  ( 0.000000000000000000, 0.000000000000000000, -4.000000000000000000 ) ) ;
#34 = UNCERTAINTY_MEASURE_WITH_UNIT (LENGTH_MEASURE( 1.000000000000000082E-05 ), #162, 'distance_accuracy_value', 'NONE');
#35 = CARTESIAN_POINT ( 'NONE',  ( 0.000000000000000000, 1.000000000000000000, -3.000000000000000000 ) ) ;
#36 = VERTEX_POINT ( 'NONE', #323 ) ;
#37 =( LENGTH_UNIT ( ) NAMED_UNIT ( * ) SI_UNIT ( .MILLI., .METRE. ) );
#38 = FILL_AREA_STYLE ('',( #271 ) ) ;
#39 = AXIS2_PLACEMENT_3D ( 'NONE', #83, #189, #223 ) ;
#40 = COLOUR_RGB ( '',0.7921568627450980005, 0.8196078431372548767, 0.9333333333333333481 ) ;
#41 =( LENGTH_UNIT ( ) NAMED_UNIT ( * ) SI_UNIT ( .MILLI., .METRE. ) );
#42 = ORIENTED_EDGE ( 'NONE', *, *, #369, .F. ) ;
#43 = DIRECTION ( 'NONE',  ( -0.000000000000000000, -1.000000000000000000, -0.000000000000000000 ) ) ;
#44 = FACE_OUTER_BOUND ( 'NONE', #263, .T. ) ;
#45 = EDGE_CURVE ( 'NONE', #293, #36, #296, .T. ) ;
#46 = PRESENTATION_STYLE_ASSIGNMENT (( #80 ) ) ;
#47 = LINE ( 'NONE', #18, #307 ) ;
#48 = PRESENTATION_LAYER_ASSIGNMENT (  '', '', ( #30 ) ) ;
#49 = CARTESIAN_POINT ( 'NONE',  ( 0.000000000000000000, 1.000000000000000000, 0.000000000000000000 ) ) ;
#50 = FACE_OUTER_BOUND ( 'NONE', #315, .T. ) ;
#51 = FILL_AREA_STYLE_COLOUR ( '', #109 ) ;
#52 = EDGE_CURVE ( 'NONE', #125, #36, #260, .T. ) ;
#53 =( NAMED_UNIT ( * ) SI_UNIT ( $, .STERADIAN. ) SOLID_ANGLE_UNIT ( ) );
#54 = CYLINDRICAL_SURFACE ( 'NONE', #96, 4.000000000000000000 ) ;
#55 = MECHANICAL_DESIGN_GEOMETRIC_PRESENTATION_REPRESENTATION (  '', ( #93 ), #365 ) ;
#56 = SHAPE_DEFINITION_REPRESENTATION ( #316, #22 ) ;
#57 = SURFACE_STYLE_USAGE ( .BOTH. , #1 ) ;
#58 =( GEOMETRIC_REPRESENTATION_CONTEXT ( 3 ) GLOBAL_UNCERTAINTY_ASSIGNED_CONTEXT ( ( #353 ) ) GLOBAL_UNIT_ASSIGNED_CONTEXT ( ( #41, #102, #330 ) ) REPRESENTATION_CONTEXT ( 'NONE', 'WORKASPACE' ) );
#59 =( LENGTH_UNIT ( ) NAMED_UNIT ( * ) SI_UNIT ( .MILLI., .METRE. ) );
#60 = EDGE_CURVE ( 'NONE', #358, #118, #132, .T. ) ;
#61 = ORIENTED_EDGE ( 'NONE', *, *, #9, .T. ) ;
#62 = COLOUR_RGB ( '',1.000000000000000000, 0.000000000000000000, 0.000000000000000000 ) ;
#63 = PRESENTATION_STYLE_ASSIGNMENT (( #154 ) ) ;
#64 = CYLINDRICAL_SURFACE ( 'NONE', #351, 4.000000000000000000 ) ;
#65 = ORIENTED_EDGE ( 'NONE', *, *, #60, .F. ) ;
#66 =( NAMED_UNIT ( * ) PLANE_ANGLE_UNIT ( ) SI_UNIT ( $, .RADIAN. ) );
#67 =( GEOMETRIC_REPRESENTATION_CONTEXT ( 3 ) GLOBAL_UNCERTAINTY_ASSIGNED_CONTEXT ( ( #147 ) ) GLOBAL_UNIT_ASSIGNED_CONTEXT ( ( #172, #66, #239 ) ) REPRESENTATION_CONTEXT ( 'NONE', 'WORKASPACE' ) );
#68 = ADVANCED_FACE ( 'NONE', ( #124 ), #292, .F. ) ;
#69 = EDGE_LOOP ( 'NONE', ( #179, #300 ) ) ;
#70 = CARTESIAN_POINT ( 'NONE',  ( 0.000000000000000000, 1.000000000000000000, 0.000000000000000000 ) ) ;
#71 = UNCERTAINTY_MEASURE_WITH_UNIT (LENGTH_MEASURE( 1.000000000000000082E-05 ), #261, 'distance_accuracy_value', 'NONE');
#72 = ORIENTED_EDGE ( 'NONE', *, *, #12, .T. ) ;
#73 = DIRECTION ( 'NONE',  ( -1.000000000000000000, 0.000000000000000000, 0.000000000000000000 ) ) ;
#74 = DIRECTION ( 'NONE',  ( -0.000000000000000000, -1.000000000000000000, -0.000000000000000000 ) ) ;
#75 = TOROIDAL_SURFACE ( 'NONE', #242, 3.000000000000000000, 1.000000000000000000 ) ;
#76 = MECHANICAL_DESIGN_GEOMETRIC_PRESENTATION_REPRESENTATION (  '', ( #248 ), #331 ) ;
#77 =( GEOMETRIC_REPRESENTATION_CONTEXT ( 3 ) GLOBAL_UNCERTAINTY_ASSIGNED_CONTEXT ( ( #269 ) ) GLOBAL_UNIT_ASSIGNED_CONTEXT ( ( #59, #115, #255 ) ) REPRESENTATION_CONTEXT ( 'NONE', 'WORKASPACE' ) );
#78 = EDGE_CURVE ( 'NONE', #184, #125, #226, .T. ) ;
#79 = DIRECTION ( 'NONE',  ( -1.223542297630008506E-16, 1.000000000000000000, 0.000000000000000000 ) ) ;
#80 = SURFACE_STYLE_USAGE ( .BOTH. , #220 ) ;
#81 = CARTESIAN_POINT ( 'NONE',  ( 4.000000000000000000, 75.00000000000000000, 4.898587196589412829E-16 ) ) ;
#82 = ADVANCED_FACE ( 'NONE', ( #325 ), #64, .T. ) ;
#83 = CARTESIAN_POINT ( 'NONE',  ( 0.000000000000000000, 24.00000000000000000, 0.000000000000000000 ) ) ;
#84 = DIRECTION ( 'NONE',  ( -0.000000000000000000, -1.000000000000000000, -0.000000000000000000 ) ) ;
#85 = PRESENTATION_LAYER_ASSIGNMENT (  '', '', ( #93 ) ) ;
#86 = STYLED_ITEM ( 'NONE', ( #327 ), #82 ) ;
#87 = AXIS2_PLACEMENT_3D ( 'NONE', #195, #332, #301 ) ;
#88 = ORIENTED_EDGE ( 'NONE', *, *, #141, .T. ) ;
#89 = FACE_OUTER_BOUND ( 'NONE', #324, .T. ) ;
#90 = APPLICATION_PROTOCOL_DEFINITION ( 'draft international standard', 'automotive_design', 1998, #31 ) ;
#91 = UNCERTAINTY_MEASURE_WITH_UNIT (LENGTH_MEASURE( 1.000000000000000082E-05 ), #133, 'distance_accuracy_value', 'NONE');
#92 = EDGE_LOOP ( 'NONE', ( #42, #112, #227, #208 ) ) ;
#93 = STYLED_ITEM ( 'NONE', ( #116 ), #20 ) ;
#94 = CARTESIAN_POINT ( 'NONE',  ( 0.000000000000000000, 24.00000000000000000, -4.000000000000000000 ) ) ;
#95 = CIRCLE ( 'NONE', #150, 4.000000000000000000 ) ;
#96 = AXIS2_PLACEMENT_3D ( 'NONE', #291, #298, #209 ) ;
#97 = EDGE_LOOP ( 'NONE', ( #72, #254, #159, #101 ) ) ;
#98 = FACE_OUTER_BOUND ( 'NONE', #69, .T. ) ;
#99 = ORIENTED_EDGE ( 'NONE', *, *, #185, .F. ) ;
#100 = COLOUR_RGB ( '',1.000000000000000000, 0.000000000000000000, 0.000000000000000000 ) ;
#101 = ORIENTED_EDGE ( 'NONE', *, *, #52, .F. ) ;
#102 =( NAMED_UNIT ( * ) PLANE_ANGLE_UNIT ( ) SI_UNIT ( $, .RADIAN. ) );
#103 = ORIENTED_EDGE ( 'NONE', *, *, #308, .F. ) ;
#104 = DIRECTION ( 'NONE',  ( 0.000000000000000000, 0.000000000000000000, -1.000000000000000000 ) ) ;
#105 = CIRCLE ( 'NONE', #87, 4.000000000000000000 ) ;
#106 = CARTESIAN_POINT ( 'NONE',  ( 4.000000000000000000, 24.00000000000000000, 4.898587196589413815E-16 ) ) ;
#107 = DIRECTION ( 'NONE',  ( -1.223542297630008506E-16, 1.000000000000000000, -0.000000000000000000 ) ) ;
#108 = FACE_OUTER_BOUND ( 'NONE', #97, .T. ) ;
#109 = COLOUR_RGB ( '',1.000000000000000000, 0.000000000000000000, 0.000000000000000000 ) ;
#110 = FILL_AREA_STYLE ('',( #51 ) ) ;
#111 = EDGE_LOOP ( 'NONE', ( #120, #61, #340, #99 ) ) ;
#112 = ORIENTED_EDGE ( 'NONE', *, *, #185, .T. ) ;
#113 = ADVANCED_FACE ( 'NONE', ( #108 ), #222, .T. ) ;
#114 = FILL_AREA_STYLE ('',( #5 ) ) ;
#115 =( NAMED_UNIT ( * ) PLANE_ANGLE_UNIT ( ) SI_UNIT ( $, .RADIAN. ) );
#116 = PRESENTATION_STYLE_ASSIGNMENT (( #57 ) ) ;
#117 = MECHANICAL_DESIGN_GEOMETRIC_PRESENTATION_REPRESENTATION (  '', ( #256 ), #299 ) ;
#118 = VERTEX_POINT ( 'NONE', #272 ) ;
#119 = PRESENTATION_STYLE_ASSIGNMENT (( #341 ) ) ;
#120 = ORIENTED_EDGE ( 'NONE', *, *, #141, .F. ) ;
#121 = PRODUCT ( '59515', '59515', '', ( #276 ) ) ;
#122 =( NAMED_UNIT ( * ) PLANE_ANGLE_UNIT ( ) SI_UNIT ( $, .RADIAN. ) );
#123 = SURFACE_SIDE_STYLE ('',( #361 ) ) ;
#124 = FACE_OUTER_BOUND ( 'NONE', #275, .T. ) ;
#125 = VERTEX_POINT ( 'NONE', #130 ) ;
#126 = AXIS2_PLACEMENT_3D ( 'NONE', #35, #295, #283 ) ;
#127 = CARTESIAN_POINT ( 'NONE',  ( 4.286263797015736595E-16, 0.000000000000000000, 3.000000000000000000 ) ) ;
#128 = TOROIDAL_SURFACE ( 'NONE', #203, 3.000000000000000000, 1.000000000000000000 ) ;
#129 = FILL_AREA_STYLE ('',( #16 ) ) ;
#130 = CARTESIAN_POINT ( 'NONE',  ( -3.999999999999991562, 24.00000000000000000, 0.000000000000000000 ) ) ;
#131 = PRESENTATION_STYLE_ASSIGNMENT (( #19 ) ) ;
#132 = CIRCLE ( 'NONE', #126, 1.000000000000000000 ) ;
#133 =( LENGTH_UNIT ( ) NAMED_UNIT ( * ) SI_UNIT ( .MILLI., .METRE. ) );
#134 = EDGE_CURVE ( 'NONE', #27, #312, #15, .T. ) ;
#135 = DIRECTION ( 'NONE',  ( -1.000000000000000000, 0.000000000000000000, 0.000000000000000000 ) ) ;
#136 =( NAMED_UNIT ( * ) PLANE_ANGLE_UNIT ( ) SI_UNIT ( $, .RADIAN. ) );
#137 = ORIENTED_EDGE ( 'NONE', *, *, #9, .F. ) ;
#138 = CARTESIAN_POINT ( 'NONE',  ( -1.469576158976823750E-15, 75.00000000000000000, 0.000000000000000000 ) ) ;
#139 = SURFACE_STYLE_FILL_AREA ( #277 ) ;
#140 =( NAMED_UNIT ( * ) SI_UNIT ( $, .STERADIAN. ) SOLID_ANGLE_UNIT ( ) );
#141 = EDGE_CURVE ( 'NONE', #312, #258, #337, .T. ) ;
#142 = SURFACE_STYLE_USAGE ( .BOTH. , #225 ) ;
#143 = DIRECTION ( 'NONE',  ( -1.000000000000000000, 0.000000000000000000, 0.000000000000000000 ) ) ;
#144 =( NAMED_UNIT ( * ) PLANE_ANGLE_UNIT ( ) SI_UNIT ( $, .RADIAN. ) );
#145 = ORIENTED_EDGE ( 'NONE', *, *, #302, .T. ) ;
#146 = CARTESIAN_POINT ( 'NONE',  ( 0.000000000000000000, 0.000000000000000000, 0.000000000000000000 ) ) ;
#147 = UNCERTAINTY_MEASURE_WITH_UNIT (LENGTH_MEASURE( 1.000000000000000082E-05 ), #172, 'distance_accuracy_value', 'NONE');
#148 = ORIENTED_EDGE ( 'NONE', *, *, #302, .F. ) ;
#149 = CLOSED_SHELL ( 'NONE', ( #113, #349, #355, #68 ) ) ;
#150 = AXIS2_PLACEMENT_3D ( 'NONE', #49, #84, #268 ) ;
#151 = PRODUCT_DEFINITION_FORMATION_WITH_SPECIFIED_SOURCE ( 'ANY', '', #121, .NOT_KNOWN. ) ;
#152 = CARTESIAN_POINT ( 'NONE',  ( 4.000000000000000000, 75.00000000000000000, 0.000000000000000000 ) ) ;
#153 = ORIENTED_EDGE ( 'NONE', *, *, #369, .T. ) ;
#154 = SURFACE_STYLE_USAGE ( .BOTH. , #10 ) ;
#155 = PRODUCT_DEFINITION ( 'UNKNOWN', '', #151, #305 ) ;
#156 = SURFACE_SIDE_STYLE ('',( #366 ) ) ;
#157 = CARTESIAN_POINT ( 'NONE',  ( 4.898587196589412829E-16, 1.000000000000000000, 4.000000000000000000 ) ) ;
#158 = DIRECTION ( 'NONE',  ( -1.000000000000000000, 0.000000000000000000, 0.000000000000000000 ) ) ;
#159 = ORIENTED_EDGE ( 'NONE', *, *, #363, .F. ) ;
#160 = CARTESIAN_POINT ( 'NONE',  ( 4.898587196589412829E-16, 0.000000000000000000, 4.000000000000000000 ) ) ;
#161 = CARTESIAN_POINT ( 'NONE',  ( -1.469576158976823750E-15, 75.00000000000000000, 0.000000000000000000 ) ) ;
#162 =( LENGTH_UNIT ( ) NAMED_UNIT ( * ) SI_UNIT ( .MILLI., .METRE. ) );
#163 = DIRECTION ( 'NONE',  ( -1.223542297630008506E-16, 1.000000000000000000, -0.000000000000000000 ) ) ;
#164 = AXIS2_PLACEMENT_3D ( 'NONE', #138, #234, #143 ) ;
#165 =( NAMED_UNIT ( * ) SI_UNIT ( $, .STERADIAN. ) SOLID_ANGLE_UNIT ( ) );
#166 = PRESENTATION_LAYER_ASSIGNMENT (  '', '', ( #368 ) ) ;
#167 =( LENGTH_UNIT ( ) NAMED_UNIT ( * ) SI_UNIT ( .MILLI., .METRE. ) );
#168 = CLOSED_SHELL ( 'NONE', ( #82, #328, #284, #198, #206, #280 ) ) ;
#169 = FILL_AREA_STYLE_COLOUR ( '', #273 ) ;
#170 = ORIENTED_EDGE ( 'NONE', *, *, #45, .F. ) ;
#171 = CIRCLE ( 'NONE', #13, 1.000000000000000000 ) ;
#172 =( LENGTH_UNIT ( ) NAMED_UNIT ( * ) SI_UNIT ( .MILLI., .METRE. ) );
#173 = ORIENTED_EDGE ( 'NONE', *, *, #12, .F. ) ;
#174 = MECHANICAL_DESIGN_GEOMETRIC_PRESENTATION_REPRESENTATION (  '', ( #86 ), #58 ) ;
#175 = CARTESIAN_POINT ( 'NONE',  ( 0.000000000000000000, 24.00000000000000000, 0.000000000000000000 ) ) ;
#176 = AXIS2_PLACEMENT_3D ( 'NONE', #152, #237, #178 ) ;
#177 = FILL_AREA_STYLE ('',( #313 ) ) ;
#178 = DIRECTION ( 'NONE',  ( 1.000000000000000000, 1.223542297630008506E-16, 0.000000000000000000 ) ) ;
#179 = ORIENTED_EDGE ( 'NONE', *, *, #247, .T. ) ;
#180 = AXIS2_PLACEMENT_3D ( 'NONE', #333, #79, #190 ) ;
#181 = CARTESIAN_POINT ( 'NONE',  ( 0.000000000000000000, 1.000000000000000000, 0.000000000000000000 ) ) ;
#182 = LINE ( 'NONE', #33, #336 ) ;
#183 = ORIENTED_EDGE ( 'NONE', *, *, #78, .F. ) ;
#184 = VERTEX_POINT ( 'NONE', #106 ) ;
#185 = EDGE_CURVE ( 'NONE', #258, #358, #95, .T. ) ;
#186 = DIRECTION ( 'NONE',  ( -1.223542297630008506E-16, 1.000000000000000000, -0.000000000000000000 ) ) ;
#187 = CIRCLE ( 'NONE', #285, 3.000000000000000000 ) ;
#188 = PLANE ( 'NONE',  #180 ) ;
#189 = DIRECTION ( 'NONE',  ( -0.000000000000000000, -1.000000000000000000, -0.000000000000000000 ) ) ;
#190 = DIRECTION ( 'NONE',  ( -1.000000000000000000, -1.223542297630008506E-16, 0.000000000000000000 ) ) ;
#191 = CARTESIAN_POINT ( 'NONE',  ( -1.469576158976823750E-15, 75.00000000000000000, 0.000000000000000000 ) ) ;
#192 = DIRECTION ( 'NONE',  ( 0.000000000000000000, 0.000000000000000000, -1.000000000000000000 ) ) ;
#193 = CIRCLE ( 'NONE', #24, 4.000000000000000000 ) ;
#194 = DIRECTION ( 'NONE',  ( -1.000000000000000000, 0.000000000000000000, 0.000000000000000000 ) ) ;
#195 = CARTESIAN_POINT ( 'NONE',  ( 0.000000000000000000, 1.000000000000000000, 0.000000000000000000 ) ) ;
#196 = CIRCLE ( 'NONE', #253, 3.000000000000000000 ) ;
#197 = FACE_OUTER_BOUND ( 'NONE', #92, .T. ) ;
#198 = ADVANCED_FACE ( 'NONE', ( #197 ), #75, .T. ) ;
#199 = SURFACE_STYLE_FILL_AREA ( #110 ) ;
#200 = FACE_OUTER_BOUND ( 'NONE', #111, .T. ) ;
#201 = DIRECTION ( 'NONE',  ( -0.000000000000000000, -1.000000000000000000, -0.000000000000000000 ) ) ;
#202 = VERTEX_POINT ( 'NONE', #127 ) ;
#203 = AXIS2_PLACEMENT_3D ( 'NONE', #70, #74, #104 ) ;
#204 = ORIENTED_EDGE ( 'NONE', *, *, #78, .T. ) ;
#205 =( NAMED_UNIT ( * ) SI_UNIT ( $, .STERADIAN. ) SOLID_ANGLE_UNIT ( ) );
#206 = ADVANCED_FACE ( 'NONE', ( #200 ), #54, .T. ) ;
#207 = DIRECTION ( 'NONE',  ( -0.000000000000000000, -1.000000000000000000, -0.000000000000000000 ) ) ;
#208 = ORIENTED_EDGE ( 'NONE', *, *, #311, .F. ) ;
#209 = DIRECTION ( 'NONE',  ( 0.000000000000000000, 0.000000000000000000, -1.000000000000000000 ) ) ;
#210 = DIRECTION ( 'NONE',  ( 0.000000000000000000, 0.000000000000000000, -1.000000000000000000 ) ) ;
#211 = UNCERTAINTY_MEASURE_WITH_UNIT (LENGTH_MEASURE( 1.000000000000000082E-05 ), #37, 'distance_accuracy_value', 'NONE');
#212 = CARTESIAN_POINT ( 'NONE',  ( 4.770489558936219510E-15, 24.00000000000000000, 0.000000000000000000 ) ) ;
#213 = FACE_OUTER_BOUND ( 'NONE', #238, .T. ) ;
#214 = SURFACE_STYLE_USAGE ( .BOTH. , #123 ) ;
#215 = CARTESIAN_POINT ( 'NONE',  ( 4.898587196589412829E-16, 24.00000000000000000, 4.000000000000000000 ) ) ;
#216 = ORIENTED_EDGE ( 'NONE', *, *, #363, .T. ) ;
#217 = STYLED_ITEM ( 'NONE', ( #326 ), #206 ) ;
#218 = STYLED_ITEM ( 'NONE', ( #119 ), #284 ) ;
#219 = DIRECTION ( 'NONE',  ( 0.000000000000000000, -1.000000000000000000, -0.000000000000000000 ) ) ;
#220 = SURFACE_SIDE_STYLE ('',( #249 ) ) ;
#221 = CYLINDRICAL_SURFACE ( 'NONE', #321, 3.999999999999998224 ) ;
#222 = CYLINDRICAL_SURFACE ( 'NONE', #367, 3.999999999999998224 ) ;
#223 = DIRECTION ( 'NONE',  ( 0.000000000000000000, 0.000000000000000000, -1.000000000000000000 ) ) ;
#224 = MECHANICAL_DESIGN_GEOMETRIC_PRESENTATION_REPRESENTATION (  '', ( #218 ), #67 ) ;
#225 = SURFACE_SIDE_STYLE ('',( #199 ) ) ;
#226 = CIRCLE ( 'NONE', #343, 3.999999999999996447 ) ;
#227 = ORIENTED_EDGE ( 'NONE', *, *, #60, .T. ) ;
#228 = COLOUR_RGB ( '',1.000000000000000000, 0.000000000000000000, 0.000000000000000000 ) ;
#229 = COLOUR_RGB ( '',1.000000000000000000, 0.000000000000000000, 0.000000000000000000 ) ;
#230 =( NAMED_UNIT ( * ) PLANE_ANGLE_UNIT ( ) SI_UNIT ( $, .RADIAN. ) );
#231 = DIRECTION ( 'NONE',  ( 1.000000000000000000, 0.000000000000000000, 0.000000000000000000 ) ) ;
#232 = DIRECTION ( 'NONE',  ( 0.000000000000000000, 1.000000000000000000, 0.000000000000000000 ) ) ;
#233 = AXIS2_PLACEMENT_3D ( 'NONE', #6, #309, #135 ) ;
#234 = DIRECTION ( 'NONE',  ( -1.223542297630008506E-16, 1.000000000000000000, -0.000000000000000000 ) ) ;
#235 =( GEOMETRIC_REPRESENTATION_CONTEXT ( 3 ) GLOBAL_UNCERTAINTY_ASSIGNED_CONTEXT ( ( #339 ) ) GLOBAL_UNIT_ASSIGNED_CONTEXT ( ( #347, #318, #244 ) ) REPRESENTATION_CONTEXT ( 'NONE', 'WORKASPACE' ) );
#236 = ORIENTED_EDGE ( 'NONE', *, *, #45, .T. ) ;
#237 = DIRECTION ( 'NONE',  ( 1.223542297630008506E-16, -1.000000000000000000, 0.000000000000000000 ) ) ;
#238 = EDGE_LOOP ( 'NONE', ( #173, #183 ) ) ;
#239 =( NAMED_UNIT ( * ) SI_UNIT ( $, .STERADIAN. ) SOLID_ANGLE_UNIT ( ) );
#240 = EDGE_CURVE ( 'NONE', #27, #358, #182, .T. ) ;
#241 =( NAMED_UNIT ( * ) PLANE_ANGLE_UNIT ( ) SI_UNIT ( $, .RADIAN. ) );
#242 = AXIS2_PLACEMENT_3D ( 'NONE', #181, #290, #310 ) ;
#243 = AXIS2_PLACEMENT_3D ( 'NONE', #359, #219, #192 ) ;
#244 =( NAMED_UNIT ( * ) SI_UNIT ( $, .STERADIAN. ) SOLID_ANGLE_UNIT ( ) );
#245 = FILL_AREA_STYLE_COLOUR ( '', #40 ) ;
#246 = DIRECTION ( 'NONE',  ( -1.223542297630008506E-16, 1.000000000000000000, -0.000000000000000000 ) ) ;
#247 = EDGE_CURVE ( 'NONE', #118, #202, #196, .T. ) ;
#248 = STYLED_ITEM ( 'NONE', ( #338 ), #280 ) ;
#249 = SURFACE_STYLE_FILL_AREA ( #129 ) ;
#250 = CARTESIAN_POINT ( 'NONE',  ( 0.000000000000000000, 0.000000000000000000, 0.000000000000000000 ) ) ;
#251 = CARTESIAN_POINT ( 'NONE',  ( 0.000000000000000000, 1.000000000000000000, -4.000000000000000000 ) ) ;
#252 = PRESENTATION_LAYER_ASSIGNMENT (  '', '', ( #256 ) ) ;
#253 = AXIS2_PLACEMENT_3D ( 'NONE', #267, #207, #210 ) ;
#254 = ORIENTED_EDGE ( 'NONE', *, *, #308, .T. ) ;
#255 =( NAMED_UNIT ( * ) SI_UNIT ( $, .STERADIAN. ) SOLID_ANGLE_UNIT ( ) );
#256 = STYLED_ITEM ( 'NONE', ( #63 ), #264 ) ;
#257 = ORIENTED_EDGE ( 'NONE', *, *, #240, .F. ) ;
#258 = VERTEX_POINT ( 'NONE', #157 ) ;
#259 = PLANE ( 'NONE',  #243 ) ;
#260 = LINE ( 'NONE', #354, #14 ) ;
#261 =( LENGTH_UNIT ( ) NAMED_UNIT ( * ) SI_UNIT ( .MILLI., .METRE. ) );
#262 = DIRECTION ( 'NONE',  ( -1.223542297630008506E-16, 1.000000000000000000, -0.000000000000000000 ) ) ;
#263 = EDGE_LOOP ( 'NONE', ( #103, #204, #362, #170 ) ) ;
#264 = MANIFOLD_SOLID_BREP ( 'Revolve - Cutting Edge', #168 ) ;
#265 = FILL_AREA_STYLE_COLOUR ( '', #62 ) ;
#266 = PRESENTATION_LAYER_ASSIGNMENT (  '', '', ( #217 ) ) ;
#267 = CARTESIAN_POINT ( 'NONE',  ( 0.000000000000000000, 0.000000000000000000, 0.000000000000000000 ) ) ;
#268 = DIRECTION ( 'NONE',  ( 0.000000000000000000, 0.000000000000000000, -1.000000000000000000 ) ) ;
#269 = UNCERTAINTY_MEASURE_WITH_UNIT (LENGTH_MEASURE( 1.000000000000000082E-05 ), #59, 'distance_accuracy_value', 'NONE');
#270 = MECHANICAL_DESIGN_GEOMETRIC_PRESENTATION_REPRESENTATION (  '', ( #217 ), #352 ) ;
#271 = FILL_AREA_STYLE_COLOUR ( '', #100 ) ;
#272 = CARTESIAN_POINT ( 'NONE',  ( 0.000000000000000000, 0.000000000000000000, -3.000000000000000000 ) ) ;
#273 = COLOUR_RGB ( '',1.000000000000000000, 0.000000000000000000, 0.000000000000000000 ) ;
#274 = DIRECTION ( 'NONE',  ( 0.000000000000000000, 0.000000000000000000, -1.000000000000000000 ) ) ;
#275 = EDGE_LOOP ( 'NONE', ( #216, #236 ) ) ;
#276 = PRODUCT_CONTEXT ( 'NONE', #350, 'mechanical' ) ;
#277 = FILL_AREA_STYLE ('',( #169 ) ) ;
#278 = DIRECTION ( 'NONE',  ( 1.000000000000000000, 0.000000000000000000, -1.224646799147353207E-16 ) ) ;
#279 = CARTESIAN_POINT ( 'NONE',  ( 0.000000000000000000, 24.00000000000000000, 0.000000000000000000 ) ) ;
#280 = ADVANCED_FACE ( 'NONE', ( #89 ), #370, .T. ) ;
#281 = AXIS2_PLACEMENT_3D ( 'NONE', #21, #186, #158 ) ;
#282 = SURFACE_STYLE_FILL_AREA ( #360 ) ;
#283 = DIRECTION ( 'NONE',  ( 0.000000000000000000, 0.000000000000000000, 1.000000000000000000 ) ) ;
#284 = ADVANCED_FACE ( 'NONE', ( #98 ), #259, .T. ) ;
#285 = AXIS2_PLACEMENT_3D ( 'NONE', #250, #335, #304 ) ;
#286 = SURFACE_STYLE_USAGE ( .BOTH. , #294 ) ;
#287 = AXIS2_PLACEMENT_3D ( 'NONE', #146, #3, #231 ) ;
#288 = CARTESIAN_POINT ( 'NONE',  ( 0.000000000000000000, 0.000000000000000000, 0.000000000000000000 ) ) ;
#289 = ORIENTED_EDGE ( 'NONE', *, *, #134, .T. ) ;
#290 = DIRECTION ( 'NONE',  ( -0.000000000000000000, -1.000000000000000000, -0.000000000000000000 ) ) ;
#291 = CARTESIAN_POINT ( 'NONE',  ( 0.000000000000000000, 0.000000000000000000, 0.000000000000000000 ) ) ;
#292 = PLANE ( 'NONE',  #176 ) ;
#293 = VERTEX_POINT ( 'NONE', #81 ) ;
#294 = SURFACE_SIDE_STYLE ('',( #139 ) ) ;
#295 = DIRECTION ( 'NONE',  ( -1.000000000000000000, 0.000000000000000000, 0.000000000000000000 ) ) ;
#296 = CIRCLE ( 'NONE', #281, 4.000000000000001776 ) ;
#297 = EDGE_LOOP ( 'NONE', ( #289, #88, #148, #257 ) ) ;
#298 = DIRECTION ( 'NONE',  ( -0.000000000000000000, -1.000000000000000000, -0.000000000000000000 ) ) ;
#299 =( GEOMETRIC_REPRESENTATION_CONTEXT ( 3 ) GLOBAL_UNCERTAINTY_ASSIGNED_CONTEXT ( ( #71 ) ) GLOBAL_UNIT_ASSIGNED_CONTEXT ( ( #261, #241, #165 ) ) REPRESENTATION_CONTEXT ( 'NONE', 'WORKASPACE' ) );
#300 = ORIENTED_EDGE ( 'NONE', *, *, #311, .T. ) ;
#301 = DIRECTION ( 'NONE',  ( 0.000000000000000000, 0.000000000000000000, -1.000000000000000000 ) ) ;
#302 = EDGE_CURVE ( 'NONE', #358, #258, #105, .T. ) ;
#303 = DIRECTION ( 'NONE',  ( -0.000000000000000000, -1.000000000000000000, -0.000000000000000000 ) ) ;
#304 = DIRECTION ( 'NONE',  ( 0.000000000000000000, 0.000000000000000000, -1.000000000000000000 ) ) ;
#305 = PRODUCT_DEFINITION_CONTEXT ( 'detailed design', #31, 'design' ) ;
#306 = PRESENTATION_LAYER_ASSIGNMENT (  '', '', ( #86 ) ) ;
#307 = VECTOR ( 'NONE', #163, 1000.000000000000000 ) ;
#308 = EDGE_CURVE ( 'NONE', #184, #293, #47, .T. ) ;
#309 = DIRECTION ( 'NONE',  ( -1.223542297630008506E-16, 1.000000000000000000, -0.000000000000000000 ) ) ;
#310 = DIRECTION ( 'NONE',  ( 0.000000000000000000, 0.000000000000000000, -1.000000000000000000 ) ) ;
#311 = EDGE_CURVE ( 'NONE', #202, #118, #187, .T. ) ;
#312 = VERTEX_POINT ( 'NONE', #215 ) ;
#313 = FILL_AREA_STYLE_COLOUR ( '', #229 ) ;
#314 = AXIS2_PLACEMENT_3D ( 'NONE', #175, #232, #11 ) ;
#315 = EDGE_LOOP ( 'NONE', ( #145, #153, #317, #65 ) ) ;
#316 = PRODUCT_DEFINITION_SHAPE ( 'NONE', 'NONE',  #155 ) ;
#317 = ORIENTED_EDGE ( 'NONE', *, *, #247, .F. ) ;
#318 =( NAMED_UNIT ( * ) PLANE_ANGLE_UNIT ( ) SI_UNIT ( $, .RADIAN. ) );
#319 = CIRCLE ( 'NONE', #233, 3.999999999999996447 ) ;
#320 = SURFACE_STYLE_FILL_AREA ( #177 ) ;
#321 = AXIS2_PLACEMENT_3D ( 'NONE', #161, #364, #334 ) ;
#322 = UNCERTAINTY_MEASURE_WITH_UNIT (LENGTH_MEASURE( 1.000000000000000082E-05 ), #167, 'distance_accuracy_value', 'NONE');
#323 = CARTESIAN_POINT ( 'NONE',  ( -4.000000000000003553, 75.00000000000000000, 0.000000000000000000 ) ) ;
#324 = EDGE_LOOP ( 'NONE', ( #32, #137 ) ) ;
#325 = FACE_OUTER_BOUND ( 'NONE', #297, .T. ) ;
#326 = PRESENTATION_STYLE_ASSIGNMENT (( #286 ) ) ;
#327 = PRESENTATION_STYLE_ASSIGNMENT (( #214 ) ) ;
#328 = ADVANCED_FACE ( 'NONE', ( #50 ), #128, .T. ) ;
#329 = DIRECTION ( 'NONE',  ( 0.000000000000000000, 0.000000000000000000, -1.000000000000000000 ) ) ;
#330 =( NAMED_UNIT ( * ) SI_UNIT ( $, .STERADIAN. ) SOLID_ANGLE_UNIT ( ) );
#331 =( GEOMETRIC_REPRESENTATION_CONTEXT ( 3 ) GLOBAL_UNCERTAINTY_ASSIGNED_CONTEXT ( ( #91 ) ) GLOBAL_UNIT_ASSIGNED_CONTEXT ( ( #133, #136, #53 ) ) REPRESENTATION_CONTEXT ( 'NONE', 'WORKASPACE' ) );
#332 = DIRECTION ( 'NONE',  ( -0.000000000000000000, -1.000000000000000000, -0.000000000000000000 ) ) ;
#333 = CARTESIAN_POINT ( 'NONE',  ( 4.770489558936219510E-15, 24.00000000000000000, 0.000000000000000000 ) ) ;
#334 = DIRECTION ( 'NONE',  ( -1.000000000000000000, 0.000000000000000000, 0.000000000000000000 ) ) ;
#335 = DIRECTION ( 'NONE',  ( -0.000000000000000000, -1.000000000000000000, -0.000000000000000000 ) ) ;
#336 = VECTOR ( 'NONE', #348, 1000.000000000000000 ) ;
#337 = LINE ( 'NONE', #160, #2 ) ;
#338 = PRESENTATION_STYLE_ASSIGNMENT (( #142 ) ) ;
#339 = UNCERTAINTY_MEASURE_WITH_UNIT (LENGTH_MEASURE( 1.000000000000000082E-05 ), #347, 'distance_accuracy_value', 'NONE');
#340 = ORIENTED_EDGE ( 'NONE', *, *, #240, .T. ) ;
#341 = SURFACE_STYLE_USAGE ( .BOTH. , #7 ) ;
#342 = DIRECTION ( 'NONE',  ( -1.224646799147352961E-16, 0.000000000000000000, -1.000000000000000000 ) ) ;
#343 = AXIS2_PLACEMENT_3D ( 'NONE', #212, #262, #73 ) ;
#344 = APPLICATION_PROTOCOL_DEFINITION ( 'draft international standard', 'automotive_design', 1998, #350 ) ;
#345 = MECHANICAL_DESIGN_GEOMETRIC_PRESENTATION_REPRESENTATION (  '', ( #30 ), #25 ) ;
#346 = MECHANICAL_DESIGN_GEOMETRIC_PRESENTATION_REPRESENTATION (  '', ( #368 ), #235 ) ;
#347 =( LENGTH_UNIT ( ) NAMED_UNIT ( * ) SI_UNIT ( .MILLI., .METRE. ) );
#348 = DIRECTION ( 'NONE',  ( -0.000000000000000000, -1.000000000000000000, -0.000000000000000000 ) ) ;
#349 = ADVANCED_FACE ( 'NONE', ( #213 ), #188, .F. ) ;
#350 = APPLICATION_CONTEXT ( 'automotive_design' ) ;
#351 = AXIS2_PLACEMENT_3D ( 'NONE', #288, #43, #329 ) ;
#352 =( GEOMETRIC_REPRESENTATION_CONTEXT ( 3 ) GLOBAL_UNCERTAINTY_ASSIGNED_CONTEXT ( ( #211 ) ) GLOBAL_UNIT_ASSIGNED_CONTEXT ( ( #37, #122, #356 ) ) REPRESENTATION_CONTEXT ( 'NONE', 'WORKASPACE' ) );
#353 = UNCERTAINTY_MEASURE_WITH_UNIT (LENGTH_MEASURE( 1.000000000000000082E-05 ), #41, 'distance_accuracy_value', 'NONE');
#354 = CARTESIAN_POINT ( 'NONE',  ( -4.000000000000000000, 75.00000000000000000, 0.000000000000000000 ) ) ;
#355 = ADVANCED_FACE ( 'NONE', ( #44 ), #221, .T. ) ;
#356 =( NAMED_UNIT ( * ) SI_UNIT ( $, .STERADIAN. ) SOLID_ANGLE_UNIT ( ) );
#357 = FILL_AREA_STYLE ('',( #265 ) ) ;
#358 = VERTEX_POINT ( 'NONE', #251 ) ;
#359 = CARTESIAN_POINT ( 'NONE',  ( 0.000000000000000000, 0.000000000000000000, 0.000000000000000000 ) ) ;
#360 = FILL_AREA_STYLE ('',( #245 ) ) ;
#361 = SURFACE_STYLE_FILL_AREA ( #357 ) ;
#362 = ORIENTED_EDGE ( 'NONE', *, *, #52, .T. ) ;
#363 = EDGE_CURVE ( 'NONE', #36, #293, #17, .T. ) ;
#364 = DIRECTION ( 'NONE',  ( -1.223542297630008506E-16, 1.000000000000000000, -0.000000000000000000 ) ) ;
#365 =( GEOMETRIC_REPRESENTATION_CONTEXT ( 3 ) GLOBAL_UNCERTAINTY_ASSIGNED_CONTEXT ( ( #322 ) ) GLOBAL_UNIT_ASSIGNED_CONTEXT ( ( #167, #230, #205 ) ) REPRESENTATION_CONTEXT ( 'NONE', 'WORKASPACE' ) );
#366 = SURFACE_STYLE_FILL_AREA ( #38 ) ;
#367 = AXIS2_PLACEMENT_3D ( 'NONE', #191, #107, #194 ) ;
#368 = STYLED_ITEM ( 'NONE', ( #131 ), #328 ) ;
#369 = EDGE_CURVE ( 'NONE', #258, #202, #171, .T. ) ;
#370 = PLANE ( 'NONE',  #314 ) ;
ENDSEC;
END-ISO-10303-21;
