ISO-10303-21;
HEADER;
FILE_DESCRIPTION (( 'STEP AP214' ),
    '1' );
FILE_NAME ('06360.STEP',
    '2023-07-05T16:02:01',
    ( '' ),
    ( '' ),
    'SwSTEP 2.0',
    'SolidWorks 2023',
    '' );
FILE_SCHEMA (( 'AUTOMOTIVE_DESIGN' ));
ENDSEC;

DATA;
#1 = FILL_AREA_STYLE_COLOUR ( '', #171 ) ;
#2 = VERTEX_POINT ( 'NONE', #91 ) ;
#3 = FILL_AREA_STYLE ('',( #1 ) ) ;
#4 = AXIS2_PLACEMENT_3D ( 'NONE', #115, #24, #22 ) ;
#5 = ORIENTED_EDGE ( 'NONE', *, *, #204, .F. ) ;
#6 =( LENGTH_UNIT ( ) NAMED_UNIT ( * ) SI_UNIT ( $, .METRE. ) );
#7 = CONICAL_SURFACE ( 'NONE', #4, 22.73032555864674364, 0.5235987755983000369 ) ;
#8 = MANIFOLD_SOLID_BREP ( 'Revolve - Cutting Edge', #65 ) ;
#9 = ORIENTED_EDGE ( 'NONE', *, *, #186, .T. ) ;
#10 =( NAMED_UNIT ( * ) PLANE_ANGLE_UNIT ( ) SI_UNIT ( $, .RADIAN. ) );
#11 =( CONVERSION_BASED_UNIT ( 'INCH', #238 ) LENGTH_UNIT ( ) NAMED_UNIT ( #248 ) );
#12 = STYLED_ITEM ( 'NONE', ( #162 ), #168 ) ;
#13 = DIRECTION ( 'NONE',  ( -1.000000000000000000, 0.000000000000000000, 0.000000000000000000 ) ) ;
#14 = PRESENTATION_LAYER_ASSIGNMENT (  '', '', ( #127 ) ) ;
#15 = CYLINDRICAL_SURFACE ( 'NONE', #202, 0.1874999999999998890 ) ;
#16 = PRODUCT_DEFINITION_FORMATION_WITH_SPECIFIED_SOURCE ( 'ANY', '', #209, .NOT_KNOWN. ) ;
#17 = FILL_AREA_STYLE_COLOUR ( '', #26 ) ;
#18 =( NAMED_UNIT ( * ) PLANE_ANGLE_UNIT ( ) SI_UNIT ( $, .RADIAN. ) );
#19 = DIRECTION ( 'NONE',  ( 0.000000000000000000, 0.000000000000000000, -1.000000000000000000 ) ) ;
#20 = CARTESIAN_POINT ( 'NONE',  ( 0.000000000000000000, 0.000000000000000000, 0.000000000000000000 ) ) ;
#21 =( GEOMETRIC_REPRESENTATION_CONTEXT ( 3 ) GLOBAL_UNCERTAINTY_ASSIGNED_CONTEXT ( ( #88 ) ) GLOBAL_UNIT_ASSIGNED_CONTEXT ( ( #253, #92, #258 ) ) REPRESENTATION_CONTEXT ( 'NONE', 'WORKASPACE' ) );
#22 = DIRECTION ( 'NONE',  ( 0.000000000000000000, 0.000000000000000000, 1.000000000000000000 ) ) ;
#23 = ADVANCED_FACE ( 'NONE', ( #70 ), #216, .T. ) ;
#24 = DIRECTION ( 'NONE',  ( 0.000000000000000000, 1.000000000000000000, 0.000000000000000000 ) ) ;
#25 = ORIENTED_EDGE ( 'NONE', *, *, #149, .T. ) ;
#26 = COLOUR_RGB ( '',1.000000000000000000, 0.000000000000000000, 0.000000000000000000 ) ;
#27 = EDGE_CURVE ( 'NONE', #76, #52, #118, .T. ) ;
#28 = UNCERTAINTY_MEASURE_WITH_UNIT (LENGTH_MEASURE( 1.000000000000000082E-05 ), #41, 'distance_accuracy_value', 'NONE');
#29 = EDGE_LOOP ( 'NONE', ( #86, #164 ) ) ;
#30 =( CONVERSION_BASED_UNIT ( 'INCH', #33 ) LENGTH_UNIT ( ) NAMED_UNIT ( #183 ) );
#31 = CIRCLE ( 'NONE', #98, 0.1874999999999999722 ) ;
#32 = AXIS2_PLACEMENT_3D ( 'NONE', #231, #140, #158 ) ;
#33 = LENGTH_MEASURE_WITH_UNIT ( LENGTH_MEASURE( 0.02539999999999999897 ), #35 );
#34 = EDGE_LOOP ( 'NONE', ( #71, #25, #55, #44 ) ) ;
#35 =( LENGTH_UNIT ( ) NAMED_UNIT ( * ) SI_UNIT ( $, .METRE. ) );
#36 = DIRECTION ( 'NONE',  ( -1.000000000000000000, 0.000000000000000000, 0.000000000000000000 ) ) ;
#37 = ORIENTED_EDGE ( 'NONE', *, *, #67, .F. ) ;
#38 = DIRECTION ( 'NONE',  ( -1.000000000000000000, 0.000000000000000000, 0.000000000000000000 ) ) ;
#39 = DIRECTION ( 'NONE',  ( -1.000000000000000000, 0.000000000000000000, 0.000000000000000000 ) ) ;
#40 = VECTOR ( 'NONE', #117, 39.37007874015748143 ) ;
#41 =( CONVERSION_BASED_UNIT ( 'INCH', #207 ) LENGTH_UNIT ( ) NAMED_UNIT ( #85 ) );
#42 =( CONVERSION_BASED_UNIT ( 'INCH', #60 ) LENGTH_UNIT ( ) NAMED_UNIT ( #124 ) );
#43 = PRESENTATION_LAYER_ASSIGNMENT (  '', '', ( #157 ) ) ;
#44 = ORIENTED_EDGE ( 'NONE', *, *, #46, .F. ) ;
#45 = MECHANICAL_DESIGN_GEOMETRIC_PRESENTATION_REPRESENTATION (  '', ( #133 ), #163 ) ;
#46 = EDGE_CURVE ( 'NONE', #52, #76, #263, .T. ) ;
#47 = VERTEX_POINT ( 'NONE', #221 ) ;
#48 = ORIENTED_EDGE ( 'NONE', *, *, #229, .T. ) ;
#49 = EDGE_CURVE ( 'NONE', #2, #52, #121, .T. ) ;
#50 =( LENGTH_UNIT ( ) NAMED_UNIT ( * ) SI_UNIT ( $, .METRE. ) );
#51 = PRESENTATION_STYLE_ASSIGNMENT (( #237 ) ) ;
#52 = VERTEX_POINT ( 'NONE', #260 ) ;
#53 = DIRECTION ( 'NONE',  ( 0.000000000000000000, 0.000000000000000000, 1.000000000000000000 ) ) ;
#54 = FILL_AREA_STYLE ('',( #193 ) ) ;
#55 = ORIENTED_EDGE ( 'NONE', *, *, #94, .T. ) ;
#56 = APPLICATION_CONTEXT ( 'automotive_design' ) ;
#57 = ADVANCED_FACE ( 'NONE', ( #200 ), #77, .F. ) ;
#58 = PRODUCT_DEFINITION_SHAPE ( 'NONE', 'NONE',  #226 ) ;
#59 = CARTESIAN_POINT ( 'NONE',  ( 2.603792618961250911E-16, 0.3247595264191634468, 0.000000000000000000 ) ) ;
#60 = LENGTH_MEASURE_WITH_UNIT ( LENGTH_MEASURE( 0.02539999999999999897 ), #262 );
#61 = AXIS2_PLACEMENT_3D ( 'NONE', #72, #111, #53 ) ;
#62 = CARTESIAN_POINT ( 'NONE',  ( -6.123233995736764803E-17, 2.500000000000000000, 0.000000000000000000 ) ) ;
#63 = DIRECTION ( 'NONE',  ( 1.000000000000000000, 1.478510563588688038E-16, 0.000000000000000000 ) ) ;
#64 = FACE_OUTER_BOUND ( 'NONE', #34, .T. ) ;
#65 = CLOSED_SHELL ( 'NONE', ( #218, #23, #168 ) ) ;
#66 = VERTEX_POINT ( 'NONE', #179 ) ;
#67 = EDGE_CURVE ( 'NONE', #47, #2, #146, .T. ) ;
#68 = ORIENTED_EDGE ( 'NONE', *, *, #67, .T. ) ;
#69 = COLOUR_RGB ( '',0.7921568627450980005, 0.8196078431372548767, 0.9333333333333333481 ) ;
#70 = FACE_OUTER_BOUND ( 'NONE', #227, .T. ) ;
#71 = ORIENTED_EDGE ( 'NONE', *, *, #49, .F. ) ;
#72 = CARTESIAN_POINT ( 'NONE',  ( 0.000000000000000000, 39.37007874015748143, 0.000000000000000000 ) ) ;
#73 = FILL_AREA_STYLE_COLOUR ( '', #120 ) ;
#74 = SURFACE_SIDE_STYLE ('',( #131 ) ) ;
#75 = CONICAL_SURFACE ( 'NONE', #61, 22.73032555864674364, 0.5235987755983000369 ) ;
#76 = VERTEX_POINT ( 'NONE', #264 ) ;
#77 = PLANE ( 'NONE',  #147 ) ;
#78 = DIRECTION ( 'NONE',  ( -1.478510563588688038E-16, 1.000000000000000000, -0.000000000000000000 ) ) ;
#79 = DIRECTION ( 'NONE',  ( -1.000000000000000000, 0.000000000000000000, 0.000000000000000000 ) ) ;
#80 = DIRECTION ( 'NONE',  ( -1.478510563588688038E-16, 1.000000000000000000, -0.000000000000000000 ) ) ;
#81 = SURFACE_STYLE_USAGE ( .BOTH. , #261 ) ;
#82 = AXIS2_PLACEMENT_3D ( 'NONE', #59, #201, #38 ) ;
#83 = ADVANCED_BREP_SHAPE_REPRESENTATION ( '06360', ( #8, #181, #198 ), #192 ) ;
#84 = MECHANICAL_DESIGN_GEOMETRIC_PRESENTATION_REPRESENTATION (  '', ( #127 ), #242 ) ;
#85 = DIMENSIONAL_EXPONENTS ( 1.000000000000000000, 0.000000000000000000, 0.000000000000000000, 0.000000000000000000, 0.000000000000000000, 0.000000000000000000, 0.000000000000000000 ) ;
#86 = ORIENTED_EDGE ( 'NONE', *, *, #27, .T. ) ;
#87 = AXIS2_PLACEMENT_3D ( 'NONE', #160, #161, #36 ) ;
#88 = UNCERTAINTY_MEASURE_WITH_UNIT (LENGTH_MEASURE( 1.000000000000000082E-05 ), #253, 'distance_accuracy_value', 'NONE');
#89 = LENGTH_MEASURE_WITH_UNIT ( LENGTH_MEASURE( 0.02539999999999999897 ), #136 );
#90 = AXIS2_PLACEMENT_3D ( 'NONE', #62, #245, #79 ) ;
#91 = CARTESIAN_POINT ( 'NONE',  ( 0.1874999999999999722, 0.3247595264191634468, 2.296212748401286801E-17 ) ) ;
#92 =( NAMED_UNIT ( * ) PLANE_ANGLE_UNIT ( ) SI_UNIT ( $, .RADIAN. ) );
#93 = APPLICATION_PROTOCOL_DEFINITION ( 'draft international standard', 'automotive_design', 1998, #56 ) ;
#94 = EDGE_CURVE ( 'NONE', #47, #76, #116, .T. ) ;
#95 =( NAMED_UNIT ( * ) SI_UNIT ( $, .STERADIAN. ) SOLID_ANGLE_UNIT ( ) );
#96 = DIRECTION ( 'NONE',  ( -0.000000000000000000, -1.000000000000000000, -0.000000000000000000 ) ) ;
#97 = CARTESIAN_POINT ( 'NONE',  ( -6.123233995736766036E-17, 2.500000000000000000, 0.000000000000000000 ) ) ;
#98 = AXIS2_PLACEMENT_3D ( 'NONE', #176, #96, #19 ) ;
#99 = FILL_AREA_STYLE ('',( #17 ) ) ;
#100 = CARTESIAN_POINT ( 'NONE',  ( 0.000000000000000000, 0.000000000000000000, 0.000000000000000000 ) ) ;
#101 = AXIS2_PLACEMENT_3D ( 'NONE', #142, #78, #203 ) ;
#102 = FILL_AREA_STYLE_COLOUR ( '', #69 ) ;
#103 = FACE_OUTER_BOUND ( 'NONE', #169, .T. ) ;
#104 = DIMENSIONAL_EXPONENTS ( 1.000000000000000000, 0.000000000000000000, 0.000000000000000000, 0.000000000000000000, 0.000000000000000000, 0.000000000000000000, 0.000000000000000000 ) ;
#105 = AXIS2_PLACEMENT_3D ( 'NONE', #191, #217, #113 ) ;
#106 = UNCERTAINTY_MEASURE_WITH_UNIT (LENGTH_MEASURE( 1.000000000000000082E-05 ), #30, 'distance_accuracy_value', 'NONE');
#107 = SURFACE_STYLE_USAGE ( .BOTH. , #241 ) ;
#108 = ADVANCED_FACE ( 'NONE', ( #138 ), #15, .T. ) ;
#109 = SURFACE_SIDE_STYLE ('',( #233 ) ) ;
#110 = CARTESIAN_POINT ( 'NONE',  ( 2.603792618961250911E-16, 0.3247595264191635578, 0.000000000000000000 ) ) ;
#111 = DIRECTION ( 'NONE',  ( 0.000000000000000000, 1.000000000000000000, 0.000000000000000000 ) ) ;
#112 = SURFACE_STYLE_USAGE ( .BOTH. , #109 ) ;
#113 = DIRECTION ( 'NONE',  ( 0.000000000000000000, 0.000000000000000000, -1.000000000000000000 ) ) ;
#114 =( NAMED_UNIT ( * ) PLANE_ANGLE_UNIT ( ) SI_UNIT ( $, .RADIAN. ) );
#115 = CARTESIAN_POINT ( 'NONE',  ( 0.000000000000000000, 39.37007874015748143, 0.000000000000000000 ) ) ;
#116 = LINE ( 'NONE', #222, #214 ) ;
#117 = DIRECTION ( 'NONE',  ( -1.478510563588688038E-16, 1.000000000000000000, -0.000000000000000000 ) ) ;
#118 = CIRCLE ( 'NONE', #125, 0.1875000000000000555 ) ;
#119 =( NAMED_UNIT ( * ) SI_UNIT ( $, .STERADIAN. ) SOLID_ANGLE_UNIT ( ) );
#120 = COLOUR_RGB ( '',1.000000000000000000, 0.000000000000000000, 0.000000000000000000 ) ;
#121 = LINE ( 'NONE', #199, #40 ) ;
#122 = LINE ( 'NONE', #20, #251 ) ;
#123 = VERTEX_POINT ( 'NONE', #100 ) ;
#124 = DIMENSIONAL_EXPONENTS ( 1.000000000000000000, 0.000000000000000000, 0.000000000000000000, 0.000000000000000000, 0.000000000000000000, 0.000000000000000000, 0.000000000000000000 ) ;
#125 = AXIS2_PLACEMENT_3D ( 'NONE', #246, #180, #39 ) ;
#126 =( NAMED_UNIT ( * ) PLANE_ANGLE_UNIT ( ) SI_UNIT ( $, .RADIAN. ) );
#127 = STYLED_ITEM ( 'NONE', ( #154 ), #8 ) ;
#128 = DIMENSIONAL_EXPONENTS ( 1.000000000000000000, 0.000000000000000000, 0.000000000000000000, 0.000000000000000000, 0.000000000000000000, 0.000000000000000000, 0.000000000000000000 ) ;
#129 = EDGE_CURVE ( 'NONE', #212, #66, #31, .T. ) ;
#130 = DIRECTION ( 'NONE',  ( 0.000000000000000000, 0.000000000000000000, 1.000000000000000000 ) ) ;
#131 = SURFACE_STYLE_FILL_AREA ( #252 ) ;
#132 =( NAMED_UNIT ( * ) SI_UNIT ( $, .STERADIAN. ) SOLID_ANGLE_UNIT ( ) );
#133 = STYLED_ITEM ( 'NONE', ( #250 ), #218 ) ;
#134 =( CONVERSION_BASED_UNIT ( 'INCH', #195 ) LENGTH_UNIT ( ) NAMED_UNIT ( #104 ) );
#135 = SHAPE_DEFINITION_REPRESENTATION ( #58, #83 ) ;
#136 =( LENGTH_UNIT ( ) NAMED_UNIT ( * ) SI_UNIT ( $, .METRE. ) );
#137 = ADVANCED_FACE ( 'NONE', ( #64 ), #219, .T. ) ;
#138 = FACE_OUTER_BOUND ( 'NONE', #196, .T. ) ;
#139 = MECHANICAL_DESIGN_GEOMETRIC_PRESENTATION_REPRESENTATION (  '', ( #12 ), #240 ) ;
#140 = DIRECTION ( 'NONE',  ( 0.000000000000000000, 1.000000000000000000, 0.000000000000000000 ) ) ;
#141 = DIRECTION ( 'NONE',  ( 1.478510563588688038E-16, -1.000000000000000000, 0.000000000000000000 ) ) ;
#142 = CARTESIAN_POINT ( 'NONE',  ( 2.603792618961250911E-16, 0.3247595264191634468, 0.000000000000000000 ) ) ;
#143 = ORIENTED_EDGE ( 'NONE', *, *, #129, .T. ) ;
#144 = MECHANICAL_DESIGN_GEOMETRIC_PRESENTATION_REPRESENTATION (  '', ( #157 ), #197 ) ;
#145 = EDGE_LOOP ( 'NONE', ( #188, #249, #143 ) ) ;
#146 = CIRCLE ( 'NONE', #82, 0.1874999999999997502 ) ;
#147 = AXIS2_PLACEMENT_3D ( 'NONE', #243, #141, #63 ) ;
#148 = DIRECTION ( 'NONE',  ( 6.123233995736778362E-17, 0.8660254037844380415, -0.5000000000000009992 ) ) ;
#149 = EDGE_CURVE ( 'NONE', #2, #47, #151, .T. ) ;
#150 = UNCERTAINTY_MEASURE_WITH_UNIT (LENGTH_MEASURE( 1.000000000000000082E-05 ), #11, 'distance_accuracy_value', 'NONE');
#151 = CIRCLE ( 'NONE', #101, 0.1874999999999997502 ) ;
#152 = FILL_AREA_STYLE ('',( #73 ) ) ;
#153 = PLANE ( 'NONE',  #257 ) ;
#154 = PRESENTATION_STYLE_ASSIGNMENT (( #107 ) ) ;
#155 = STYLED_ITEM ( 'NONE', ( #51 ), #181 ) ;
#156 = PRODUCT_RELATED_PRODUCT_CATEGORY ( 'part', '', ( #209 ) ) ;
#157 = STYLED_ITEM ( 'NONE', ( #172 ), #23 ) ;
#158 = DIRECTION ( 'NONE',  ( 0.000000000000000000, -0.000000000000000000, 1.000000000000000000 ) ) ;
#159 = MECHANICAL_DESIGN_GEOMETRIC_PRESENTATION_REPRESENTATION (  '', ( #155 ), #21 ) ;
#160 = CARTESIAN_POINT ( 'NONE',  ( -6.123233995736766036E-17, 2.500000000000000000, 0.000000000000000000 ) ) ;
#161 = DIRECTION ( 'NONE',  ( -1.478510563588688038E-16, 1.000000000000000000, -0.000000000000000000 ) ) ;
#162 = PRESENTATION_STYLE_ASSIGNMENT (( #81 ) ) ;
#163 =( GEOMETRIC_REPRESENTATION_CONTEXT ( 3 ) GLOBAL_UNCERTAINTY_ASSIGNED_CONTEXT ( ( #28 ) ) GLOBAL_UNIT_ASSIGNED_CONTEXT ( ( #41, #18, #119 ) ) REPRESENTATION_CONTEXT ( 'NONE', 'WORKASPACE' ) );
#164 = ORIENTED_EDGE ( 'NONE', *, *, #46, .T. ) ;
#165 = EDGE_LOOP ( 'NONE', ( #37, #228 ) ) ;
#166 = PRESENTATION_LAYER_ASSIGNMENT (  '', '', ( #12 ) ) ;
#167 = LINE ( 'NONE', #170, #182 ) ;
#168 = ADVANCED_FACE ( 'NONE', ( #223 ), #7, .T. ) ;
#169 = EDGE_LOOP ( 'NONE', ( #5, #9, #48 ) ) ;
#170 = CARTESIAN_POINT ( 'NONE',  ( 0.000000000000000000, 0.000000000000000000, 0.000000000000000000 ) ) ;
#171 = COLOUR_RGB ( '',1.000000000000000000, 0.000000000000000000, 0.000000000000000000 ) ;
#172 = PRESENTATION_STYLE_ASSIGNMENT (( #112 ) ) ;
#173 = DIRECTION ( 'NONE',  ( 1.000000000000000000, 0.000000000000000000, 0.000000000000000000 ) ) ;
#174 =( NAMED_UNIT ( * ) SI_UNIT ( $, .STERADIAN. ) SOLID_ANGLE_UNIT ( ) );
#175 = ORIENTED_EDGE ( 'NONE', *, *, #94, .F. ) ;
#176 = CARTESIAN_POINT ( 'NONE',  ( 0.000000000000000000, 0.3247595264191635578, 0.000000000000000000 ) ) ;
#177 =( NAMED_UNIT ( * ) SI_UNIT ( $, .STERADIAN. ) SOLID_ANGLE_UNIT ( ) );
#178 = APPLICATION_CONTEXT ( 'automotive_design' ) ;
#179 = CARTESIAN_POINT ( 'NONE',  ( 2.296212748401286801E-17, 0.3247595264191635578, -0.1874999999999999722 ) ) ;
#180 = DIRECTION ( 'NONE',  ( -1.478510563588688038E-16, 1.000000000000000000, -0.000000000000000000 ) ) ;
#181 = MANIFOLD_SOLID_BREP ( 'Revolve - Tool Body (Pointed)', #187 ) ;
#182 = VECTOR ( 'NONE', #148, 39.37007874015748143 ) ;
#183 = DIMENSIONAL_EXPONENTS ( 1.000000000000000000, 0.000000000000000000, 0.000000000000000000, 0.000000000000000000, 0.000000000000000000, 0.000000000000000000, 0.000000000000000000 ) ;
#184 = ORIENTED_EDGE ( 'NONE', *, *, #27, .F. ) ;
#185 = DIRECTION ( 'NONE',  ( 0.000000000000000000, 0.8660254037844380415, 0.5000000000000009992 ) ) ;
#186 = EDGE_CURVE ( 'NONE', #123, #66, #167, .T. ) ;
#187 = CLOSED_SHELL ( 'NONE', ( #108, #259, #137, #57 ) ) ;
#188 = ORIENTED_EDGE ( 'NONE', *, *, #186, .F. ) ;
#189 = PRODUCT_DEFINITION_CONTEXT ( 'detailed design', #56, 'design' ) ;
#190 = SURFACE_SIDE_STYLE ('',( #224 ) ) ;
#191 = CARTESIAN_POINT ( 'NONE',  ( 0.000000000000000000, 0.3247595264191635578, 0.000000000000000000 ) ) ;
#192 =( GEOMETRIC_REPRESENTATION_CONTEXT ( 3 ) GLOBAL_UNCERTAINTY_ASSIGNED_CONTEXT ( ( #106 ) ) GLOBAL_UNIT_ASSIGNED_CONTEXT ( ( #30, #10, #132 ) ) REPRESENTATION_CONTEXT ( 'NONE', 'WORKASPACE' ) );
#193 = FILL_AREA_STYLE_COLOUR ( '', #215 ) ;
#194 = DIRECTION ( 'NONE',  ( -1.478510563588688038E-16, 1.000000000000000000, 0.000000000000000000 ) ) ;
#195 = LENGTH_MEASURE_WITH_UNIT ( LENGTH_MEASURE( 0.02539999999999999897 ), #50 );
#196 = EDGE_LOOP ( 'NONE', ( #68, #208, #184, #175 ) ) ;
#197 =( GEOMETRIC_REPRESENTATION_CONTEXT ( 3 ) GLOBAL_UNCERTAINTY_ASSIGNED_CONTEXT ( ( #230 ) ) GLOBAL_UNIT_ASSIGNED_CONTEXT ( ( #134, #126, #174 ) ) REPRESENTATION_CONTEXT ( 'NONE', 'WORKASPACE' ) );
#198 = AXIS2_PLACEMENT_3D ( 'NONE', #234, #130, #173 ) ;
#199 = CARTESIAN_POINT ( 'NONE',  ( 0.1874999999999998057, 2.500000000000000000, 2.296212748401285877E-17 ) ) ;
#200 = FACE_OUTER_BOUND ( 'NONE', #29, .T. ) ;
#201 = DIRECTION ( 'NONE',  ( -1.478510563588688038E-16, 1.000000000000000000, -0.000000000000000000 ) ) ;
#202 = AXIS2_PLACEMENT_3D ( 'NONE', #97, #80, #13 ) ;
#203 = DIRECTION ( 'NONE',  ( -1.000000000000000000, 0.000000000000000000, 0.000000000000000000 ) ) ;
#204 = EDGE_CURVE ( 'NONE', #123, #212, #122, .T. ) ;
#205 = SURFACE_STYLE_USAGE ( .BOTH. , #190 ) ;
#206 =( LENGTH_UNIT ( ) NAMED_UNIT ( * ) SI_UNIT ( $, .METRE. ) );
#207 = LENGTH_MEASURE_WITH_UNIT ( LENGTH_MEASURE( 0.02539999999999999897 ), #206 );
#208 = ORIENTED_EDGE ( 'NONE', *, *, #49, .T. ) ;
#209 = PRODUCT ( '06360', '06360', '', ( #255 ) ) ;
#210 = ORIENTED_EDGE ( 'NONE', *, *, #129, .F. ) ;
#211 = CARTESIAN_POINT ( 'NONE',  ( 0.000000000000000000, 0.3247595264191635578, 0.1874999999999999722 ) ) ;
#212 = VERTEX_POINT ( 'NONE', #211 ) ;
#213 = UNCERTAINTY_MEASURE_WITH_UNIT (LENGTH_MEASURE( 1.000000000000000082E-05 ), #42, 'distance_accuracy_value', 'NONE');
#214 = VECTOR ( 'NONE', #244, 39.37007874015748143 ) ;
#215 = COLOUR_RGB ( '',0.7921568627450980005, 0.8196078431372548767, 0.9333333333333333481 ) ;
#216 = PLANE ( 'NONE',  #32 ) ;
#217 = DIRECTION ( 'NONE',  ( -0.000000000000000000, -1.000000000000000000, -0.000000000000000000 ) ) ;
#218 = ADVANCED_FACE ( 'NONE', ( #103 ), #75, .T. ) ;
#219 = CYLINDRICAL_SURFACE ( 'NONE', #87, 0.1874999999999998890 ) ;
#220 = CIRCLE ( 'NONE', #105, 0.1874999999999999722 ) ;
#221 = CARTESIAN_POINT ( 'NONE',  ( -0.1874999999999994726, 0.3247595264191634468, 0.000000000000000000 ) ) ;
#222 = CARTESIAN_POINT ( 'NONE',  ( -0.1874999999999999445, 2.500000000000000000, 0.000000000000000000 ) ) ;
#223 = FACE_OUTER_BOUND ( 'NONE', #145, .T. ) ;
#224 = SURFACE_STYLE_FILL_AREA ( #3 ) ;
#225 = PRESENTATION_LAYER_ASSIGNMENT (  '', '', ( #155 ) ) ;
#226 = PRODUCT_DEFINITION ( 'UNKNOWN', '', #16, #189 ) ;
#227 = EDGE_LOOP ( 'NONE', ( #210, #247 ) ) ;
#228 = ORIENTED_EDGE ( 'NONE', *, *, #149, .F. ) ;
#229 = EDGE_CURVE ( 'NONE', #66, #212, #220, .T. ) ;
#230 = UNCERTAINTY_MEASURE_WITH_UNIT (LENGTH_MEASURE( 1.000000000000000082E-05 ), #134, 'distance_accuracy_value', 'NONE');
#231 = CARTESIAN_POINT ( 'NONE',  ( 0.000000000000000000, 0.3247595264191635578, 0.000000000000000000 ) ) ;
#232 = PRESENTATION_LAYER_ASSIGNMENT (  '', '', ( #133 ) ) ;
#233 = SURFACE_STYLE_FILL_AREA ( #152 ) ;
#234 = CARTESIAN_POINT ( 'NONE',  ( 0.000000000000000000, 0.000000000000000000, 0.000000000000000000 ) ) ;
#235 =( NAMED_UNIT ( * ) PLANE_ANGLE_UNIT ( ) SI_UNIT ( $, .RADIAN. ) );
#236 = FACE_OUTER_BOUND ( 'NONE', #165, .T. ) ;
#237 = SURFACE_STYLE_USAGE ( .BOTH. , #74 ) ;
#238 = LENGTH_MEASURE_WITH_UNIT ( LENGTH_MEASURE( 0.02539999999999999897 ), #6 );
#239 = DIRECTION ( 'NONE',  ( -1.000000000000000000, -1.478510563588688038E-16, 0.000000000000000000 ) ) ;
#240 =( GEOMETRIC_REPRESENTATION_CONTEXT ( 3 ) GLOBAL_UNCERTAINTY_ASSIGNED_CONTEXT ( ( #213 ) ) GLOBAL_UNIT_ASSIGNED_CONTEXT ( ( #42, #114, #177 ) ) REPRESENTATION_CONTEXT ( 'NONE', 'WORKASPACE' ) );
#241 = SURFACE_SIDE_STYLE ('',( #254 ) ) ;
#242 =( GEOMETRIC_REPRESENTATION_CONTEXT ( 3 ) GLOBAL_UNCERTAINTY_ASSIGNED_CONTEXT ( ( #150 ) ) GLOBAL_UNIT_ASSIGNED_CONTEXT ( ( #11, #235, #95 ) ) REPRESENTATION_CONTEXT ( 'NONE', 'WORKASPACE' ) );
#243 = CARTESIAN_POINT ( 'NONE',  ( 0.1874999999999999722, 2.500000000000000000, 0.000000000000000000 ) ) ;
#244 = DIRECTION ( 'NONE',  ( -1.478510563588688038E-16, 1.000000000000000000, -0.000000000000000000 ) ) ;
#245 = DIRECTION ( 'NONE',  ( -1.478510563588688038E-16, 1.000000000000000000, -0.000000000000000000 ) ) ;
#246 = CARTESIAN_POINT ( 'NONE',  ( -6.123233995736764803E-17, 2.500000000000000000, 0.000000000000000000 ) ) ;
#247 = ORIENTED_EDGE ( 'NONE', *, *, #229, .F. ) ;
#248 = DIMENSIONAL_EXPONENTS ( 1.000000000000000000, 0.000000000000000000, 0.000000000000000000, 0.000000000000000000, 0.000000000000000000, 0.000000000000000000, 0.000000000000000000 ) ;
#249 = ORIENTED_EDGE ( 'NONE', *, *, #204, .T. ) ;
#250 = PRESENTATION_STYLE_ASSIGNMENT (( #205 ) ) ;
#251 = VECTOR ( 'NONE', #185, 39.37007874015748143 ) ;
#252 = FILL_AREA_STYLE ('',( #102 ) ) ;
#253 =( CONVERSION_BASED_UNIT ( 'INCH', #89 ) LENGTH_UNIT ( ) NAMED_UNIT ( #128 ) );
#254 = SURFACE_STYLE_FILL_AREA ( #54 ) ;
#255 = PRODUCT_CONTEXT ( 'NONE', #178, 'mechanical' ) ;
#256 = APPLICATION_PROTOCOL_DEFINITION ( 'draft international standard', 'automotive_design', 1998, #178 ) ;
#257 = AXIS2_PLACEMENT_3D ( 'NONE', #110, #194, #239 ) ;
#258 =( NAMED_UNIT ( * ) SI_UNIT ( $, .STERADIAN. ) SOLID_ANGLE_UNIT ( ) );
#259 = ADVANCED_FACE ( 'NONE', ( #236 ), #153, .F. ) ;
#260 = CARTESIAN_POINT ( 'NONE',  ( 0.1874999999999999722, 2.500000000000000000, 2.296212748401286801E-17 ) ) ;
#261 = SURFACE_SIDE_STYLE ('',( #265 ) ) ;
#262 =( LENGTH_UNIT ( ) NAMED_UNIT ( * ) SI_UNIT ( $, .METRE. ) );
#263 = CIRCLE ( 'NONE', #90, 0.1875000000000000555 ) ;
#264 = CARTESIAN_POINT ( 'NONE',  ( -0.1875000000000001110, 2.500000000000000000, 0.000000000000000000 ) ) ;
#265 = SURFACE_STYLE_FILL_AREA ( #99 ) ;
ENDSEC;
END-ISO-10303-21;
