ISO-10303-21;
HEADER;
FILE_DESCRIPTION (( 'STEP AP214' ),
    '1' );
FILE_NAME ('Micro_BEM-046-03.STEP',
    '2021-09-03T12:57:44',
    ( '' ),
    ( '' ),
    'SwSTEP 2.0',
    'SolidWorks 2020',
    '' );
FILE_SCHEMA (( 'AUTOMOTIVE_DESIGN' ));
ENDSEC;

DATA;
#1 = AXIS2_PLACEMENT_3D ( 'NONE', #135, #190, #114 ) ;
#2 = FILL_AREA_STYLE ('',( #76 ) ) ;
#3 = ORIENTED_EDGE ( 'NONE', *, *, #64, .T. ) ;
#4 = DIRECTION ( 'NONE',  ( 0.0000000000000000000, 1.000000000000000000, 0.0000000000000000000 ) ) ;
#5 = EDGE_LOOP ( 'NONE', ( #298, #296, #174, #29 ) ) ;
#6 = LINE ( 'NONE', #111, #67 ) ;
#7 = PRODUCT ( 'Micro_BEM-046-03', 'Micro_BEM-046-03', '', ( #30 ) ) ;
#8 = CARTESIAN_POINT ( 'NONE',  ( 4.052109212114275620E-17, 0.0000000000000000000, 0.3308798271416305559 ) ) ;
#9 = DIRECTION ( 'NONE',  ( 1.000000000000000000, 0.0000000000000000000, 0.0000000000000000000 ) ) ;
#10 = CYLINDRICAL_SURFACE ( 'NONE', #134, 0.02337660000000000432 ) ;
#11 = CIRCLE ( 'NONE', #16, 0.02337659999999999738 ) ;
#12 = CIRCLE ( 'NONE', #17, 0.06250000000000002776 ) ;
#13 =( NAMED_UNIT ( * ) SI_UNIT ( $, .STERADIAN. ) SOLID_ANGLE_UNIT ( ) );
#14 = DIRECTION ( 'NONE',  ( 0.0000000000000000000, 0.0000000000000000000, -1.000000000000000000 ) ) ;
#15 = DIRECTION ( 'NONE',  ( 0.0000000000000000000, 0.0000000000000000000, -1.000000000000000000 ) ) ;
#16 = AXIS2_PLACEMENT_3D ( 'NONE', #137, #236, #256 ) ;
#17 = AXIS2_PLACEMENT_3D ( 'NONE', #142, #245, #288 ) ;
#18 = DIRECTION ( 'NONE',  ( 1.000000000000000000, 0.0000000000000000000, 0.0000000000000000000 ) ) ;
#19 = CARTESIAN_POINT ( 'NONE',  ( -0.06250000000000002776, 0.0000000000000000000, 1.485000000000000764 ) ) ;
#20 = DIRECTION ( 'NONE',  ( 0.0000000000000000000, 0.0000000000000000000, -1.000000000000000000 ) ) ;
#21 = ORIENTED_EDGE ( 'NONE', *, *, #282, .F. ) ;
#22 = CIRCLE ( 'NONE', #144, 0.06250000000000002776 ) ;
#23 = ORIENTED_EDGE ( 'NONE', *, *, #64, .F. ) ;
#24 = LENGTH_MEASURE_WITH_UNIT ( LENGTH_MEASURE( 0.02539999999999999897 ), #295 );
#25 = ORIENTED_EDGE ( 'NONE', *, *, #149, .T. ) ;
#26 = VERTEX_POINT ( 'NONE', #292 ) ;
#27 = CIRCLE ( 'NONE', #213, 0.04750000000000064587 ) ;
#28 = MANIFOLD_SOLID_BREP ( 'Fillet1', #294 ) ;
#29 = ORIENTED_EDGE ( 'NONE', *, *, #158, .T. ) ;
#30 = PRODUCT_CONTEXT ( 'NONE', #79, 'mechanical' ) ;
#31 = EDGE_LOOP ( 'NONE', ( #123, #3, #225, #279 ) ) ;
#32 = ORIENTED_EDGE ( 'NONE', *, *, #115, .T. ) ;
#33 = EDGE_CURVE ( 'NONE', #231, #26, #207, .T. ) ;
#34 = EDGE_CURVE ( 'NONE', #109, #231, #11, .T. ) ;
#35 = VECTOR ( 'NONE', #116, 39.37007874015748143 ) ;
#36 = DIRECTION ( 'NONE',  ( -1.224646799147353700E-16, -0.0000000000000000000, -1.000000000000000000 ) ) ;
#37 = DIRECTION ( 'NONE',  ( 1.000000000000000000, 0.0000000000000000000, 0.0000000000000000000 ) ) ;
#38 = DIMENSIONAL_EXPONENTS ( 1.000000000000000000, 0.0000000000000000000, 0.0000000000000000000, 0.0000000000000000000, 0.0000000000000000000, 0.0000000000000000000, 0.0000000000000000000 ) ;
#39 = DIRECTION ( 'NONE',  ( -0.0000000000000000000, -0.0000000000000000000, -1.000000000000000000 ) ) ;
#40 = FACE_OUTER_BOUND ( 'NONE', #31, .T. ) ;
#41 = VECTOR ( 'NONE', #66, 39.37007874015748854 ) ;
#42 = CARTESIAN_POINT ( 'NONE',  ( 0.04750000000000064587, 5.817072295950006528E-18, 1.500000000000000222 ) ) ;
#43 = EDGE_CURVE ( 'NONE', #109, #246, #238, .T. ) ;
#44 = ADVANCED_FACE ( 'NONE', ( #235 ), #211, .T. ) ;
#45 = CARTESIAN_POINT ( 'NONE',  ( 2.862807836494802985E-18, 0.0000000000000000000, 0.02337660000000000432 ) ) ;
#46 = AXIS2_PLACEMENT_3D ( 'NONE', #240, #14, #171 ) ;
#47 = DIRECTION ( 'NONE',  ( 1.224646799147353700E-16, 0.0000000000000000000, 1.000000000000000000 ) ) ;
#48 = DIRECTION ( 'NONE',  ( -0.0000000000000000000, -0.0000000000000000000, -1.000000000000000000 ) ) ;
#49 = LINE ( 'NONE', #262, #35 ) ;
#50 = VERTEX_POINT ( 'NONE', #284 ) ;
#51 = COLOUR_RGB ( '',0.7921568627450980005, 0.8196078431372548767, 0.9333333333333333481 ) ;
#52 = EDGE_LOOP ( 'NONE', ( #53, #25, #151, #21 ) ) ;
#53 = ORIENTED_EDGE ( 'NONE', *, *, #210, .T. ) ;
#54 = AXIS2_PLACEMENT_3D ( 'NONE', #306, #163, #9 ) ;
#55 = EDGE_LOOP ( 'NONE', ( #253, #302, #125, #273 ) ) ;
#56 = VERTEX_POINT ( 'NONE', #215 ) ;
#57 = ADVANCED_FACE ( 'NONE', ( #165 ), #10, .T. ) ;
#58 = CARTESIAN_POINT ( 'NONE',  ( 2.862807836494802985E-18, 0.0000000000000000000, 0.02337660000000000432 ) ) ;
#59 = CIRCLE ( 'NONE', #223, 0.02337659999999999738 ) ;
#60 = EDGE_CURVE ( 'NONE', #248, #177, #221, .T. ) ;
#61 = FACE_OUTER_BOUND ( 'NONE', #52, .T. ) ;
#62 = CARTESIAN_POINT ( 'NONE',  ( 0.0000000000000000000, 0.0000000000000000000, 1.500000000000000222 ) ) ;
#63 = CARTESIAN_POINT ( 'NONE',  ( -0.04750000000000064587, 0.0000000000000000000, 1.500000000000000222 ) ) ;
#64 = EDGE_CURVE ( 'NONE', #109, #275, #139, .T. ) ;
#65 = DIRECTION ( 'NONE',  ( 1.000000000000000000, 0.0000000000000000000, 0.0000000000000000000 ) ) ;
#66 = DIRECTION ( 'NONE',  ( 0.7071067811865462405, 8.659560562354916834E-17, -0.7071067811865486830 ) ) ;
#67 = VECTOR ( 'NONE', #303, 39.37007874015748143 ) ;
#68 = VECTOR ( 'NONE', #117, 39.37007874015748854 ) ;
#69 = CARTESIAN_POINT ( 'NONE',  ( -0.06250000000000002776, 0.0000000000000000000, 1.500000000000000222 ) ) ;
#70 = LINE ( 'NONE', #42, #41 ) ;
#71 = SURFACE_STYLE_USAGE ( .BOTH. , #78 ) ;
#72 = CIRCLE ( 'NONE', #237, 0.02337660000000000432 ) ;
#73 = ORIENTED_EDGE ( 'NONE', *, *, #258, .T. ) ;
#74 = ADVANCED_FACE ( 'NONE', ( #61 ), #280, .T. ) ;
#75 = APPLICATION_PROTOCOL_DEFINITION ( 'draft international standard', 'automotive_design', 1998, #89 ) ;
#76 = FILL_AREA_STYLE_COLOUR ( '', #156 ) ;
#77 = DIRECTION ( 'NONE',  ( 1.000000000000000000, 0.0000000000000000000, 0.0000000000000000000 ) ) ;
#78 = SURFACE_SIDE_STYLE ('',( #179 ) ) ;
#79 = APPLICATION_CONTEXT ( 'automotive_design' ) ;
#80 = CIRCLE ( 'NONE', #259, 0.02337660000000000432 ) ;
#81 = ORIENTED_EDGE ( 'NONE', *, *, #149, .F. ) ;
#82 = CARTESIAN_POINT ( 'NONE',  ( 2.862807836494802985E-18, 0.0000000000000000000, 0.02337660000000000432 ) ) ;
#83 = DIRECTION ( 'NONE',  ( 1.224646799147353207E-16, 1.000000000000000000, -0.0000000000000000000 ) ) ;
#84 = VECTOR ( 'NONE', #113, 39.37007874015748143 ) ;
#85 = CARTESIAN_POINT ( 'NONE',  ( 0.0000000000000000000, 0.0000000000000000000, 1.500000000000000222 ) ) ;
#86 = ADVANCED_FACE ( 'NONE', ( #40 ), #217, .T. ) ;
#87 = DIRECTION ( 'NONE',  ( -0.1736481776669311083, 2.126576849575782084E-17, 0.9848077530122080203 ) ) ;
#88 = CARTESIAN_POINT ( 'NONE',  ( -0.02337659999999998697, 5.258425165582881421E-18, 0.1089999999999999997 ) ) ;
#89 = APPLICATION_CONTEXT ( 'automotive_design' ) ;
#90 = DIRECTION ( 'NONE',  ( -1.000000000000000000, 0.0000000000000000000, 0.0000000000000000000 ) ) ;
#91 = PRESENTATION_LAYER_ASSIGNMENT (  '', '', ( #193 ) ) ;
#92 = CONICAL_SURFACE ( 'NONE', #46, 0.04750000000000064587, 0.7853981633974466137 ) ;
#93 = FACE_OUTER_BOUND ( 'NONE', #133, .T. ) ;
#94 = LINE ( 'NONE', #69, #286 ) ;
#95 = DIRECTION ( 'NONE',  ( 0.0000000000000000000, 0.0000000000000000000, -1.000000000000000000 ) ) ;
#96 = CONICAL_SURFACE ( 'NONE', #118, 0.02337659999999999738, 0.1745329251994338082 ) ;
#97 = ADVANCED_FACE ( 'NONE', ( #304 ), #189, .T. ) ;
#98 = DIRECTION ( 'NONE',  ( -1.224646799147353700E-16, -0.0000000000000000000, -1.000000000000000000 ) ) ;
#99 = EDGE_LOOP ( 'NONE', ( #201, #228, #159, #181 ) ) ;
#100 = UNCERTAINTY_MEASURE_WITH_UNIT (LENGTH_MEASURE( 1.000000000000000082E-05 ), #271, 'distance_accuracy_value', 'NONE');
#101 = SPHERICAL_SURFACE ( 'NONE', #209, 0.02337660000000000432 ) ;
#102 = EDGE_CURVE ( 'NONE', #275, #184, #143, .T. ) ;
#103 = EDGE_LOOP ( 'NONE', ( #322, #325, #128 ) ) ;
#104 = MECHANICAL_DESIGN_GEOMETRIC_PRESENTATION_REPRESENTATION (  '', ( #193 ), #198 ) ;
#105 = MECHANICAL_DESIGN_GEOMETRIC_PRESENTATION_REPRESENTATION (  '', ( #314 ), #175 ) ;
#106 = PRESENTATION_STYLE_ASSIGNMENT (( #71 ) ) ;
#107 = ORIENTED_EDGE ( 'NONE', *, *, #305, .F. ) ;
#108 = PRODUCT_RELATED_PRODUCT_CATEGORY ( 'part', '', ( #7 ) ) ;
#109 = VERTEX_POINT ( 'NONE', #88 ) ;
#110 = AXIS2_PLACEMENT_3D ( 'NONE', #145, #15, #90 ) ;
#111 = CARTESIAN_POINT ( 'NONE',  ( 0.06250000000000002776, 7.654042494670959086E-18, 1.500000000000000222 ) ) ;
#112 = DIRECTION ( 'NONE',  ( 1.000000000000000000, 0.0000000000000000000, 0.0000000000000000000 ) ) ;
#113 = DIRECTION ( 'NONE',  ( -1.224646799147353700E-16, -0.0000000000000000000, -1.000000000000000000 ) ) ;
#114 = DIRECTION ( 'NONE',  ( 1.000000000000000000, 0.0000000000000000000, 0.0000000000000000000 ) ) ;
#115 = EDGE_CURVE ( 'NONE', #56, #246, #188, .T. ) ;
#116 = DIRECTION ( 'NONE',  ( 0.1736481776669313026, 0.0000000000000000000, 0.9848077530122077983 ) ) ;
#117 = DIRECTION ( 'NONE',  ( -0.7071067811865462405, 0.0000000000000000000, -0.7071067811865486830 ) ) ;
#118 = AXIS2_PLACEMENT_3D ( 'NONE', #242, #47, #18 ) ;
#119 = SPHERICAL_SURFACE ( 'NONE', #183, 0.02337660000000000432 ) ;
#120 = LINE ( 'NONE', #194, #68 ) ;
#121 = EDGE_LOOP ( 'NONE', ( #107, #203, #73, #208 ) ) ;
#122 = DIRECTION ( 'NONE',  ( 1.000000000000000000, 0.0000000000000000000, 0.0000000000000000000 ) ) ;
#123 = ORIENTED_EDGE ( 'NONE', *, *, #34, .F. ) ;
#124 = CARTESIAN_POINT ( 'NONE',  ( 0.0000000000000000000, 0.0000000000000000000, 0.0000000000000000000 ) ) ;
#125 = ORIENTED_EDGE ( 'NONE', *, *, #210, .F. ) ;
#126 = UNCERTAINTY_MEASURE_WITH_UNIT (LENGTH_MEASURE( 1.000000000000000082E-05 ), #297, 'distance_accuracy_value', 'NONE');
#127 = FILL_AREA_STYLE ('',( #176 ) ) ;
#128 = ORIENTED_EDGE ( 'NONE', *, *, #158, .F. ) ;
#129 = DIRECTION ( 'NONE',  ( 1.000000000000000000, 0.0000000000000000000, 0.0000000000000000000 ) ) ;
#130 = ORIENTED_EDGE ( 'NONE', *, *, #60, .T. ) ;
#131 = ORIENTED_EDGE ( 'NONE', *, *, #267, .T. ) ;
#132 = PRODUCT_DEFINITION_SHAPE ( 'NONE', 'NONE',  #293 ) ;
#133 = EDGE_LOOP ( 'NONE', ( #23, #160, #250, #291 ) ) ;
#134 = AXIS2_PLACEMENT_3D ( 'NONE', #254, #255, #140 ) ;
#135 = CARTESIAN_POINT ( 'NONE',  ( 1.334865011070615584E-17, 0.0000000000000000000, 0.1089999999999999997 ) ) ;
#136 = EDGE_CURVE ( 'NONE', #177, #248, #27, .T. ) ;
#137 = CARTESIAN_POINT ( 'NONE',  ( 1.334865011070615584E-17, 0.0000000000000000000, 0.1089999999999999997 ) ) ;
#138 = DIRECTION ( 'NONE',  ( 0.0000000000000000000, 0.0000000000000000000, 1.000000000000000000 ) ) ;
#139 = LINE ( 'NONE', #308, #173 ) ;
#140 = DIRECTION ( 'NONE',  ( -1.000000000000000000, 0.0000000000000000000, 1.224646799147353454E-16 ) ) ;
#141 = CARTESIAN_POINT ( 'NONE',  ( 0.0000000000000000000, 0.0000000000000000000, 1.500000000000000222 ) ) ;
#142 = CARTESIAN_POINT ( 'NONE',  ( 4.052109212114275620E-17, 0.0000000000000000000, 0.3308798271416305559 ) ) ;
#143 = CIRCLE ( 'NONE', #320, 0.06250000000000002776 ) ;
#144 = AXIS2_PLACEMENT_3D ( 'NONE', #197, #20, #268 ) ;
#145 = CARTESIAN_POINT ( 'NONE',  ( 0.0000000000000000000, 0.0000000000000000000, 1.500000000000000222 ) ) ;
#146 = CARTESIAN_POINT ( 'NONE',  ( 0.02337660000000001126, 0.0000000000000000000, 0.1089999999999999997 ) ) ;
#147 = EDGE_LOOP ( 'NONE', ( #233, #32, #249 ) ) ;
#148 = PRESENTATION_LAYER_ASSIGNMENT (  '', '', ( #314 ) ) ;
#149 = EDGE_CURVE ( 'NONE', #50, #184, #6, .T. ) ;
#150 = LENGTH_MEASURE_WITH_UNIT ( LENGTH_MEASURE( 0.02539999999999999897 ), #154 );
#151 = ORIENTED_EDGE ( 'NONE', *, *, #102, .F. ) ;
#152 = PRESENTATION_STYLE_ASSIGNMENT (( #274 ) ) ;
#153 = EDGE_LOOP ( 'NONE', ( #130, #205 ) ) ;
#154 =( LENGTH_UNIT ( ) NAMED_UNIT ( * ) SI_UNIT ( $, .METRE. ) );
#155 =( LENGTH_UNIT ( ) NAMED_UNIT ( * ) SI_UNIT ( $, .METRE. ) );
#156 = COLOUR_RGB ( '',0.7921568627450980005, 0.8196078431372548767, 0.9333333333333333481 ) ;
#157 = APPLICATION_PROTOCOL_DEFINITION ( 'draft international standard', 'automotive_design', 1998, #79 ) ;
#158 = EDGE_CURVE ( 'NONE', #246, #26, #277, .T. ) ;
#159 = ORIENTED_EDGE ( 'NONE', *, *, #261, .T. ) ;
#160 = ORIENTED_EDGE ( 'NONE', *, *, #317, .F. ) ;
#161 = DIRECTION ( 'NONE',  ( -1.224646799147353700E-16, -0.0000000000000000000, -1.000000000000000000 ) ) ;
#162 = CARTESIAN_POINT ( 'NONE',  ( 0.02337660000000000432, 2.862807836494801830E-18, -2.862807836494802985E-18 ) ) ;
#163 = DIRECTION ( 'NONE',  ( 0.0000000000000000000, 0.0000000000000000000, 1.000000000000000000 ) ) ;
#164 = DIMENSIONAL_EXPONENTS ( 1.000000000000000000, 0.0000000000000000000, 0.0000000000000000000, 0.0000000000000000000, 0.0000000000000000000, 0.0000000000000000000, 0.0000000000000000000 ) ;
#165 = FACE_OUTER_BOUND ( 'NONE', #5, .T. ) ;
#166 = CARTESIAN_POINT ( 'NONE',  ( 0.04750000000000064587, 6.735557395310483192E-18, 1.500000000000000222 ) ) ;
#167 = CARTESIAN_POINT ( 'NONE',  ( -0.06249999999999997918, 0.0000000000000000000, 0.3308798271416305559 ) ) ;
#168 = CYLINDRICAL_SURFACE ( 'NONE', #272, 0.06250000000000002776 ) ;
#169 = AXIS2_PLACEMENT_3D ( 'NONE', #58, #83, #281 ) ;
#170 = DIRECTION ( 'NONE',  ( -1.000000000000000000, 0.0000000000000000000, 1.825976613408455680E-16 ) ) ;
#171 = DIRECTION ( 'NONE',  ( -1.000000000000000000, 0.0000000000000000000, 0.0000000000000000000 ) ) ;
#172 = CARTESIAN_POINT ( 'NONE',  ( 2.862807836494802985E-18, 0.0000000000000000000, 0.02337660000000000432 ) ) ;
#173 = VECTOR ( 'NONE', #87, 39.37007874015747433 ) ;
#174 = ORIENTED_EDGE ( 'NONE', *, *, #43, .T. ) ;
#175 =( GEOMETRIC_REPRESENTATION_CONTEXT ( 3 ) GLOBAL_UNCERTAINTY_ASSIGNED_CONTEXT ( ( #126 ) ) GLOBAL_UNIT_ASSIGNED_CONTEXT ( ( #297, #324, #226 ) ) REPRESENTATION_CONTEXT ( 'NONE', 'WORKASPACE' ) );
#176 = FILL_AREA_STYLE_COLOUR ( '', #51 ) ;
#177 = VERTEX_POINT ( 'NONE', #166 ) ;
#178 = SHAPE_DEFINITION_REPRESENTATION ( #132, #244 ) ;
#179 = SURFACE_STYLE_FILL_AREA ( #2 ) ;
#180 = EDGE_CURVE ( 'NONE', #56, #26, #80, .T. ) ;
#181 = ORIENTED_EDGE ( 'NONE', *, *, #43, .F. ) ;
#182 = AXIS2_PLACEMENT_3D ( 'NONE', #82, #247, #170 ) ;
#183 = AXIS2_PLACEMENT_3D ( 'NONE', #219, #239, #65 ) ;
#184 = VERTEX_POINT ( 'NONE', #269 ) ;
#185 = CARTESIAN_POINT ( 'NONE',  ( -0.02337660000000000432, 0.0000000000000000000, 2.862807836494802985E-18 ) ) ;
#186 = EDGE_CURVE ( 'NONE', #231, #184, #49, .T. ) ;
#187 = DIRECTION ( 'NONE',  ( -1.000000000000000000, 0.0000000000000000000, 0.0000000000000000000 ) ) ;
#188 = CIRCLE ( 'NONE', #169, 0.02337660000000000432 ) ;
#189 = PLANE ( 'NONE',  #307 ) ;
#190 = DIRECTION ( 'NONE',  ( 1.224646799147353700E-16, 0.0000000000000000000, 1.000000000000000000 ) ) ;
#191 = CARTESIAN_POINT ( 'NONE',  ( 0.0000000000000000000, 0.0000000000000000000, 1.500000000000000222 ) ) ;
#192 = DIMENSIONAL_EXPONENTS ( 1.000000000000000000, 0.0000000000000000000, 0.0000000000000000000, 0.0000000000000000000, 0.0000000000000000000, 0.0000000000000000000, 0.0000000000000000000 ) ;
#193 = STYLED_ITEM ( 'NONE', ( #106 ), #28 ) ;
#194 = CARTESIAN_POINT ( 'NONE',  ( -0.04750000000000064587, 0.0000000000000000000, 1.500000000000000222 ) ) ;
#195 = FACE_OUTER_BOUND ( 'NONE', #202, .T. ) ;
#196 = ADVANCED_FACE ( 'NONE', ( #312 ), #119, .T. ) ;
#197 = CARTESIAN_POINT ( 'NONE',  ( 0.0000000000000000000, 0.0000000000000000000, 1.485000000000000764 ) ) ;
#198 =( GEOMETRIC_REPRESENTATION_CONTEXT ( 3 ) GLOBAL_UNCERTAINTY_ASSIGNED_CONTEXT ( ( #243 ) ) GLOBAL_UNIT_ASSIGNED_CONTEXT ( ( #257, #283, #13 ) ) REPRESENTATION_CONTEXT ( 'NONE', 'WORKASPACE' ) );
#199 = CARTESIAN_POINT ( 'NONE',  ( -0.02337659999999999738, 0.0000000000000000000, 0.02337660000000000779 ) ) ;
#200 = DIRECTION ( 'NONE',  ( -1.000000000000000000, 0.0000000000000000000, 0.0000000000000000000 ) ) ;
#201 = ORIENTED_EDGE ( 'NONE', *, *, #34, .T. ) ;
#202 = EDGE_LOOP ( 'NONE', ( #81, #131, #252, #270 ) ) ;
#203 = ORIENTED_EDGE ( 'NONE', *, *, #60, .F. ) ;
#204 = AXIS2_PLACEMENT_3D ( 'NONE', #289, #95, #122 ) ;
#205 = ORIENTED_EDGE ( 'NONE', *, *, #136, .T. ) ;
#206 =( NAMED_UNIT ( * ) SI_UNIT ( $, .STERADIAN. ) SOLID_ANGLE_UNIT ( ) );
#207 = LINE ( 'NONE', #162, #84 ) ;
#208 = ORIENTED_EDGE ( 'NONE', *, *, #267, .F. ) ;
#209 = AXIS2_PLACEMENT_3D ( 'NONE', #172, #4, #129 ) ;
#210 = EDGE_CURVE ( 'NONE', #232, #50, #22, .T. ) ;
#211 = CYLINDRICAL_SURFACE ( 'NONE', #313, 0.02337660000000000432 ) ;
#212 = DIRECTION ( 'NONE',  ( -1.000000000000000000, 0.0000000000000000000, 1.224646799147353454E-16 ) ) ;
#213 = AXIS2_PLACEMENT_3D ( 'NONE', #191, #285, #37 ) ;
#214 = CIRCLE ( 'NONE', #204, 0.06250000000000002776 ) ;
#215 = CARTESIAN_POINT ( 'NONE',  ( 4.294211754742204093E-18, 0.0000000000000000000, 0.0000000000000000000 ) ) ;
#216 = ADVANCED_FACE ( 'NONE', ( #93 ), #96, .T. ) ;
#217 = CONICAL_SURFACE ( 'NONE', #1, 0.02337659999999999738, 0.1745329251994338082 ) ;
#218 = CARTESIAN_POINT ( 'NONE',  ( 1.334865011070615584E-17, 0.0000000000000000000, 0.1089999999999999997 ) ) ;
#219 = CARTESIAN_POINT ( 'NONE',  ( 2.862807836494802985E-18, 0.0000000000000000000, 0.02337660000000000432 ) ) ;
#220 = CARTESIAN_POINT ( 'NONE',  ( 2.862807836494802985E-18, 0.0000000000000000000, 0.02337660000000000432 ) ) ;
#221 = CIRCLE ( 'NONE', #54, 0.04750000000000064587 ) ;
#222 = DIRECTION ( 'NONE',  ( -0.0000000000000000000, -0.0000000000000000000, -1.000000000000000000 ) ) ;
#223 = AXIS2_PLACEMENT_3D ( 'NONE', #218, #98, #200 ) ;
#224 = SURFACE_STYLE_FILL_AREA ( #127 ) ;
#225 = ORIENTED_EDGE ( 'NONE', *, *, #102, .T. ) ;
#226 =( NAMED_UNIT ( * ) SI_UNIT ( $, .STERADIAN. ) SOLID_ANGLE_UNIT ( ) );
#227 = ADVANCED_FACE ( 'NONE', ( #316 ), #301, .T. ) ;
#228 = ORIENTED_EDGE ( 'NONE', *, *, #33, .T. ) ;
#229 = PRODUCT_DEFINITION_FORMATION_WITH_SPECIFIED_SOURCE ( 'ANY', '', #7, .NOT_KNOWN. ) ;
#230 = EDGE_CURVE ( 'NONE', #184, #275, #12, .T. ) ;
#231 = VERTEX_POINT ( 'NONE', #146 ) ;
#232 = VERTEX_POINT ( 'NONE', #19 ) ;
#233 = ORIENTED_EDGE ( 'NONE', *, *, #180, .F. ) ;
#234 = DIRECTION ( 'NONE',  ( 1.000000000000000000, 0.0000000000000000000, -0.0000000000000000000 ) ) ;
#235 = FACE_OUTER_BOUND ( 'NONE', #99, .T. ) ;
#236 = DIRECTION ( 'NONE',  ( -1.224646799147353700E-16, -0.0000000000000000000, -1.000000000000000000 ) ) ;
#237 = AXIS2_PLACEMENT_3D ( 'NONE', #220, #287, #319 ) ;
#238 = LINE ( 'NONE', #185, #251 ) ;
#239 = DIRECTION ( 'NONE',  ( 0.0000000000000000000, 1.000000000000000000, 0.0000000000000000000 ) ) ;
#240 = CARTESIAN_POINT ( 'NONE',  ( 0.0000000000000000000, 0.0000000000000000000, 1.500000000000000222 ) ) ;
#241 =( GEOMETRIC_REPRESENTATION_CONTEXT ( 3 ) GLOBAL_UNCERTAINTY_ASSIGNED_CONTEXT ( ( #100 ) ) GLOBAL_UNIT_ASSIGNED_CONTEXT ( ( #271, #276, #206 ) ) REPRESENTATION_CONTEXT ( 'NONE', 'WORKASPACE' ) );
#242 = CARTESIAN_POINT ( 'NONE',  ( 1.334865011070615584E-17, 0.0000000000000000000, 0.1089999999999999997 ) ) ;
#243 = UNCERTAINTY_MEASURE_WITH_UNIT (LENGTH_MEASURE( 1.000000000000000082E-05 ), #257, 'distance_accuracy_value', 'NONE');
#244 = ADVANCED_BREP_SHAPE_REPRESENTATION ( 'Micro_BEM-046-03', ( #28, #265 ), #241 ) ;
#245 = DIRECTION ( 'NONE',  ( -1.224646799147353700E-16, -0.0000000000000000000, -1.000000000000000000 ) ) ;
#246 = VERTEX_POINT ( 'NONE', #199 ) ;
#247 = DIRECTION ( 'NONE',  ( 1.224646799147353700E-16, 0.0000000000000000000, 1.000000000000000000 ) ) ;
#248 = VERTEX_POINT ( 'NONE', #63 ) ;
#249 = ORIENTED_EDGE ( 'NONE', *, *, #261, .F. ) ;
#250 = ORIENTED_EDGE ( 'NONE', *, *, #186, .T. ) ;
#251 = VECTOR ( 'NONE', #36, 39.37007874015748143 ) ;
#252 = ORIENTED_EDGE ( 'NONE', *, *, #282, .T. ) ;
#253 = ORIENTED_EDGE ( 'NONE', *, *, #136, .F. ) ;
#254 = CARTESIAN_POINT ( 'NONE',  ( 0.0000000000000000000, 0.0000000000000000000, 0.0000000000000000000 ) ) ;
#255 = DIRECTION ( 'NONE',  ( -1.224646799147353700E-16, -0.0000000000000000000, -1.000000000000000000 ) ) ;
#256 = DIRECTION ( 'NONE',  ( -1.000000000000000000, 0.0000000000000000000, 0.0000000000000000000 ) ) ;
#257 =( CONVERSION_BASED_UNIT ( 'INCH', #278 ) LENGTH_UNIT ( ) NAMED_UNIT ( #38 ) );
#258 = EDGE_CURVE ( 'NONE', #248, #232, #120, .T. ) ;
#259 = AXIS2_PLACEMENT_3D ( 'NONE', #45, #266, #263 ) ;
#260 = CARTESIAN_POINT ( 'NONE',  ( 0.0000000000000000000, 0.0000000000000000000, 0.0000000000000000000 ) ) ;
#261 = EDGE_CURVE ( 'NONE', #26, #246, #72, .T. ) ;
#262 = CARTESIAN_POINT ( 'NONE',  ( 0.02337660000000001126, 0.0000000000000000000, 0.1089999999999999997 ) ) ;
#263 = DIRECTION ( 'NONE',  ( 0.0000000000000000000, 0.0000000000000000000, -1.000000000000000000 ) ) ;
#264 = AXIS2_PLACEMENT_3D ( 'NONE', #85, #39, #187 ) ;
#265 = AXIS2_PLACEMENT_3D ( 'NONE', #124, #300, #77 ) ;
#266 = DIRECTION ( 'NONE',  ( 0.0000000000000000000, -1.000000000000000000, 0.0000000000000000000 ) ) ;
#267 = EDGE_CURVE ( 'NONE', #50, #232, #214, .T. ) ;
#268 = DIRECTION ( 'NONE',  ( 1.000000000000000000, 0.0000000000000000000, 0.0000000000000000000 ) ) ;
#269 = CARTESIAN_POINT ( 'NONE',  ( 0.06250000000000006939, 7.654042494670963708E-18, 0.3308798271416305559 ) ) ;
#270 = ORIENTED_EDGE ( 'NONE', *, *, #230, .F. ) ;
#271 =( CONVERSION_BASED_UNIT ( 'INCH', #24 ) LENGTH_UNIT ( ) NAMED_UNIT ( #164 ) );
#272 = AXIS2_PLACEMENT_3D ( 'NONE', #141, #222, #321 ) ;
#273 = ORIENTED_EDGE ( 'NONE', *, *, #258, .F. ) ;
#274 = SURFACE_STYLE_USAGE ( .BOTH. , #299 ) ;
#275 = VERTEX_POINT ( 'NONE', #167 ) ;
#276 =( NAMED_UNIT ( * ) PLANE_ANGLE_UNIT ( ) SI_UNIT ( $, .RADIAN. ) );
#277 = CIRCLE ( 'NONE', #182, 0.02337660000000000432 ) ;
#278 = LENGTH_MEASURE_WITH_UNIT ( LENGTH_MEASURE( 0.02539999999999999897 ), #155 );
#279 = ORIENTED_EDGE ( 'NONE', *, *, #186, .F. ) ;
#280 = CYLINDRICAL_SURFACE ( 'NONE', #264, 0.06250000000000002776 ) ;
#281 = DIRECTION ( 'NONE',  ( -1.000000000000000000, 1.224646799147352961E-16, 0.0000000000000000000 ) ) ;
#282 = EDGE_CURVE ( 'NONE', #232, #275, #94, .T. ) ;
#283 =( NAMED_UNIT ( * ) PLANE_ANGLE_UNIT ( ) SI_UNIT ( $, .RADIAN. ) );
#284 = CARTESIAN_POINT ( 'NONE',  ( 0.06250000000000002776, 7.654042494670959086E-18, 1.485000000000000764 ) ) ;
#285 = DIRECTION ( 'NONE',  ( 0.0000000000000000000, 0.0000000000000000000, 1.000000000000000000 ) ) ;
#286 = VECTOR ( 'NONE', #48, 39.37007874015748143 ) ;
#287 = DIRECTION ( 'NONE',  ( 1.224646799147353700E-16, 0.0000000000000000000, 1.000000000000000000 ) ) ;
#288 = DIRECTION ( 'NONE',  ( 1.000000000000000000, 0.0000000000000000000, 0.0000000000000000000 ) ) ;
#289 = CARTESIAN_POINT ( 'NONE',  ( 0.0000000000000000000, 0.0000000000000000000, 1.485000000000000764 ) ) ;
#290 = FACE_OUTER_BOUND ( 'NONE', #121, .T. ) ;
#291 = ORIENTED_EDGE ( 'NONE', *, *, #230, .T. ) ;
#292 = CARTESIAN_POINT ( 'NONE',  ( 0.02337660000000000779, 2.862807836494801830E-18, 0.02337659999999999738 ) ) ;
#293 = PRODUCT_DEFINITION ( 'UNKNOWN', '', #229, #309 ) ;
#294 = CLOSED_SHELL ( 'NONE', ( #196, #44, #86, #227, #74, #310, #97, #318, #216, #57, #323 ) ) ;
#295 =( LENGTH_UNIT ( ) NAMED_UNIT ( * ) SI_UNIT ( $, .METRE. ) );
#296 = ORIENTED_EDGE ( 'NONE', *, *, #317, .T. ) ;
#297 =( CONVERSION_BASED_UNIT ( 'INCH', #150 ) LENGTH_UNIT ( ) NAMED_UNIT ( #192 ) );
#298 = ORIENTED_EDGE ( 'NONE', *, *, #33, .F. ) ;
#299 = SURFACE_SIDE_STYLE ('',( #224 ) ) ;
#300 = DIRECTION ( 'NONE',  ( 0.0000000000000000000, 0.0000000000000000000, 1.000000000000000000 ) ) ;
#301 = CONICAL_SURFACE ( 'NONE', #110, 0.04750000000000064587, 0.7853981633974466137 ) ;
#302 = ORIENTED_EDGE ( 'NONE', *, *, #305, .T. ) ;
#303 = DIRECTION ( 'NONE',  ( -0.0000000000000000000, -0.0000000000000000000, -1.000000000000000000 ) ) ;
#304 = FACE_OUTER_BOUND ( 'NONE', #153, .T. ) ;
#305 = EDGE_CURVE ( 'NONE', #177, #50, #70, .T. ) ;
#306 = CARTESIAN_POINT ( 'NONE',  ( 0.0000000000000000000, 0.0000000000000000000, 1.500000000000000222 ) ) ;
#307 = AXIS2_PLACEMENT_3D ( 'NONE', #62, #138, #234 ) ;
#308 = CARTESIAN_POINT ( 'NONE',  ( -0.02337659999999998697, 2.862807836494801445E-18, 0.1089999999999999997 ) ) ;
#309 = PRODUCT_DEFINITION_CONTEXT ( 'detailed design', #89, 'design' ) ;
#310 = ADVANCED_FACE ( 'NONE', ( #195 ), #168, .T. ) ;
#311 = DIRECTION ( 'NONE',  ( -1.224646799147353700E-16, -0.0000000000000000000, -1.000000000000000000 ) ) ;
#312 = FACE_OUTER_BOUND ( 'NONE', #147, .T. ) ;
#313 = AXIS2_PLACEMENT_3D ( 'NONE', #260, #161, #212 ) ;
#314 = STYLED_ITEM ( 'NONE', ( #152 ), #244 ) ;
#315 = FACE_OUTER_BOUND ( 'NONE', #103, .T. ) ;
#316 = FACE_OUTER_BOUND ( 'NONE', #55, .T. ) ;
#317 = EDGE_CURVE ( 'NONE', #231, #109, #59, .T. ) ;
#318 = ADVANCED_FACE ( 'NONE', ( #290 ), #92, .T. ) ;
#319 = DIRECTION ( 'NONE',  ( -1.000000000000000000, 0.0000000000000000000, 1.825976613408455680E-16 ) ) ;
#320 = AXIS2_PLACEMENT_3D ( 'NONE', #8, #311, #112 ) ;
#321 = DIRECTION ( 'NONE',  ( -1.000000000000000000, 0.0000000000000000000, 0.0000000000000000000 ) ) ;
#322 = ORIENTED_EDGE ( 'NONE', *, *, #115, .F. ) ;
#323 = ADVANCED_FACE ( 'NONE', ( #315 ), #101, .T. ) ;
#324 =( NAMED_UNIT ( * ) PLANE_ANGLE_UNIT ( ) SI_UNIT ( $, .RADIAN. ) );
#325 = ORIENTED_EDGE ( 'NONE', *, *, #180, .T. ) ;
ENDSEC;
END-ISO-10303-21;
