ISO-10303-21;
HEADER;
FILE_DESCRIPTION (( 'STEP AP214' ),
    '1' );
FILE_NAME ('Micro_SBM-312-4.STEP',
    '2021-09-02T17:02:03',
    ( '' ),
    ( '' ),
    'SwSTEP 2.0',
    'SolidWorks 2020',
    '' );
FILE_SCHEMA (( 'AUTOMOTIVE_DESIGN' ));
ENDSEC;

DATA;
#1 = ORIENTED_EDGE ( 'NONE', *, *, #312, .T. ) ;
#2 = CARTESIAN_POINT ( 'NONE',  ( -0.1562500000000000000, 0.0000000000000000000, 3.984999999999999876 ) ) ;
#3 = SURFACE_STYLE_FILL_AREA ( #169 ) ;
#4 = CARTESIAN_POINT ( 'NONE',  ( 0.0000000000000000000, 0.0000000000000000000, 0.1562000000000000055 ) ) ;
#5 = VERTEX_POINT ( 'NONE', #12 ) ;
#6 = SPHERICAL_SURFACE ( 'NONE', #271, 0.1562000000000000055 ) ;
#7 = EDGE_CURVE ( 'NONE', #299, #171, #282, .T. ) ;
#8 = DIRECTION ( 'NONE',  ( -0.05201283418987247276, 6.369735090520933710E-18, 0.9986464164455489678 ) ) ;
#9 = DIRECTION ( 'NONE',  ( 0.0000000000000000000, 0.0000000000000000000, -1.000000000000000000 ) ) ;
#10 =( LENGTH_UNIT ( ) NAMED_UNIT ( * ) SI_UNIT ( $, .METRE. ) );
#11 = EDGE_CURVE ( 'NONE', #54, #82, #244, .T. ) ;
#12 = CARTESIAN_POINT ( 'NONE',  ( 0.1249999999999999861, 1.530808498934191201E-17, 0.2498666429418712753 ) ) ;
#13 = LENGTH_MEASURE_WITH_UNIT ( LENGTH_MEASURE( 0.02539999999999999897 ), #252 );
#14 =( GEOMETRIC_REPRESENTATION_CONTEXT ( 3 ) GLOBAL_UNCERTAINTY_ASSIGNED_CONTEXT ( ( #133 ) ) GLOBAL_UNIT_ASSIGNED_CONTEXT ( ( #186, #159, #335 ) ) REPRESENTATION_CONTEXT ( 'NONE', 'WORKASPACE' ) );
#15 = AXIS2_PLACEMENT_3D ( 'NONE', #141, #300, #226 ) ;
#16 = DIRECTION ( 'NONE',  ( 0.0000000000000000000, 0.0000000000000000000, 1.000000000000000000 ) ) ;
#17 = DIRECTION ( 'NONE',  ( -0.0000000000000000000, -0.0000000000000000000, -1.000000000000000000 ) ) ;
#18 = DIRECTION ( 'NONE',  ( 1.000000000000000000, 0.0000000000000000000, 0.0000000000000000000 ) ) ;
#19 = MANIFOLD_SOLID_BREP ( 'Cut-Revolve3', #51 ) ;
#20 = VECTOR ( 'NONE', #309, 39.37007874015748143 ) ;
#21 = CIRCLE ( 'NONE', #163, 0.1412500000000000422 ) ;
#22 = UNCERTAINTY_MEASURE_WITH_UNIT (LENGTH_MEASURE( 1.000000000000000082E-05 ), #203, 'distance_accuracy_value', 'NONE');
#23 = EDGE_CURVE ( 'NONE', #166, #66, #131, .T. ) ;
#24 = MECHANICAL_DESIGN_GEOMETRIC_PRESENTATION_REPRESENTATION (  '', ( #190 ), #241 ) ;
#25 = EDGE_CURVE ( 'NONE', #330, #220, #134, .T. ) ;
#26 = ORIENTED_EDGE ( 'NONE', *, *, #11, .T. ) ;
#27 = EDGE_LOOP ( 'NONE', ( #180, #297, #26, #273 ) ) ;
#28 = ORIENTED_EDGE ( 'NONE', *, *, #37, .F. ) ;
#29 = DIRECTION ( 'NONE',  ( -1.224646799147353207E-16, 1.000000000000000000, 0.0000000000000000000 ) ) ;
#30 = CARTESIAN_POINT ( 'NONE',  ( 0.0000000000000000000, 0.0000000000000000000, 0.2498666429418712753 ) ) ;
#31 = CARTESIAN_POINT ( 'NONE',  ( 0.0000000000000000000, 0.0000000000000000000, 0.1562000000000000055 ) ) ;
#32 = DIMENSIONAL_EXPONENTS ( 1.000000000000000000, 0.0000000000000000000, 0.0000000000000000000, 0.0000000000000000000, 0.0000000000000000000, 0.0000000000000000000, 0.0000000000000000000 ) ;
#33 = CARTESIAN_POINT ( 'NONE',  ( 0.0000000000000000000, 0.0000000000000000000, 0.1562000000000000055 ) ) ;
#34 = DIRECTION ( 'NONE',  ( 0.0000000000000000000, 0.0000000000000000000, 1.000000000000000000 ) ) ;
#35 = ORIENTED_EDGE ( 'NONE', *, *, #37, .T. ) ;
#36 = PRODUCT_DEFINITION_FORMATION_WITH_SPECIFIED_SOURCE ( 'ANY', '', #49, .NOT_KNOWN. ) ;
#37 = EDGE_CURVE ( 'NONE', #166, #100, #79, .T. ) ;
#38 = CARTESIAN_POINT ( 'NONE',  ( 0.1249999999999999445, 1.530808498934190893E-17, 0.0000000000000000000 ) ) ;
#39 = EDGE_LOOP ( 'NONE', ( #214, #61, #317, #249 ) ) ;
#40 = CARTESIAN_POINT ( 'NONE',  ( -0.1249999999999999306, 1.722159561300964870E-17, 0.5999999999999999778 ) ) ;
#41 = FACE_OUTER_BOUND ( 'NONE', #198, .T. ) ;
#42 = EDGE_LOOP ( 'NONE', ( #168, #342, #243, #152 ) ) ;
#43 = DIRECTION ( 'NONE',  ( 0.0000000000000000000, 0.0000000000000000000, 1.000000000000000000 ) ) ;
#44 = CARTESIAN_POINT ( 'NONE',  ( 0.0000000000000000000, 0.0000000000000000000, 0.5999999999999999778 ) ) ;
#45 = ADVANCED_FACE ( 'NONE', ( #196 ), #96, .T. ) ;
#46 = VECTOR ( 'NONE', #129, 39.37007874015748143 ) ;
#47 = DIRECTION ( 'NONE',  ( -1.000000000000000000, 0.0000000000000000000, 0.0000000000000000000 ) ) ;
#48 = VECTOR ( 'NONE', #157, 39.37007874015748143 ) ;
#49 = PRODUCT ( 'Micro_SBM-312-4', 'Micro_SBM-312-4', '', ( #154 ) ) ;
#50 = AXIS2_PLACEMENT_3D ( 'NONE', #237, #211, #117 ) ;
#51 = CLOSED_SHELL ( 'NONE', ( #210, #93, #278, #272, #84, #136, #108, #130, #296, #45, #191 ) ) ;
#52 = CIRCLE ( 'NONE', #261, 0.1249999999999999584 ) ;
#53 = AXIS2_PLACEMENT_3D ( 'NONE', #146, #283, #123 ) ;
#54 = VERTEX_POINT ( 'NONE', #207 ) ;
#55 = PRESENTATION_STYLE_ASSIGNMENT (( #293 ) ) ;
#56 = CARTESIAN_POINT ( 'NONE',  ( 0.0000000000000000000, 0.0000000000000000000, 0.2498666429418712753 ) ) ;
#57 = DIMENSIONAL_EXPONENTS ( 1.000000000000000000, 0.0000000000000000000, 0.0000000000000000000, 0.0000000000000000000, 0.0000000000000000000, 0.0000000000000000000, 0.0000000000000000000 ) ;
#58 = ORIENTED_EDGE ( 'NONE', *, *, #164, .T. ) ;
#59 = CARTESIAN_POINT ( 'NONE',  ( 0.1249999999999999306, 0.0000000000000000000, 0.5999999999999999778 ) ) ;
#60 = DIRECTION ( 'NONE',  ( 0.0000000000000000000, 1.000000000000000000, 0.0000000000000000000 ) ) ;
#61 = ORIENTED_EDGE ( 'NONE', *, *, #78, .F. ) ;
#62 = AXIS2_PLACEMENT_3D ( 'NONE', #102, #208, #310 ) ;
#63 = CARTESIAN_POINT ( 'NONE',  ( 0.0000000000000000000, 0.0000000000000000000, 4.000000000000000000 ) ) ;
#64 = DIRECTION ( 'NONE',  ( -1.000000000000000000, 0.0000000000000000000, 0.0000000000000000000 ) ) ;
#65 = PRODUCT_DEFINITION_SHAPE ( 'NONE', 'NONE',  #101 ) ;
#66 = VERTEX_POINT ( 'NONE', #103 ) ;
#67 = DIRECTION ( 'NONE',  ( 0.0000000000000000000, 0.0000000000000000000, 1.000000000000000000 ) ) ;
#68 = SHAPE_DEFINITION_REPRESENTATION ( #65, #270 ) ;
#69 = DIRECTION ( 'NONE',  ( 0.0000000000000000000, 0.0000000000000000000, 1.000000000000000000 ) ) ;
#70 = CARTESIAN_POINT ( 'NONE',  ( -0.1249999999999999445, 0.0000000000000000000, 0.0000000000000000000 ) ) ;
#71 = LENGTH_MEASURE_WITH_UNIT ( LENGTH_MEASURE( 0.02539999999999999897 ), #245 );
#72 = CARTESIAN_POINT ( 'NONE',  ( 0.1412500000000000422, 1.821662113731687868E-17, 4.000000000000000000 ) ) ;
#73 = CYLINDRICAL_SURFACE ( 'NONE', #301, 0.1562500000000000000 ) ;
#74 = FACE_OUTER_BOUND ( 'NONE', #122, .T. ) ;
#75 = CIRCLE ( 'NONE', #135, 0.1562500000000000000 ) ;
#76 = VECTOR ( 'NONE', #305, 39.37007874015748143 ) ;
#77 = EDGE_CURVE ( 'NONE', #140, #239, #263, .T. ) ;
#78 = EDGE_CURVE ( 'NONE', #140, #299, #215, .T. ) ;
#79 = CIRCLE ( 'NONE', #132, 0.1412500000000000422 ) ;
#80 = ORIENTED_EDGE ( 'NONE', *, *, #112, .F. ) ;
#81 = ORIENTED_EDGE ( 'NONE', *, *, #23, .T. ) ;
#82 = VERTEX_POINT ( 'NONE', #285 ) ;
#83 = APPLICATION_PROTOCOL_DEFINITION ( 'draft international standard', 'automotive_design', 1998, #290 ) ;
#84 = ADVANCED_FACE ( 'NONE', ( #41 ), #73, .T. ) ;
#85 = COLOUR_RGB ( '',0.7921568627450980005, 0.8196078431372548767, 0.9333333333333333481 ) ;
#86 = SURFACE_STYLE_FILL_AREA ( #320 ) ;
#87 = FILL_AREA_STYLE_COLOUR ( '', #331 ) ;
#88 = EDGE_CURVE ( 'NONE', #54, #330, #265, .T. ) ;
#89 = ORIENTED_EDGE ( 'NONE', *, *, #78, .T. ) ;
#90 = DIRECTION ( 'NONE',  ( -1.000000000000000000, 0.0000000000000000000, 0.0000000000000000000 ) ) ;
#91 = DIRECTION ( 'NONE',  ( 0.7071067811865411334, 8.659560562354852739E-17, -0.7071067811865539010 ) ) ;
#92 = DIRECTION ( 'NONE',  ( -1.000000000000000000, 0.0000000000000000000, 0.0000000000000000000 ) ) ;
#93 = ADVANCED_FACE ( 'NONE', ( #289 ), #6, .T. ) ;
#94 = ORIENTED_EDGE ( 'NONE', *, *, #176, .F. ) ;
#95 = CARTESIAN_POINT ( 'NONE',  ( 0.0000000000000000000, 0.1249999999999999861, 0.2498666429418712753 ) ) ;
#96 = SPHERICAL_SURFACE ( 'NONE', #200, 0.1562000000000000055 ) ;
#97 = CARTESIAN_POINT ( 'NONE',  ( 0.0000000000000000000, 0.0000000000000000000, 0.2498666429418712753 ) ) ;
#98 = DIRECTION ( 'NONE',  ( -0.0000000000000000000, -0.0000000000000000000, -1.000000000000000000 ) ) ;
#99 = DIRECTION ( 'NONE',  ( 1.000000000000000000, 0.0000000000000000000, -0.0000000000000000000 ) ) ;
#100 = VERTEX_POINT ( 'NONE', #151 ) ;
#101 = PRODUCT_DEFINITION ( 'UNKNOWN', '', #36, #106 ) ;
#102 = CARTESIAN_POINT ( 'NONE',  ( 0.0000000000000000000, 0.0000000000000000000, 4.000000000000000000 ) ) ;
#103 = CARTESIAN_POINT ( 'NONE',  ( 0.1562500000000000000, 1.913510623667739463E-17, 3.984999999999999876 ) ) ;
#104 = EDGE_CURVE ( 'NONE', #171, #239, #125, .T. ) ;
#105 = PRODUCT_RELATED_PRODUCT_CATEGORY ( 'part', '', ( #49 ) ) ;
#106 = PRODUCT_DEFINITION_CONTEXT ( 'detailed design', #294, 'design' ) ;
#107 = STYLED_ITEM ( 'NONE', ( #55 ), #19 ) ;
#108 = ADVANCED_FACE ( 'NONE', ( #308 ), #228, .T. ) ;
#109 = CONICAL_SURFACE ( 'NONE', #339, 0.1412500000000000422, 0.7853981633974391752 ) ;
#110 = EDGE_LOOP ( 'NONE', ( #58, #35 ) ) ;
#111 = VECTOR ( 'NONE', #336, 39.37007874015748143 ) ;
#112 = EDGE_CURVE ( 'NONE', #5, #54, #52, .T. ) ;
#113 = EDGE_CURVE ( 'NONE', #140, #5, #281, .T. ) ;
#114 = CARTESIAN_POINT ( 'NONE',  ( 0.0000000000000000000, 0.0000000000000000000, 0.1562000000000000055 ) ) ;
#115 =( NAMED_UNIT ( * ) PLANE_ANGLE_UNIT ( ) SI_UNIT ( $, .RADIAN. ) );
#116 = AXIS2_PLACEMENT_3D ( 'NONE', #253, #9, #338 ) ;
#117 = DIRECTION ( 'NONE',  ( -1.000000000000000000, 0.0000000000000000000, 0.0000000000000000000 ) ) ;
#118 = CARTESIAN_POINT ( 'NONE',  ( 0.0000000000000000000, 0.0000000000000000000, 1.199999999999999734 ) ) ;
#119 = EDGE_LOOP ( 'NONE', ( #28, #81, #145, #194 ) ) ;
#120 = DIRECTION ( 'NONE',  ( 1.000000000000000000, 0.0000000000000000000, 0.0000000000000000000 ) ) ;
#121 = DIRECTION ( 'NONE',  ( -0.0000000000000000000, -0.0000000000000000000, -1.000000000000000000 ) ) ;
#122 = EDGE_LOOP ( 'NONE', ( #94, #175, #251, #326 ) ) ;
#123 = DIRECTION ( 'NONE',  ( 1.000000000000000000, 0.0000000000000000000, 0.0000000000000000000 ) ) ;
#124 = DIRECTION ( 'NONE',  ( -0.0000000000000000000, -0.0000000000000000000, -1.000000000000000000 ) ) ;
#125 = CIRCLE ( 'NONE', #313, 0.1562500000000000000 ) ;
#126 = DIRECTION ( 'NONE',  ( 1.000000000000000000, 1.224646799147353207E-16, -0.0000000000000000000 ) ) ;
#127 =( NAMED_UNIT ( * ) PLANE_ANGLE_UNIT ( ) SI_UNIT ( $, .RADIAN. ) );
#128 = FACE_OUTER_BOUND ( 'NONE', #276, .T. ) ;
#129 = DIRECTION ( 'NONE',  ( -0.7071067811865411334, 0.0000000000000000000, -0.7071067811865539010 ) ) ;
#130 = ADVANCED_FACE ( 'NONE', ( #128 ), #109, .T. ) ;
#131 = LINE ( 'NONE', #275, #279 ) ;
#132 = AXIS2_PLACEMENT_3D ( 'NONE', #250, #69, #324 ) ;
#133 = UNCERTAINTY_MEASURE_WITH_UNIT (LENGTH_MEASURE( 1.000000000000000082E-05 ), #186, 'distance_accuracy_value', 'NONE');
#134 = CIRCLE ( 'NONE', #234, 0.1249999999999999584 ) ;
#135 = AXIS2_PLACEMENT_3D ( 'NONE', #183, #298, #150 ) ;
#136 = ADVANCED_FACE ( 'NONE', ( #260 ), #231, .T. ) ;
#137 = EDGE_CURVE ( 'NONE', #220, #5, #179, .T. ) ;
#138 = ORIENTED_EDGE ( 'NONE', *, *, #88, .F. ) ;
#139 = CONICAL_SURFACE ( 'NONE', #266, 0.1718749999999997780, 0.05203631480921632607 ) ;
#140 = VERTEX_POINT ( 'NONE', #59 ) ;
#141 = CARTESIAN_POINT ( 'NONE',  ( 0.0000000000000000000, 0.0000000000000000000, 0.0000000000000000000 ) ) ;
#142 = EDGE_CURVE ( 'NONE', #66, #205, #75, .T. ) ;
#143 = DIRECTION ( 'NONE',  ( -0.0000000000000000000, -0.0000000000000000000, -1.000000000000000000 ) ) ;
#144 = CIRCLE ( 'NONE', #116, 0.1562500000000000000 ) ;
#145 = ORIENTED_EDGE ( 'NONE', *, *, #312, .F. ) ;
#146 = CARTESIAN_POINT ( 'NONE',  ( 0.0000000000000000000, 0.0000000000000000000, 1.499999999999994893 ) ) ;
#147 = PRESENTATION_STYLE_ASSIGNMENT (( #319 ) ) ;
#148 = DIRECTION ( 'NONE',  ( 0.0000000000000000000, 0.0000000000000000000, -1.000000000000000000 ) ) ;
#149 = CARTESIAN_POINT ( 'NONE',  ( -0.1718749999999997780, 2.104861686034510975E-17, 1.499999999999994893 ) ) ;
#150 = DIRECTION ( 'NONE',  ( 1.000000000000000000, 0.0000000000000000000, 0.0000000000000000000 ) ) ;
#151 = CARTESIAN_POINT ( 'NONE',  ( -0.1412500000000000422, 0.0000000000000000000, 4.000000000000000000 ) ) ;
#152 = ORIENTED_EDGE ( 'NONE', *, *, #104, .T. ) ;
#153 = DIRECTION ( 'NONE',  ( -1.000000000000000000, 0.0000000000000000000, 0.0000000000000000000 ) ) ;
#154 = PRODUCT_CONTEXT ( 'NONE', #290, 'mechanical' ) ;
#155 = CARTESIAN_POINT ( 'NONE',  ( 0.0000000000000000000, 0.0000000000000000000, 4.000000000000000000 ) ) ;
#156 = CARTESIAN_POINT ( 'NONE',  ( 0.0000000000000000000, 0.0000000000000000000, 1.199999999999999734 ) ) ;
#157 = DIRECTION ( 'NONE',  ( -0.0000000000000000000, -0.0000000000000000000, -1.000000000000000000 ) ) ;
#158 = VECTOR ( 'NONE', #287, 39.37007874015748143 ) ;
#159 =( NAMED_UNIT ( * ) PLANE_ANGLE_UNIT ( ) SI_UNIT ( $, .RADIAN. ) );
#160 = CYLINDRICAL_SURFACE ( 'NONE', #316, 0.1249999999999999445 ) ;
#161 = DIRECTION ( 'NONE',  ( -1.000000000000000000, 0.0000000000000000000, 0.0000000000000000000 ) ) ;
#162 = AXIS2_PLACEMENT_3D ( 'NONE', #56, #124, #172 ) ;
#163 = AXIS2_PLACEMENT_3D ( 'NONE', #63, #43, #230 ) ;
#164 = EDGE_CURVE ( 'NONE', #100, #166, #21, .T. ) ;
#165 = LINE ( 'NONE', #174, #76 ) ;
#166 = VERTEX_POINT ( 'NONE', #72 ) ;
#167 = ORIENTED_EDGE ( 'NONE', *, *, #23, .F. ) ;
#168 = ORIENTED_EDGE ( 'NONE', *, *, #318, .F. ) ;
#169 = FILL_AREA_STYLE ('',( #87 ) ) ;
#170 = DIMENSIONAL_EXPONENTS ( 1.000000000000000000, 0.0000000000000000000, 0.0000000000000000000, 0.0000000000000000000, 0.0000000000000000000, 0.0000000000000000000, 0.0000000000000000000 ) ;
#171 = VERTEX_POINT ( 'NONE', #181 ) ;
#172 = DIRECTION ( 'NONE',  ( -1.000000000000000000, 0.0000000000000000000, 0.0000000000000000000 ) ) ;
#173 = DIRECTION ( 'NONE',  ( 0.0000000000000000000, 0.0000000000000000000, 1.000000000000000000 ) ) ;
#174 = CARTESIAN_POINT ( 'NONE',  ( 0.1562500000000000000, 1.913510623667739463E-17, 4.000000000000000000 ) ) ;
#175 = ORIENTED_EDGE ( 'NONE', *, *, #7, .T. ) ;
#176 = EDGE_CURVE ( 'NONE', #299, #140, #192, .T. ) ;
#177 = DIRECTION ( 'NONE',  ( -1.000000000000000000, 0.0000000000000000000, 0.0000000000000000000 ) ) ;
#178 = DIRECTION ( 'NONE',  ( -0.0000000000000000000, -0.0000000000000000000, -1.000000000000000000 ) ) ;
#179 = CIRCLE ( 'NONE', #267, 0.1249999999999999584 ) ;
#180 = ORIENTED_EDGE ( 'NONE', *, *, #137, .T. ) ;
#181 = CARTESIAN_POINT ( 'NONE',  ( -0.1562500000000000000, 0.0000000000000000000, 1.199999999999999734 ) ) ;
#182 = ORIENTED_EDGE ( 'NONE', *, *, #25, .F. ) ;
#183 = CARTESIAN_POINT ( 'NONE',  ( 0.0000000000000000000, 0.0000000000000000000, 3.984999999999999876 ) ) ;
#184 = SURFACE_SIDE_STYLE ('',( #3 ) ) ;
#185 = CARTESIAN_POINT ( 'NONE',  ( 0.0000000000000000000, 0.0000000000000000000, 0.2498666429418712753 ) ) ;
#186 =( CONVERSION_BASED_UNIT ( 'INCH', #71 ) LENGTH_UNIT ( ) NAMED_UNIT ( #170 ) );
#187 = CARTESIAN_POINT ( 'NONE',  ( 0.0000000000000000000, 0.0000000000000000000, 0.5999999999999999778 ) ) ;
#188 = DIRECTION ( 'NONE',  ( -0.0000000000000000000, -0.0000000000000000000, -1.000000000000000000 ) ) ;
#189 = AXIS2_PLACEMENT_3D ( 'NONE', #31, #92, #173 ) ;
#190 = STYLED_ITEM ( 'NONE', ( #147 ), #270 ) ;
#191 = ADVANCED_FACE ( 'NONE', ( #258 ), #246, .T. ) ;
#192 = CIRCLE ( 'NONE', #216, 0.1249999999999999306 ) ;
#193 = ORIENTED_EDGE ( 'NONE', *, *, #113, .T. ) ;
#194 = ORIENTED_EDGE ( 'NONE', *, *, #206, .F. ) ;
#195 = CARTESIAN_POINT ( 'NONE',  ( 0.0000000000000000000, 0.0000000000000000000, 1.499999999999994893 ) ) ;
#196 = FACE_OUTER_BOUND ( 'NONE', #238, .T. ) ;
#197 = DIRECTION ( 'NONE',  ( 1.000000000000000000, 0.0000000000000000000, 0.0000000000000000000 ) ) ;
#198 = EDGE_LOOP ( 'NONE', ( #1, #341, #333, #217 ) ) ;
#199 = DIRECTION ( 'NONE',  ( 1.000000000000000000, 0.0000000000000000000, 0.0000000000000000000 ) ) ;
#200 = AXIS2_PLACEMENT_3D ( 'NONE', #33, #199, #233 ) ;
#201 = ORIENTED_EDGE ( 'NONE', *, *, #340, .T. ) ;
#202 = CARTESIAN_POINT ( 'NONE',  ( -0.1412500000000000422, 0.0000000000000000000, 4.000000000000000000 ) ) ;
#203 =( CONVERSION_BASED_UNIT ( 'INCH', #13 ) LENGTH_UNIT ( ) NAMED_UNIT ( #32 ) );
#204 = CARTESIAN_POINT ( 'NONE',  ( 0.1718749999999997780, 0.0000000000000000000, 1.499999999999994893 ) ) ;
#205 = VERTEX_POINT ( 'NONE', #2 ) ;
#206 = EDGE_CURVE ( 'NONE', #100, #205, #221, .T. ) ;
#207 = CARTESIAN_POINT ( 'NONE',  ( 1.530808498934191201E-17, -0.1249999999999999861, 0.2498666429418712753 ) ) ;
#208 = DIRECTION ( 'NONE',  ( 0.0000000000000000000, 0.0000000000000000000, -1.000000000000000000 ) ) ;
#209 = PRESENTATION_LAYER_ASSIGNMENT (  '', '', ( #107 ) ) ;
#210 = ADVANCED_FACE ( 'NONE', ( #323 ), #160, .T. ) ;
#211 = DIRECTION ( 'NONE',  ( -0.0000000000000000000, -0.0000000000000000000, -1.000000000000000000 ) ) ;
#212 = AXIS2_PLACEMENT_3D ( 'NONE', #223, #332, #99 ) ;
#213 = ORIENTED_EDGE ( 'NONE', *, *, #176, .T. ) ;
#214 = ORIENTED_EDGE ( 'NONE', *, *, #7, .F. ) ;
#215 = CIRCLE ( 'NONE', #292, 0.1249999999999999306 ) ;
#216 = AXIS2_PLACEMENT_3D ( 'NONE', #187, #143, #153 ) ;
#217 = ORIENTED_EDGE ( 'NONE', *, *, #264, .F. ) ;
#218 = AXIS2_PLACEMENT_3D ( 'NONE', #334, #288, #177 ) ;
#219 = CONICAL_SURFACE ( 'NONE', #53, 0.1718749999999997780, 0.05203631480921632607 ) ;
#220 = VERTEX_POINT ( 'NONE', #95 ) ;
#221 = LINE ( 'NONE', #202, #46 ) ;
#222 = LENGTH_MEASURE_WITH_UNIT ( LENGTH_MEASURE( 0.02539999999999999897 ), #10 );
#223 = CARTESIAN_POINT ( 'NONE',  ( 0.0000000000000000000, 0.0000000000000000000, 4.000000000000000000 ) ) ;
#224 = ORIENTED_EDGE ( 'NONE', *, *, #206, .T. ) ;
#225 = CARTESIAN_POINT ( 'NONE',  ( 0.1562500000000000000, 1.913510623667739463E-17, 1.199999999999999734 ) ) ;
#226 = DIRECTION ( 'NONE',  ( 1.000000000000000000, 0.0000000000000000000, 0.0000000000000000000 ) ) ;
#227 = EDGE_LOOP ( 'NONE', ( #213, #193, #242, #182, #322 ) ) ;
#228 = PLANE ( 'NONE',  #212 ) ;
#229 = SURFACE_SIDE_STYLE ('',( #86 ) ) ;
#230 = DIRECTION ( 'NONE',  ( 1.000000000000000000, 0.0000000000000000000, 0.0000000000000000000 ) ) ;
#231 = CYLINDRICAL_SURFACE ( 'NONE', #50, 0.1562500000000000000 ) ;
#232 = CARTESIAN_POINT ( 'NONE',  ( 0.0000000000000000000, 0.0000000000000000000, 0.0000000000000000000 ) ) ;
#233 = DIRECTION ( 'NONE',  ( 0.0000000000000000000, 1.000000000000000000, 0.0000000000000000000 ) ) ;
#234 = AXIS2_PLACEMENT_3D ( 'NONE', #97, #121, #329 ) ;
#235 = UNCERTAINTY_MEASURE_WITH_UNIT (LENGTH_MEASURE( 1.000000000000000082E-05 ), #254, 'distance_accuracy_value', 'NONE');
#236 = PRESENTATION_LAYER_ASSIGNMENT (  '', '', ( #190 ) ) ;
#237 = CARTESIAN_POINT ( 'NONE',  ( 0.0000000000000000000, 0.0000000000000000000, 4.000000000000000000 ) ) ;
#238 = EDGE_LOOP ( 'NONE', ( #314, #257, #344, #201 ) ) ;
#239 = VERTEX_POINT ( 'NONE', #225 ) ;
#240 = MECHANICAL_DESIGN_GEOMETRIC_PRESENTATION_REPRESENTATION (  '', ( #107 ), #14 ) ;
#241 =( GEOMETRIC_REPRESENTATION_CONTEXT ( 3 ) GLOBAL_UNCERTAINTY_ASSIGNED_CONTEXT ( ( #235 ) ) GLOBAL_UNIT_ASSIGNED_CONTEXT ( ( #254, #127, #321 ) ) REPRESENTATION_CONTEXT ( 'NONE', 'WORKASPACE' ) );
#242 = ORIENTED_EDGE ( 'NONE', *, *, #137, .F. ) ;
#243 = ORIENTED_EDGE ( 'NONE', *, *, #264, .T. ) ;
#244 = CIRCLE ( 'NONE', #259, 0.1562000000000000055 ) ;
#245 =( LENGTH_UNIT ( ) NAMED_UNIT ( * ) SI_UNIT ( $, .METRE. ) );
#246 = CYLINDRICAL_SURFACE ( 'NONE', #218, 0.1249999999999999445 ) ;
#247 = CONICAL_SURFACE ( 'NONE', #62, 0.1412500000000000422, 0.7853981633974391752 ) ;
#248 = DIRECTION ( 'NONE',  ( -1.000000000000000000, 0.0000000000000000000, 0.0000000000000000000 ) ) ;
#249 = ORIENTED_EDGE ( 'NONE', *, *, #104, .F. ) ;
#250 = CARTESIAN_POINT ( 'NONE',  ( 0.0000000000000000000, 0.0000000000000000000, 4.000000000000000000 ) ) ;
#251 = ORIENTED_EDGE ( 'NONE', *, *, #343, .F. ) ;
#252 =( LENGTH_UNIT ( ) NAMED_UNIT ( * ) SI_UNIT ( $, .METRE. ) );
#253 = CARTESIAN_POINT ( 'NONE',  ( 0.0000000000000000000, 0.0000000000000000000, 3.984999999999999876 ) ) ;
#254 =( CONVERSION_BASED_UNIT ( 'INCH', #222 ) LENGTH_UNIT ( ) NAMED_UNIT ( #57 ) );
#255 = DIRECTION ( 'NONE',  ( 1.000000000000000000, 0.0000000000000000000, 0.0000000000000000000 ) ) ;
#256 = LINE ( 'NONE', #70, #48 ) ;
#257 = ORIENTED_EDGE ( 'NONE', *, *, #88, .T. ) ;
#258 = FACE_OUTER_BOUND ( 'NONE', #268, .T. ) ;
#259 = AXIS2_PLACEMENT_3D ( 'NONE', #114, #126, #29 ) ;
#260 = FACE_OUTER_BOUND ( 'NONE', #42, .T. ) ;
#261 = AXIS2_PLACEMENT_3D ( 'NONE', #185, #178, #47 ) ;
#262 = CARTESIAN_POINT ( 'NONE',  ( -0.1562500000000000000, 0.0000000000000000000, 4.000000000000000000 ) ) ;
#263 = LINE ( 'NONE', #204, #20 ) ;
#264 = EDGE_CURVE ( 'NONE', #205, #171, #327, .T. ) ;
#265 = CIRCLE ( 'NONE', #162, 0.1249999999999999584 ) ;
#266 = AXIS2_PLACEMENT_3D ( 'NONE', #195, #67, #120 ) ;
#267 = AXIS2_PLACEMENT_3D ( 'NONE', #30, #98, #274 ) ;
#268 = EDGE_LOOP ( 'NONE', ( #345, #89, #269, #138, #80 ) ) ;
#269 = ORIENTED_EDGE ( 'NONE', *, *, #325, .T. ) ;
#270 = ADVANCED_BREP_SHAPE_REPRESENTATION ( 'Micro_SBM-312-4', ( #19, #15 ), #337 ) ;
#271 = AXIS2_PLACEMENT_3D ( 'NONE', #4, #18, #60 ) ;
#272 = ADVANCED_FACE ( 'NONE', ( #307 ), #247, .T. ) ;
#273 = ORIENTED_EDGE ( 'NONE', *, *, #340, .F. ) ;
#274 = DIRECTION ( 'NONE',  ( -1.000000000000000000, 0.0000000000000000000, 0.0000000000000000000 ) ) ;
#275 = CARTESIAN_POINT ( 'NONE',  ( 0.1412500000000000422, 1.729813603795636273E-17, 4.000000000000000000 ) ) ;
#276 = EDGE_LOOP ( 'NONE', ( #167, #291, #224, #306 ) ) ;
#277 = FACE_OUTER_BOUND ( 'NONE', #39, .T. ) ;
#278 = ADVANCED_FACE ( 'NONE', ( #74 ), #139, .T. ) ;
#279 = VECTOR ( 'NONE', #91, 39.37007874015748143 ) ;
#280 = CIRCLE ( 'NONE', #189, 0.1562000000000000055 ) ;
#281 = LINE ( 'NONE', #38, #158 ) ;
#282 = LINE ( 'NONE', #149, #315 ) ;
#283 = DIRECTION ( 'NONE',  ( 0.0000000000000000000, 0.0000000000000000000, 1.000000000000000000 ) ) ;
#284 =( NAMED_UNIT ( * ) SI_UNIT ( $, .STERADIAN. ) SOLID_ANGLE_UNIT ( ) );
#285 = CARTESIAN_POINT ( 'NONE',  ( 0.0000000000000000000, 9.564491501340828324E-18, 0.0000000000000000000 ) ) ;
#286 = FILL_AREA_STYLE_COLOUR ( '', #85 ) ;
#287 = DIRECTION ( 'NONE',  ( -0.0000000000000000000, -0.0000000000000000000, -1.000000000000000000 ) ) ;
#288 = DIRECTION ( 'NONE',  ( -0.0000000000000000000, -0.0000000000000000000, -1.000000000000000000 ) ) ;
#289 = FACE_OUTER_BOUND ( 'NONE', #27, .T. ) ;
#290 = APPLICATION_CONTEXT ( 'automotive_design' ) ;
#291 = ORIENTED_EDGE ( 'NONE', *, *, #164, .F. ) ;
#292 = AXIS2_PLACEMENT_3D ( 'NONE', #44, #304, #64 ) ;
#293 = SURFACE_STYLE_USAGE ( .BOTH. , #229 ) ;
#294 = APPLICATION_CONTEXT ( 'automotive_design' ) ;
#295 = CARTESIAN_POINT ( 'NONE',  ( 0.0000000000000000000, 0.0000000000000000000, 4.000000000000000000 ) ) ;
#296 = ADVANCED_FACE ( 'NONE', ( #277 ), #219, .T. ) ;
#297 = ORIENTED_EDGE ( 'NONE', *, *, #112, .T. ) ;
#298 = DIRECTION ( 'NONE',  ( 0.0000000000000000000, 0.0000000000000000000, -1.000000000000000000 ) ) ;
#299 = VERTEX_POINT ( 'NONE', #40 ) ;
#300 = DIRECTION ( 'NONE',  ( 0.0000000000000000000, 0.0000000000000000000, 1.000000000000000000 ) ) ;
#301 = AXIS2_PLACEMENT_3D ( 'NONE', #295, #188, #248 ) ;
#302 = CARTESIAN_POINT ( 'NONE',  ( -0.1249999999999999861, 0.0000000000000000000, 0.2498666429418712753 ) ) ;
#303 = AXIS2_PLACEMENT_3D ( 'NONE', #156, #34, #197 ) ;
#304 = DIRECTION ( 'NONE',  ( -0.0000000000000000000, -0.0000000000000000000, -1.000000000000000000 ) ) ;
#305 = DIRECTION ( 'NONE',  ( -0.0000000000000000000, -0.0000000000000000000, -1.000000000000000000 ) ) ;
#306 = ORIENTED_EDGE ( 'NONE', *, *, #142, .F. ) ;
#307 = FACE_OUTER_BOUND ( 'NONE', #119, .T. ) ;
#308 = FACE_OUTER_BOUND ( 'NONE', #110, .T. ) ;
#309 = DIRECTION ( 'NONE',  ( 0.05201283418987247276, 0.0000000000000000000, 0.9986464164455489678 ) ) ;
#310 = DIRECTION ( 'NONE',  ( -1.000000000000000000, 0.0000000000000000000, 0.0000000000000000000 ) ) ;
#311 = CIRCLE ( 'NONE', #303, 0.1562500000000000000 ) ;
#312 = EDGE_CURVE ( 'NONE', #205, #66, #144, .T. ) ;
#313 = AXIS2_PLACEMENT_3D ( 'NONE', #118, #16, #255 ) ;
#314 = ORIENTED_EDGE ( 'NONE', *, *, #11, .F. ) ;
#315 = VECTOR ( 'NONE', #8, 39.37007874015748143 ) ;
#316 = AXIS2_PLACEMENT_3D ( 'NONE', #232, #17, #90 ) ;
#317 = ORIENTED_EDGE ( 'NONE', *, *, #77, .T. ) ;
#318 = EDGE_CURVE ( 'NONE', #66, #239, #165, .T. ) ;
#319 = SURFACE_STYLE_USAGE ( .BOTH. , #184 ) ;
#320 = FILL_AREA_STYLE ('',( #286 ) ) ;
#321 =( NAMED_UNIT ( * ) SI_UNIT ( $, .STERADIAN. ) SOLID_ANGLE_UNIT ( ) );
#322 = ORIENTED_EDGE ( 'NONE', *, *, #325, .F. ) ;
#323 = FACE_OUTER_BOUND ( 'NONE', #227, .T. ) ;
#324 = DIRECTION ( 'NONE',  ( 1.000000000000000000, 0.0000000000000000000, 0.0000000000000000000 ) ) ;
#325 = EDGE_CURVE ( 'NONE', #299, #330, #256, .T. ) ;
#326 = ORIENTED_EDGE ( 'NONE', *, *, #77, .F. ) ;
#327 = LINE ( 'NONE', #262, #111 ) ;
#328 = APPLICATION_PROTOCOL_DEFINITION ( 'draft international standard', 'automotive_design', 1998, #294 ) ;
#329 = DIRECTION ( 'NONE',  ( -1.000000000000000000, 0.0000000000000000000, 0.0000000000000000000 ) ) ;
#330 = VERTEX_POINT ( 'NONE', #302 ) ;
#331 = COLOUR_RGB ( '',0.7921568627450980005, 0.8196078431372548767, 0.9333333333333333481 ) ;
#332 = DIRECTION ( 'NONE',  ( 0.0000000000000000000, 0.0000000000000000000, 1.000000000000000000 ) ) ;
#333 = ORIENTED_EDGE ( 'NONE', *, *, #343, .T. ) ;
#334 = CARTESIAN_POINT ( 'NONE',  ( 0.0000000000000000000, 0.0000000000000000000, 0.0000000000000000000 ) ) ;
#335 =( NAMED_UNIT ( * ) SI_UNIT ( $, .STERADIAN. ) SOLID_ANGLE_UNIT ( ) );
#336 = DIRECTION ( 'NONE',  ( -0.0000000000000000000, -0.0000000000000000000, -1.000000000000000000 ) ) ;
#337 =( GEOMETRIC_REPRESENTATION_CONTEXT ( 3 ) GLOBAL_UNCERTAINTY_ASSIGNED_CONTEXT ( ( #22 ) ) GLOBAL_UNIT_ASSIGNED_CONTEXT ( ( #203, #115, #284 ) ) REPRESENTATION_CONTEXT ( 'NONE', 'WORKASPACE' ) );
#338 = DIRECTION ( 'NONE',  ( 1.000000000000000000, 0.0000000000000000000, 0.0000000000000000000 ) ) ;
#339 = AXIS2_PLACEMENT_3D ( 'NONE', #155, #148, #161 ) ;
#340 = EDGE_CURVE ( 'NONE', #220, #82, #280, .T. ) ;
#341 = ORIENTED_EDGE ( 'NONE', *, *, #318, .T. ) ;
#342 = ORIENTED_EDGE ( 'NONE', *, *, #142, .T. ) ;
#343 = EDGE_CURVE ( 'NONE', #239, #171, #311, .T. ) ;
#344 = ORIENTED_EDGE ( 'NONE', *, *, #25, .T. ) ;
#345 = ORIENTED_EDGE ( 'NONE', *, *, #113, .F. ) ;
ENDSEC;
END-ISO-10303-21;
