ISO-10303-21;
HEADER;
FILE_DESCRIPTION (( 'STEP AP214' ),
    '1' );
FILE_NAME ('49450.STEP',
    '2023-06-30T22:03:57',
    ( '' ),
    ( '' ),
    'SwSTEP 2.0',
    'SolidWorks 2023',
    '' );
FILE_SCHEMA (( 'AUTOMOTIVE_DESIGN' ));
ENDSEC;

DATA;
#1 = DIRECTION ( 'NONE',  ( 1.000000000000000000, 0.000000000000000000, -1.224646799147353207E-16 ) ) ;
#2 = DIRECTION ( 'NONE',  ( 0.000000000000000000, -0.000000000000000000, 1.000000000000000000 ) ) ;
#3 = AXIS2_PLACEMENT_3D ( 'NONE', #96, #228, #203 ) ;
#4 = FILL_AREA_STYLE_COLOUR ( '', #148 ) ;
#5 = CARTESIAN_POINT ( 'NONE',  ( 0.000000000000000000, 0.5000000000000000000, -0.5000000000000000000 ) ) ;
#6 = DIRECTION ( 'NONE',  ( -1.000000000000000000, -1.224646799147353207E-16, 0.000000000000000000 ) ) ;
#7 = SURFACE_STYLE_USAGE ( .BOTH. , #261 ) ;
#8 = AXIS2_PLACEMENT_3D ( 'NONE', #41, #204, #300 ) ;
#9 = AXIS2_PLACEMENT_3D ( 'NONE', #225, #345, #89 ) ;
#10 = DIRECTION ( 'NONE',  ( -0.000000000000000000, -1.000000000000000000, -0.000000000000000000 ) ) ;
#11 = CARTESIAN_POINT ( 'NONE',  ( 6.123233995736766036E-17, 0.5000000000000000000, 0.5000000000000000000 ) ) ;
#12 = MECHANICAL_DESIGN_GEOMETRIC_PRESENTATION_REPRESENTATION (  '', ( #174 ), #111 ) ;
#13 = EDGE_CURVE ( 'NONE', #144, #335, #151, .T. ) ;
#14 = SURFACE_STYLE_FILL_AREA ( #164 ) ;
#15 = ORIENTED_EDGE ( 'NONE', *, *, #337, .F. ) ;
#16 = FILL_AREA_STYLE ('',( #159 ) ) ;
#17 = VERTEX_POINT ( 'NONE', #170 ) ;
#18 = VECTOR ( 'NONE', #109, 39.37007874015748143 ) ;
#19 = CARTESIAN_POINT ( 'NONE',  ( 0.000000000000000000, 2.000000000000000000, 0.000000000000000000 ) ) ;
#20 = ORIENTED_EDGE ( 'NONE', *, *, #302, .F. ) ;
#21 = LENGTH_MEASURE_WITH_UNIT ( LENGTH_MEASURE( 0.02539999999999999897 ), #78 );
#22 = ORIENTED_EDGE ( 'NONE', *, *, #337, .T. ) ;
#23 = MANIFOLD_SOLID_BREP ( 'Revolve - Cutting Edge', #196 ) ;
#24 = VERTEX_POINT ( 'NONE', #116 ) ;
#25 = AXIS2_PLACEMENT_3D ( 'NONE', #290, #227, #194 ) ;
#26 = FACE_OUTER_BOUND ( 'NONE', #165, .T. ) ;
#27 = AXIS2_PLACEMENT_3D ( 'NONE', #125, #47, #336 ) ;
#28 = DIRECTION ( 'NONE',  ( 0.000000000000000000, 0.000000000000000000, -1.000000000000000000 ) ) ;
#29 =( NAMED_UNIT ( * ) PLANE_ANGLE_UNIT ( ) SI_UNIT ( $, .RADIAN. ) );
#30 = SURFACE_STYLE_USAGE ( .BOTH. , #91 ) ;
#31 = LENGTH_MEASURE_WITH_UNIT ( LENGTH_MEASURE( 0.02539999999999999897 ), #85 );
#32 =( LENGTH_UNIT ( ) NAMED_UNIT ( * ) SI_UNIT ( $, .METRE. ) );
#33 = AXIS2_PLACEMENT_3D ( 'NONE', #324, #39, #43 ) ;
#34 = DIRECTION ( 'NONE',  ( -0.000000000000000000, -1.000000000000000000, -0.000000000000000000 ) ) ;
#35 = FACE_OUTER_BOUND ( 'NONE', #357, .T. ) ;
#36 =( LENGTH_UNIT ( ) NAMED_UNIT ( * ) SI_UNIT ( $, .METRE. ) );
#37 = FILL_AREA_STYLE_COLOUR ( '', #87 ) ;
#38 = UNCERTAINTY_MEASURE_WITH_UNIT (LENGTH_MEASURE( 1.000000000000000082E-05 ), #105, 'distance_accuracy_value', 'NONE');
#39 = DIRECTION ( 'NONE',  ( -1.224646799147353207E-16, 1.000000000000000000, -0.000000000000000000 ) ) ;
#40 = CIRCLE ( 'NONE', #81, 0.5000000000000000000 ) ;
#41 = CARTESIAN_POINT ( 'NONE',  ( -6.123233995736766036E-17, 0.5000000000000000000, 0.000000000000000000 ) ) ;
#42 = LINE ( 'NONE', #146, #341 ) ;
#43 = DIRECTION ( 'NONE',  ( -1.000000000000000000, 0.000000000000000000, 0.000000000000000000 ) ) ;
#44 =( LENGTH_UNIT ( ) NAMED_UNIT ( * ) SI_UNIT ( $, .METRE. ) );
#45 = DIRECTION ( 'NONE',  ( -1.000000000000000000, 0.000000000000000000, 0.000000000000000000 ) ) ;
#46 = ORIENTED_EDGE ( 'NONE', *, *, #291, .T. ) ;
#47 = DIRECTION ( 'NONE',  ( 1.224646799147353207E-16, -1.000000000000000000, 0.000000000000000000 ) ) ;
#48 = UNCERTAINTY_MEASURE_WITH_UNIT (LENGTH_MEASURE( 1.000000000000000082E-05 ), #86, 'distance_accuracy_value', 'NONE');
#49 = ORIENTED_EDGE ( 'NONE', *, *, #68, .F. ) ;
#50 = PRODUCT_DEFINITION_CONTEXT ( 'detailed design', #162, 'design' ) ;
#51 = PRESENTATION_STYLE_ASSIGNMENT (( #304 ) ) ;
#52 = EDGE_LOOP ( 'NONE', ( #15, #370 ) ) ;
#53 = AXIS2_PLACEMENT_3D ( 'NONE', #112, #255, #2 ) ;
#54 = ORIENTED_EDGE ( 'NONE', *, *, #256, .T. ) ;
#55 = EDGE_CURVE ( 'NONE', #103, #24, #179, .T. ) ;
#56 = DIRECTION ( 'NONE',  ( 0.000000000000000000, 0.000000000000000000, -1.000000000000000000 ) ) ;
#57 = FACE_OUTER_BOUND ( 'NONE', #52, .T. ) ;
#58 = PRESENTATION_STYLE_ASSIGNMENT (( #287 ) ) ;
#59 = ADVANCED_FACE ( 'NONE', ( #35 ), #141, .T. ) ;
#60 = PLANE ( 'NONE',  #309 ) ;
#61 =( NAMED_UNIT ( * ) SI_UNIT ( $, .STERADIAN. ) SOLID_ANGLE_UNIT ( ) );
#62 =( GEOMETRIC_REPRESENTATION_CONTEXT ( 3 ) GLOBAL_UNCERTAINTY_ASSIGNED_CONTEXT ( ( #177 ) ) GLOBAL_UNIT_ASSIGNED_CONTEXT ( ( #142, #318, #224 ) ) REPRESENTATION_CONTEXT ( 'NONE', 'WORKASPACE' ) );
#63 = DIRECTION ( 'NONE',  ( -1.224646799147353207E-16, 1.000000000000000000, -0.000000000000000000 ) ) ;
#64 = DIRECTION ( 'NONE',  ( 0.000000000000000000, 0.000000000000000000, -1.000000000000000000 ) ) ;
#65 = CARTESIAN_POINT ( 'NONE',  ( 0.4999999999999996114, 5.000000000000000000, 6.123233995736763571E-17 ) ) ;
#66 = DIMENSIONAL_EXPONENTS ( 1.000000000000000000, 0.000000000000000000, 0.000000000000000000, 0.000000000000000000, 0.000000000000000000, 0.000000000000000000, 0.000000000000000000 ) ;
#67 = STYLED_ITEM ( 'NONE', ( #285 ), #265 ) ;
#68 = EDGE_CURVE ( 'NONE', #24, #241, #40, .T. ) ;
#69 = DIRECTION ( 'NONE',  ( -1.000000000000000000, 0.000000000000000000, 0.000000000000000000 ) ) ;
#70 = DIRECTION ( 'NONE',  ( -1.224646799147353207E-16, 1.000000000000000000, -0.000000000000000000 ) ) ;
#71 = ORIENTED_EDGE ( 'NONE', *, *, #371, .T. ) ;
#72 = VECTOR ( 'NONE', #63, 39.37007874015748143 ) ;
#73 = CARTESIAN_POINT ( 'NONE',  ( 0.000000000000000000, 0.000000000000000000, 0.000000000000000000 ) ) ;
#74 = DIRECTION ( 'NONE',  ( -0.000000000000000000, -1.000000000000000000, -0.000000000000000000 ) ) ;
#75 = APPLICATION_CONTEXT ( 'automotive_design' ) ;
#76 = PRODUCT_DEFINITION_SHAPE ( 'NONE', 'NONE',  #232 ) ;
#77 = EDGE_CURVE ( 'NONE', #240, #160, #350, .T. ) ;
#78 =( LENGTH_UNIT ( ) NAMED_UNIT ( * ) SI_UNIT ( $, .METRE. ) );
#79 = CARTESIAN_POINT ( 'NONE',  ( -0.4999999999999998335, 5.000000000000000000, 0.000000000000000000 ) ) ;
#80 = ORIENTED_EDGE ( 'NONE', *, *, #181, .F. ) ;
#81 = AXIS2_PLACEMENT_3D ( 'NONE', #99, #235, #69 ) ;
#82 = ADVANCED_FACE ( 'NONE', ( #263 ), #298, .T. ) ;
#83 = DIRECTION ( 'NONE',  ( -1.224646799147353207E-16, 1.000000000000000000, -0.000000000000000000 ) ) ;
#84 = VERTEX_POINT ( 'NONE', #117 ) ;
#85 =( LENGTH_UNIT ( ) NAMED_UNIT ( * ) SI_UNIT ( $, .METRE. ) );
#86 =( CONVERSION_BASED_UNIT ( 'INCH', #31 ) LENGTH_UNIT ( ) NAMED_UNIT ( #333 ) );
#87 = COLOUR_RGB ( '',1.000000000000000000, 0.000000000000000000, 0.000000000000000000 ) ;
#88 = AXIS2_PLACEMENT_3D ( 'NONE', #264, #34, #64 ) ;
#89 = DIRECTION ( 'NONE',  ( -1.000000000000000000, 0.000000000000000000, 0.000000000000000000 ) ) ;
#90 = LENGTH_MEASURE_WITH_UNIT ( LENGTH_MEASURE( 0.02539999999999999897 ), #32 );
#91 = SURFACE_SIDE_STYLE ('',( #199 ) ) ;
#92 = FILL_AREA_STYLE_COLOUR ( '', #280 ) ;
#93 =( NAMED_UNIT ( * ) PLANE_ANGLE_UNIT ( ) SI_UNIT ( $, .RADIAN. ) );
#94 = PRESENTATION_LAYER_ASSIGNMENT (  '', '', ( #174 ) ) ;
#95 = FILL_AREA_STYLE ('',( #37 ) ) ;
#96 = CARTESIAN_POINT ( 'NONE',  ( 0.000000000000000000, 0.5000000000000000000, 0.000000000000000000 ) ) ;
#97 = CARTESIAN_POINT ( 'NONE',  ( 0.4999999999999998335, 5.000000000000000000, 6.123233995736764803E-17 ) ) ;
#98 = CIRCLE ( 'NONE', #9, 0.4999999999999996114 ) ;
#99 = CARTESIAN_POINT ( 'NONE',  ( -6.123233995736766036E-17, 0.5000000000000000000, 0.000000000000000000 ) ) ;
#100 = DIRECTION ( 'NONE',  ( 1.000000000000000000, 0.000000000000000000, 0.000000000000000000 ) ) ;
#101 = ORIENTED_EDGE ( 'NONE', *, *, #242, .T. ) ;
#102 = DIMENSIONAL_EXPONENTS ( 1.000000000000000000, 0.000000000000000000, 0.000000000000000000, 0.000000000000000000, 0.000000000000000000, 0.000000000000000000, 0.000000000000000000 ) ;
#103 = VERTEX_POINT ( 'NONE', #5 ) ;
#104 = AXIS2_PLACEMENT_3D ( 'NONE', #310, #197, #1 ) ;
#105 =( CONVERSION_BASED_UNIT ( 'INCH', #128 ) LENGTH_UNIT ( ) NAMED_UNIT ( #66 ) );
#106 = ORIENTED_EDGE ( 'NONE', *, *, #120, .F. ) ;
#107 = DIRECTION ( 'NONE',  ( -0.000000000000000000, -1.000000000000000000, -0.000000000000000000 ) ) ;
#108 = ORIENTED_EDGE ( 'NONE', *, *, #13, .F. ) ;
#109 = DIRECTION ( 'NONE',  ( -1.224646799147353207E-16, 1.000000000000000000, -0.000000000000000000 ) ) ;
#110 = EDGE_LOOP ( 'NONE', ( #320, #54, #49, #161 ) ) ;
#111 =( GEOMETRIC_REPRESENTATION_CONTEXT ( 3 ) GLOBAL_UNCERTAINTY_ASSIGNED_CONTEXT ( ( #187 ) ) GLOBAL_UNIT_ASSIGNED_CONTEXT ( ( #208, #239, #210 ) ) REPRESENTATION_CONTEXT ( 'NONE', 'WORKASPACE' ) );
#112 = CARTESIAN_POINT ( 'NONE',  ( 0.000000000000000000, 2.000000000000000000, 0.000000000000000000 ) ) ;
#113 = DIRECTION ( 'NONE',  ( -0.000000000000000000, -1.000000000000000000, -0.000000000000000000 ) ) ;
#114 = DIRECTION ( 'NONE',  ( -0.000000000000000000, -1.000000000000000000, -0.000000000000000000 ) ) ;
#115 = CARTESIAN_POINT ( 'NONE',  ( -0.5000000000000000000, 0.5000000000000000000, 6.123233995736764803E-17 ) ) ;
#116 = CARTESIAN_POINT ( 'NONE',  ( 0.5000000000000000000, 0.5000000000000000000, 0.000000000000000000 ) ) ;
#117 = CARTESIAN_POINT ( 'NONE',  ( -0.4999999999999993339, 2.000000000000000000, 0.000000000000000000 ) ) ;
#118 = PRESENTATION_LAYER_ASSIGNMENT (  '', '', ( #297 ) ) ;
#119 = PRESENTATION_STYLE_ASSIGNMENT (( #7 ) ) ;
#120 = EDGE_CURVE ( 'NONE', #335, #103, #340, .T. ) ;
#121 =( CONVERSION_BASED_UNIT ( 'INCH', #145 ) LENGTH_UNIT ( ) NAMED_UNIT ( #352 ) );
#122 = COLOUR_RGB ( '',1.000000000000000000, 0.000000000000000000, 0.000000000000000000 ) ;
#123 =( GEOMETRIC_REPRESENTATION_CONTEXT ( 3 ) GLOBAL_UNCERTAINTY_ASSIGNED_CONTEXT ( ( #38 ) ) GLOBAL_UNIT_ASSIGNED_CONTEXT ( ( #105, #331, #124 ) ) REPRESENTATION_CONTEXT ( 'NONE', 'WORKASPACE' ) );
#124 =( NAMED_UNIT ( * ) SI_UNIT ( $, .STERADIAN. ) SOLID_ANGLE_UNIT ( ) );
#125 = CARTESIAN_POINT ( 'NONE',  ( 0.4999999999999997780, 5.000000000000000000, 0.000000000000000000 ) ) ;
#126 = EDGE_LOOP ( 'NONE', ( #308, #259, #338, #106, #108 ) ) ;
#127 = PRODUCT ( '49450', '49450', '', ( #355 ) ) ;
#128 = LENGTH_MEASURE_WITH_UNIT ( LENGTH_MEASURE( 0.02539999999999999897 ), #36 );
#129 = SURFACE_SIDE_STYLE ('',( #152 ) ) ;
#130 = STYLED_ITEM ( 'NONE', ( #119 ), #156 ) ;
#131 = ORIENTED_EDGE ( 'NONE', *, *, #120, .T. ) ;
#132 = CARTESIAN_POINT ( 'NONE',  ( 0.4999999999999998335, 2.000000000000000000, 6.123233995736764803E-17 ) ) ;
#133 = ORIENTED_EDGE ( 'NONE', *, *, #77, .T. ) ;
#134 = EDGE_LOOP ( 'NONE', ( #46, #158 ) ) ;
#135 = MECHANICAL_DESIGN_GEOMETRIC_PRESENTATION_REPRESENTATION (  '', ( #297 ), #321 ) ;
#136 = DIRECTION ( 'NONE',  ( -1.224646799147353207E-16, 1.000000000000000000, -0.000000000000000000 ) ) ;
#137 = LENGTH_MEASURE_WITH_UNIT ( LENGTH_MEASURE( 0.02539999999999999897 ), #281 );
#138 = SURFACE_STYLE_FILL_AREA ( #286 ) ;
#139 = EDGE_CURVE ( 'NONE', #160, #365, #358, .T. ) ;
#140 = CARTESIAN_POINT ( 'NONE',  ( -1.224646799147353207E-16, 5.000000000000000000, 0.000000000000000000 ) ) ;
#141 = PLANE ( 'NONE',  #53 ) ;
#142 =( CONVERSION_BASED_UNIT ( 'INCH', #347 ) LENGTH_UNIT ( ) NAMED_UNIT ( #102 ) );
#143 = CIRCLE ( 'NONE', #211, 0.5000000000000000000 ) ;
#144 = VERTEX_POINT ( 'NONE', #11 ) ;
#145 = LENGTH_MEASURE_WITH_UNIT ( LENGTH_MEASURE( 0.02539999999999999897 ), #44 );
#146 = CARTESIAN_POINT ( 'NONE',  ( 6.123233995736764803E-17, 0.000000000000000000, 0.4999999999999998335 ) ) ;
#147 = SURFACE_STYLE_FILL_AREA ( #95 ) ;
#148 = COLOUR_RGB ( '',1.000000000000000000, 0.000000000000000000, 0.000000000000000000 ) ;
#149 = DIRECTION ( 'NONE',  ( -1.224646799147353207E-16, 1.000000000000000000, 0.000000000000000000 ) ) ;
#150 = ADVANCED_BREP_SHAPE_REPRESENTATION ( '49450', ( #23, #252, #328 ), #123 ) ;
#151 = CIRCLE ( 'NONE', #25, 0.5000000000000000000 ) ;
#152 = SURFACE_STYLE_FILL_AREA ( #16 ) ;
#153 = AXIS2_PLACEMENT_3D ( 'NONE', #184, #74, #245 ) ;
#154 = DIMENSIONAL_EXPONENTS ( 1.000000000000000000, 0.000000000000000000, 0.000000000000000000, 0.000000000000000000, 0.000000000000000000, 0.000000000000000000, 0.000000000000000000 ) ;
#155 = AXIS2_PLACEMENT_3D ( 'NONE', #254, #136, #319 ) ;
#156 = ADVANCED_FACE ( 'NONE', ( #292 ), #353, .T. ) ;
#157 = DIRECTION ( 'NONE',  ( 0.000000000000000000, 0.000000000000000000, -1.000000000000000000 ) ) ;
#158 = ORIENTED_EDGE ( 'NONE', *, *, #139, .T. ) ;
#159 = FILL_AREA_STYLE_COLOUR ( '', #230 ) ;
#160 = VERTEX_POINT ( 'NONE', #97 ) ;
#161 = ORIENTED_EDGE ( 'NONE', *, *, #181, .T. ) ;
#162 = APPLICATION_CONTEXT ( 'automotive_design' ) ;
#163 = MECHANICAL_DESIGN_GEOMETRIC_PRESENTATION_REPRESENTATION (  '', ( #67 ), #62 ) ;
#164 = FILL_AREA_STYLE ('',( #272 ) ) ;
#165 = EDGE_LOOP ( 'NONE', ( #278, #201, #101, #218 ) ) ;
#166 = UNCERTAINTY_MEASURE_WITH_UNIT (LENGTH_MEASURE( 1.000000000000000082E-05 ), #313, 'distance_accuracy_value', 'NONE');
#167 = CARTESIAN_POINT ( 'NONE',  ( 0.000000000000000000, 0.000000000000000000, 0.000000000000000000 ) ) ;
#168 = STYLED_ITEM ( 'NONE', ( #58 ), #23 ) ;
#169 =( GEOMETRIC_REPRESENTATION_CONTEXT ( 3 ) GLOBAL_UNCERTAINTY_ASSIGNED_CONTEXT ( ( #48 ) ) GLOBAL_UNIT_ASSIGNED_CONTEXT ( ( #86, #312, #372 ) ) REPRESENTATION_CONTEXT ( 'NONE', 'WORKASPACE' ) );
#170 = CARTESIAN_POINT ( 'NONE',  ( 6.123233995736763571E-17, 2.000000000000000000, 0.4999999999999997780 ) ) ;
#171 = FACE_OUTER_BOUND ( 'NONE', #126, .T. ) ;
#172 = CARTESIAN_POINT ( 'NONE',  ( -1.224646799147353207E-16, 5.000000000000000000, 0.000000000000000000 ) ) ;
#173 = CARTESIAN_POINT ( 'NONE',  ( 2.449293598294706414E-16, 2.000000000000000000, 0.000000000000000000 ) ) ;
#174 = STYLED_ITEM ( 'NONE', ( #275 ), #190 ) ;
#175 = DIRECTION ( 'NONE',  ( -0.000000000000000000, -1.000000000000000000, -0.000000000000000000 ) ) ;
#176 = FILL_AREA_STYLE_COLOUR ( '', #257 ) ;
#177 = UNCERTAINTY_MEASURE_WITH_UNIT (LENGTH_MEASURE( 1.000000000000000082E-05 ), #142, 'distance_accuracy_value', 'NONE');
#178 =( CONVERSION_BASED_UNIT ( 'INCH', #325 ) LENGTH_UNIT ( ) NAMED_UNIT ( #233 ) );
#179 = CIRCLE ( 'NONE', #229, 0.5000000000000000000 ) ;
#180 =( NAMED_UNIT ( * ) PLANE_ANGLE_UNIT ( ) SI_UNIT ( $, .RADIAN. ) );
#181 = EDGE_CURVE ( 'NONE', #24, #144, #143, .T. ) ;
#182 = CIRCLE ( 'NONE', #88, 0.4999999999999997780 ) ;
#183 = PRODUCT_RELATED_PRODUCT_CATEGORY ( 'part', '', ( #127 ) ) ;
#184 = CARTESIAN_POINT ( 'NONE',  ( 0.000000000000000000, 0.000000000000000000, 0.000000000000000000 ) ) ;
#185 = AXIS2_PLACEMENT_3D ( 'NONE', #303, #70, #45 ) ;
#186 = SURFACE_STYLE_USAGE ( .BOTH. , #359 ) ;
#187 = UNCERTAINTY_MEASURE_WITH_UNIT (LENGTH_MEASURE( 1.000000000000000082E-05 ), #208, 'distance_accuracy_value', 'NONE');
#188 = CARTESIAN_POINT ( 'NONE',  ( 0.000000000000000000, 0.5000000000000000000, 0.000000000000000000 ) ) ;
#189 = ORIENTED_EDGE ( 'NONE', *, *, #68, .T. ) ;
#190 = ADVANCED_FACE ( 'NONE', ( #268 ), #330, .T. ) ;
#191 = STYLED_ITEM ( 'NONE', ( #293 ), #82 ) ;
#192 = CARTESIAN_POINT ( 'NONE',  ( -3.061616997868383018E-17, 0.000000000000000000, 0.000000000000000000 ) ) ;
#193 = DIRECTION ( 'NONE',  ( -1.000000000000000000, 0.000000000000000000, 0.000000000000000000 ) ) ;
#194 = DIRECTION ( 'NONE',  ( 0.000000000000000000, 0.000000000000000000, -1.000000000000000000 ) ) ;
#195 =( LENGTH_UNIT ( ) NAMED_UNIT ( * ) SI_UNIT ( $, .METRE. ) );
#196 = CLOSED_SHELL ( 'NONE', ( #82, #190, #59, #265, #156 ) ) ;
#197 = DIRECTION ( 'NONE',  ( 1.224646799147353207E-16, -0.000000000000000000, 1.000000000000000000 ) ) ;
#198 =( NAMED_UNIT ( * ) SI_UNIT ( $, .STERADIAN. ) SOLID_ANGLE_UNIT ( ) );
#199 = SURFACE_STYLE_FILL_AREA ( #366 ) ;
#200 = EDGE_CURVE ( 'NONE', #240, #84, #317, .T. ) ;
#201 = ORIENTED_EDGE ( 'NONE', *, *, #200, .T. ) ;
#202 = MECHANICAL_DESIGN_GEOMETRIC_PRESENTATION_REPRESENTATION (  '', ( #191 ), #295 ) ;
#203 = DIRECTION ( 'NONE',  ( 0.000000000000000000, 0.000000000000000000, -1.000000000000000000 ) ) ;
#204 = DIRECTION ( 'NONE',  ( 0.000000000000000000, 0.000000000000000000, 1.000000000000000000 ) ) ;
#205 = MECHANICAL_DESIGN_GEOMETRIC_PRESENTATION_REPRESENTATION (  '', ( #274 ), #169 ) ;
#206 = EDGE_CURVE ( 'NONE', #17, #246, #267, .T. ) ;
#207 = DIRECTION ( 'NONE',  ( 0.000000000000000000, 0.000000000000000000, 1.000000000000000000 ) ) ;
#208 =( CONVERSION_BASED_UNIT ( 'INCH', #21 ) LENGTH_UNIT ( ) NAMED_UNIT ( #154 ) );
#209 = PRESENTATION_LAYER_ASSIGNMENT (  '', '', ( #168 ) ) ;
#210 =( NAMED_UNIT ( * ) SI_UNIT ( $, .STERADIAN. ) SOLID_ANGLE_UNIT ( ) );
#211 = AXIS2_PLACEMENT_3D ( 'NONE', #188, #107, #339 ) ;
#212 = EDGE_LOOP ( 'NONE', ( #216, #131, #361, #189 ) ) ;
#213 = DIRECTION ( 'NONE',  ( 1.000000000000000000, 0.000000000000000000, 0.000000000000000000 ) ) ;
#214 = PLANE ( 'NONE',  #27 ) ;
#215 = ORIENTED_EDGE ( 'NONE', *, *, #363, .F. ) ;
#216 = ORIENTED_EDGE ( 'NONE', *, *, #256, .F. ) ;
#217 = DIRECTION ( 'NONE',  ( -0.000000000000000000, -1.000000000000000000, -0.000000000000000000 ) ) ;
#218 = ORIENTED_EDGE ( 'NONE', *, *, #139, .F. ) ;
#219 = SURFACE_SIDE_STYLE ('',( #373 ) ) ;
#220 = DIRECTION ( 'NONE',  ( -1.224646799147353207E-16, 1.000000000000000000, -0.000000000000000000 ) ) ;
#221 = SURFACE_SIDE_STYLE ('',( #138 ) ) ;
#222 = CARTESIAN_POINT ( 'NONE',  ( 0.000000000000000000, 0.000000000000000000, -0.4999999999999998335 ) ) ;
#223 =( NAMED_UNIT ( * ) PLANE_ANGLE_UNIT ( ) SI_UNIT ( $, .RADIAN. ) );
#224 =( NAMED_UNIT ( * ) SI_UNIT ( $, .STERADIAN. ) SOLID_ANGLE_UNIT ( ) );
#225 = CARTESIAN_POINT ( 'NONE',  ( 2.449293598294706907E-16, 2.000000000000000000, 0.000000000000000000 ) ) ;
#226 = ADVANCED_FACE ( 'NONE', ( #269 ), #214, .F. ) ;
#227 = DIRECTION ( 'NONE',  ( -0.000000000000000000, -1.000000000000000000, -0.000000000000000000 ) ) ;
#228 = DIRECTION ( 'NONE',  ( -0.000000000000000000, -1.000000000000000000, -0.000000000000000000 ) ) ;
#229 = AXIS2_PLACEMENT_3D ( 'NONE', #343, #175, #56 ) ;
#230 = COLOUR_RGB ( '',0.7921568627450980005, 0.8196078431372548767, 0.9333333333333333481 ) ;
#231 =( LENGTH_UNIT ( ) NAMED_UNIT ( * ) SI_UNIT ( $, .METRE. ) );
#232 = PRODUCT_DEFINITION ( 'UNKNOWN', '', #348, #50 ) ;
#233 = DIMENSIONAL_EXPONENTS ( 1.000000000000000000, 0.000000000000000000, 0.000000000000000000, 0.000000000000000000, 0.000000000000000000, 0.000000000000000000, 0.000000000000000000 ) ;
#234 =( NAMED_UNIT ( * ) SI_UNIT ( $, .STERADIAN. ) SOLID_ANGLE_UNIT ( ) );
#235 = DIRECTION ( 'NONE',  ( 0.000000000000000000, 0.000000000000000000, -1.000000000000000000 ) ) ;
#236 = PRESENTATION_LAYER_ASSIGNMENT (  '', '', ( #130 ) ) ;
#237 = AXIS2_PLACEMENT_3D ( 'NONE', #172, #83, #193 ) ;
#238 = APPLICATION_PROTOCOL_DEFINITION ( 'draft international standard', 'automotive_design', 1998, #162 ) ;
#239 =( NAMED_UNIT ( * ) PLANE_ANGLE_UNIT ( ) SI_UNIT ( $, .RADIAN. ) );
#240 = VERTEX_POINT ( 'NONE', #132 ) ;
#241 = VERTEX_POINT ( 'NONE', #192 ) ;
#242 = EDGE_CURVE ( 'NONE', #84, #365, #364, .T. ) ;
#243 = DIRECTION ( 'NONE',  ( 0.000000000000000000, 0.000000000000000000, 1.000000000000000000 ) ) ;
#244 = ORIENTED_EDGE ( 'NONE', *, *, #363, .T. ) ;
#245 = DIRECTION ( 'NONE',  ( 0.000000000000000000, 0.000000000000000000, -1.000000000000000000 ) ) ;
#246 = VERTEX_POINT ( 'NONE', #332 ) ;
#247 = UNCERTAINTY_MEASURE_WITH_UNIT (LENGTH_MEASURE( 1.000000000000000082E-05 ), #250, 'distance_accuracy_value', 'NONE');
#248 =( GEOMETRIC_REPRESENTATION_CONTEXT ( 3 ) GLOBAL_UNCERTAINTY_ASSIGNED_CONTEXT ( ( #276 ) ) GLOBAL_UNIT_ASSIGNED_CONTEXT ( ( #178, #180, #234 ) ) REPRESENTATION_CONTEXT ( 'NONE', 'WORKASPACE' ) );
#249 = VECTOR ( 'NONE', #113, 39.37007874015748143 ) ;
#250 =( CONVERSION_BASED_UNIT ( 'INCH', #137 ) LENGTH_UNIT ( ) NAMED_UNIT ( #266 ) );
#251 = COLOUR_RGB ( '',1.000000000000000000, 0.000000000000000000, 0.000000000000000000 ) ;
#252 = MANIFOLD_SOLID_BREP ( 'Revolve - Tool Body (Straight Shanked)', #306 ) ;
#253 = SURFACE_STYLE_USAGE ( .BOTH. , #221 ) ;
#254 = CARTESIAN_POINT ( 'NONE',  ( -1.224646799147353207E-16, 5.000000000000000000, 0.000000000000000000 ) ) ;
#255 = DIRECTION ( 'NONE',  ( 0.000000000000000000, 1.000000000000000000, 0.000000000000000000 ) ) ;
#256 = EDGE_CURVE ( 'NONE', #335, #241, #262, .T. ) ;
#257 = COLOUR_RGB ( '',1.000000000000000000, 0.000000000000000000, 0.000000000000000000 ) ;
#258 = LINE ( 'NONE', #222, #249 ) ;
#259 = ORIENTED_EDGE ( 'NONE', *, *, #206, .T. ) ;
#260 = FILL_AREA_STYLE ('',( #176 ) ) ;
#261 = SURFACE_SIDE_STYLE ('',( #147 ) ) ;
#262 = CIRCLE ( 'NONE', #104, 0.5000000000000000000 ) ;
#263 = FACE_OUTER_BOUND ( 'NONE', #110, .T. ) ;
#264 = CARTESIAN_POINT ( 'NONE',  ( 0.000000000000000000, 2.000000000000000000, 0.000000000000000000 ) ) ;
#265 = ADVANCED_FACE ( 'NONE', ( #171 ), #283, .T. ) ;
#266 = DIMENSIONAL_EXPONENTS ( 1.000000000000000000, 0.000000000000000000, 0.000000000000000000, 0.000000000000000000, 0.000000000000000000, 0.000000000000000000, 0.000000000000000000 ) ;
#267 = CIRCLE ( 'NONE', #301, 0.4999999999999997780 ) ;
#268 = FACE_OUTER_BOUND ( 'NONE', #311, .T. ) ;
#269 = FACE_OUTER_BOUND ( 'NONE', #134, .T. ) ;
#270 = ORIENTED_EDGE ( 'NONE', *, *, #291, .F. ) ;
#271 = SHAPE_DEFINITION_REPRESENTATION ( #76, #150 ) ;
#272 = FILL_AREA_STYLE_COLOUR ( '', #122 ) ;
#273 = EDGE_LOOP ( 'NONE', ( #22, #133, #270, #362 ) ) ;
#274 = STYLED_ITEM ( 'NONE', ( #51 ), #252 ) ;
#275 = PRESENTATION_STYLE_ASSIGNMENT (( #186 ) ) ;
#276 = UNCERTAINTY_MEASURE_WITH_UNIT (LENGTH_MEASURE( 1.000000000000000082E-05 ), #178, 'distance_accuracy_value', 'NONE');
#277 = ORIENTED_EDGE ( 'NONE', *, *, #206, .F. ) ;
#278 = ORIENTED_EDGE ( 'NONE', *, *, #77, .F. ) ;
#279 = DIRECTION ( 'NONE',  ( -1.000000000000000000, 0.000000000000000000, 0.000000000000000000 ) ) ;
#280 = COLOUR_RGB ( '',0.7921568627450980005, 0.8196078431372548767, 0.9333333333333333481 ) ;
#281 =( LENGTH_UNIT ( ) NAMED_UNIT ( * ) SI_UNIT ( $, .METRE. ) );
#282 = PRESENTATION_LAYER_ASSIGNMENT (  '', '', ( #274 ) ) ;
#283 = CYLINDRICAL_SURFACE ( 'NONE', #322, 0.4999999999999998335 ) ;
#284 = FILL_AREA_STYLE_COLOUR ( '', #251 ) ;
#285 = PRESENTATION_STYLE_ASSIGNMENT (( #30 ) ) ;
#286 = FILL_AREA_STYLE ('',( #284 ) ) ;
#287 = SURFACE_STYLE_USAGE ( .BOTH. , #219 ) ;
#288 = MECHANICAL_DESIGN_GEOMETRIC_PRESENTATION_REPRESENTATION (  '', ( #130 ), #248 ) ;
#289 = AXIS2_PLACEMENT_3D ( 'NONE', #140, #220, #279 ) ;
#290 = CARTESIAN_POINT ( 'NONE',  ( 0.000000000000000000, 0.5000000000000000000, 0.000000000000000000 ) ) ;
#291 = EDGE_CURVE ( 'NONE', #365, #160, #360, .T. ) ;
#292 = FACE_OUTER_BOUND ( 'NONE', #212, .T. ) ;
#293 = PRESENTATION_STYLE_ASSIGNMENT (( #349 ) ) ;
#294 = DIMENSIONAL_EXPONENTS ( 1.000000000000000000, 0.000000000000000000, 0.000000000000000000, 0.000000000000000000, 0.000000000000000000, 0.000000000000000000, 0.000000000000000000 ) ;
#295 =( GEOMETRIC_REPRESENTATION_CONTEXT ( 3 ) GLOBAL_UNCERTAINTY_ASSIGNED_CONTEXT ( ( #346 ) ) GLOBAL_UNIT_ASSIGNED_CONTEXT ( ( #121, #93, #326 ) ) REPRESENTATION_CONTEXT ( 'NONE', 'WORKASPACE' ) );
#296 = SURFACE_STYLE_FILL_AREA ( #260 ) ;
#297 = STYLED_ITEM ( 'NONE', ( #316 ), #59 ) ;
#298 = SPHERICAL_SURFACE ( 'NONE', #8, 0.5000000000000000000 ) ;
#299 = ADVANCED_FACE ( 'NONE', ( #26 ), #342, .T. ) ;
#300 = DIRECTION ( 'NONE',  ( 1.000000000000000000, 0.000000000000000000, 0.000000000000000000 ) ) ;
#301 = AXIS2_PLACEMENT_3D ( 'NONE', #19, #217, #157 ) ;
#302 = EDGE_CURVE ( 'NONE', #246, #103, #258, .T. ) ;
#303 = CARTESIAN_POINT ( 'NONE',  ( 2.449293598294706907E-16, 2.000000000000000000, 0.000000000000000000 ) ) ;
#304 = SURFACE_STYLE_USAGE ( .BOTH. , #129 ) ;
#305 = ORIENTED_EDGE ( 'NONE', *, *, #55, .F. ) ;
#306 = CLOSED_SHELL ( 'NONE', ( #329, #354, #299, #226 ) ) ;
#307 = AXIS2_PLACEMENT_3D ( 'NONE', #356, #243, #100 ) ;
#308 = ORIENTED_EDGE ( 'NONE', *, *, #371, .F. ) ;
#309 = AXIS2_PLACEMENT_3D ( 'NONE', #173, #149, #6 ) ;
#310 = CARTESIAN_POINT ( 'NONE',  ( -6.123233995736766036E-17, 0.5000000000000000000, 0.000000000000000000 ) ) ;
#311 = EDGE_LOOP ( 'NONE', ( #244, #71, #80, #305, #20 ) ) ;
#312 =( NAMED_UNIT ( * ) PLANE_ANGLE_UNIT ( ) SI_UNIT ( $, .RADIAN. ) );
#313 =( CONVERSION_BASED_UNIT ( 'INCH', #90 ) LENGTH_UNIT ( ) NAMED_UNIT ( #294 ) );
#314 = MECHANICAL_DESIGN_GEOMETRIC_PRESENTATION_REPRESENTATION (  '', ( #168 ), #344 ) ;
#315 = FACE_OUTER_BOUND ( 'NONE', #273, .T. ) ;
#316 = PRESENTATION_STYLE_ASSIGNMENT (( #253 ) ) ;
#317 = CIRCLE ( 'NONE', #185, 0.4999999999999996114 ) ;
#318 =( NAMED_UNIT ( * ) PLANE_ANGLE_UNIT ( ) SI_UNIT ( $, .RADIAN. ) );
#319 = DIRECTION ( 'NONE',  ( -1.000000000000000000, 0.000000000000000000, 0.000000000000000000 ) ) ;
#320 = ORIENTED_EDGE ( 'NONE', *, *, #13, .T. ) ;
#321 =( GEOMETRIC_REPRESENTATION_CONTEXT ( 3 ) GLOBAL_UNCERTAINTY_ASSIGNED_CONTEXT ( ( #247 ) ) GLOBAL_UNIT_ASSIGNED_CONTEXT ( ( #250, #223, #198 ) ) REPRESENTATION_CONTEXT ( 'NONE', 'WORKASPACE' ) );
#322 = AXIS2_PLACEMENT_3D ( 'NONE', #167, #114, #28 ) ;
#323 = CARTESIAN_POINT ( 'NONE',  ( -0.5000000000000001110, 5.000000000000000000, 0.000000000000000000 ) ) ;
#324 = CARTESIAN_POINT ( 'NONE',  ( -1.224646799147353207E-16, 5.000000000000000000, 0.000000000000000000 ) ) ;
#325 = LENGTH_MEASURE_WITH_UNIT ( LENGTH_MEASURE( 0.02539999999999999897 ), #231 );
#326 =( NAMED_UNIT ( * ) SI_UNIT ( $, .STERADIAN. ) SOLID_ANGLE_UNIT ( ) );
#327 = PRESENTATION_LAYER_ASSIGNMENT (  '', '', ( #67 ) ) ;
#328 = AXIS2_PLACEMENT_3D ( 'NONE', #73, #207, #213 ) ;
#329 = ADVANCED_FACE ( 'NONE', ( #315 ), #369, .T. ) ;
#330 = CYLINDRICAL_SURFACE ( 'NONE', #153, 0.4999999999999998335 ) ;
#331 =( NAMED_UNIT ( * ) PLANE_ANGLE_UNIT ( ) SI_UNIT ( $, .RADIAN. ) );
#332 = CARTESIAN_POINT ( 'NONE',  ( 0.000000000000000000, 2.000000000000000000, -0.4999999999999997780 ) ) ;
#333 = DIMENSIONAL_EXPONENTS ( 1.000000000000000000, 0.000000000000000000, 0.000000000000000000, 0.000000000000000000, 0.000000000000000000, 0.000000000000000000, 0.000000000000000000 ) ;
#334 = APPLICATION_PROTOCOL_DEFINITION ( 'draft international standard', 'automotive_design', 1998, #75 ) ;
#335 = VERTEX_POINT ( 'NONE', #115 ) ;
#336 = DIRECTION ( 'NONE',  ( 1.000000000000000000, 1.224646799147353207E-16, 0.000000000000000000 ) ) ;
#337 = EDGE_CURVE ( 'NONE', #84, #240, #98, .T. ) ;
#338 = ORIENTED_EDGE ( 'NONE', *, *, #302, .T. ) ;
#339 = DIRECTION ( 'NONE',  ( 0.000000000000000000, 0.000000000000000000, -1.000000000000000000 ) ) ;
#340 = CIRCLE ( 'NONE', #3, 0.5000000000000000000 ) ;
#341 = VECTOR ( 'NONE', #10, 39.37007874015748143 ) ;
#342 = CYLINDRICAL_SURFACE ( 'NONE', #155, 0.4999999999999997224 ) ;
#343 = CARTESIAN_POINT ( 'NONE',  ( 0.000000000000000000, 0.5000000000000000000, 0.000000000000000000 ) ) ;
#344 =( GEOMETRIC_REPRESENTATION_CONTEXT ( 3 ) GLOBAL_UNCERTAINTY_ASSIGNED_CONTEXT ( ( #166 ) ) GLOBAL_UNIT_ASSIGNED_CONTEXT ( ( #313, #29, #61 ) ) REPRESENTATION_CONTEXT ( 'NONE', 'WORKASPACE' ) );
#345 = DIRECTION ( 'NONE',  ( -1.224646799147353207E-16, 1.000000000000000000, -0.000000000000000000 ) ) ;
#346 = UNCERTAINTY_MEASURE_WITH_UNIT (LENGTH_MEASURE( 1.000000000000000082E-05 ), #121, 'distance_accuracy_value', 'NONE');
#347 = LENGTH_MEASURE_WITH_UNIT ( LENGTH_MEASURE( 0.02539999999999999897 ), #195 );
#348 = PRODUCT_DEFINITION_FORMATION_WITH_SPECIFIED_SOURCE ( 'ANY', '', #127, .NOT_KNOWN. ) ;
#349 = SURFACE_STYLE_USAGE ( .BOTH. , #351 ) ;
#350 = LINE ( 'NONE', #65, #72 ) ;
#351 = SURFACE_SIDE_STYLE ('',( #296 ) ) ;
#352 = DIMENSIONAL_EXPONENTS ( 1.000000000000000000, 0.000000000000000000, 0.000000000000000000, 0.000000000000000000, 0.000000000000000000, 0.000000000000000000, 0.000000000000000000 ) ;
#353 = SPHERICAL_SURFACE ( 'NONE', #307, 0.5000000000000000000 ) ;
#354 = ADVANCED_FACE ( 'NONE', ( #57 ), #60, .F. ) ;
#355 = PRODUCT_CONTEXT ( 'NONE', #75, 'mechanical' ) ;
#356 = CARTESIAN_POINT ( 'NONE',  ( -6.123233995736766036E-17, 0.5000000000000000000, 0.000000000000000000 ) ) ;
#357 = EDGE_LOOP ( 'NONE', ( #215, #277 ) ) ;
#358 = CIRCLE ( 'NONE', #33, 0.4999999999999999445 ) ;
#359 = SURFACE_SIDE_STYLE ('',( #14 ) ) ;
#360 = CIRCLE ( 'NONE', #289, 0.4999999999999999445 ) ;
#361 = ORIENTED_EDGE ( 'NONE', *, *, #55, .T. ) ;
#362 = ORIENTED_EDGE ( 'NONE', *, *, #242, .F. ) ;
#363 = EDGE_CURVE ( 'NONE', #246, #17, #182, .T. ) ;
#364 = LINE ( 'NONE', #79, #18 ) ;
#365 = VERTEX_POINT ( 'NONE', #323 ) ;
#366 = FILL_AREA_STYLE ('',( #4 ) ) ;
#367 = PRESENTATION_LAYER_ASSIGNMENT (  '', '', ( #191 ) ) ;
#368 = FILL_AREA_STYLE ('',( #92 ) ) ;
#369 = CYLINDRICAL_SURFACE ( 'NONE', #237, 0.4999999999999997224 ) ;
#370 = ORIENTED_EDGE ( 'NONE', *, *, #200, .F. ) ;
#371 = EDGE_CURVE ( 'NONE', #17, #144, #42, .T. ) ;
#372 =( NAMED_UNIT ( * ) SI_UNIT ( $, .STERADIAN. ) SOLID_ANGLE_UNIT ( ) );
#373 = SURFACE_STYLE_FILL_AREA ( #368 ) ;
ENDSEC;
END-ISO-10303-21;
