ISO-10303-21;
HEADER;
FILE_DESCRIPTION (( 'STEP AP214' ),
    '1' );
FILE_NAME ('03332.STEP',
    '2023-06-22T15:10:43',
    ( '' ),
    ( '' ),
    'SwSTEP 2.0',
    'SolidWorks 2023',
    '' );
FILE_SCHEMA (( 'AUTOMOTIVE_DESIGN' ));
ENDSEC;

DATA;
#1 =( LENGTH_UNIT ( ) NAMED_UNIT ( * ) SI_UNIT ( $, .METRE. ) );
#2 = CYLINDRICAL_SURFACE ( 'NONE', #101, 0.1875000000000000278 ) ;
#3 = CARTESIAN_POINT ( 'NONE',  ( 0.000000000000000000, 0.000000000000000000, 0.000000000000000000 ) ) ;
#4 = PLANE ( 'NONE',  #225 ) ;
#5 = FILL_AREA_STYLE_COLOUR ( '', #184 ) ;
#6 = CARTESIAN_POINT ( 'NONE',  ( 2.499599637769763364E-33, 0.5000000000000001110, 0.000000000000000000 ) ) ;
#7 = MECHANICAL_DESIGN_GEOMETRIC_PRESENTATION_REPRESENTATION (  '', ( #132 ), #252 ) ;
#8 = STYLED_ITEM ( 'NONE', ( #286 ), #279 ) ;
#9 = ADVANCED_BREP_SHAPE_REPRESENTATION ( '03332', ( #77, #279, #276 ), #231 ) ;
#10 = DIRECTION ( 'NONE',  ( 0.000000000000000000, 0.000000000000000000, -1.000000000000000000 ) ) ;
#11 = ORIENTED_EDGE ( 'NONE', *, *, #35, .T. ) ;
#12 = EDGE_CURVE ( 'NONE', #303, #90, #46, .T. ) ;
#13 = FILL_AREA_STYLE ('',( #62 ) ) ;
#14 = ORIENTED_EDGE ( 'NONE', *, *, #72, .F. ) ;
#15 = EDGE_LOOP ( 'NONE', ( #113, #237 ) ) ;
#16 = COLOUR_RGB ( '',1.000000000000000000, 0.000000000000000000, 0.000000000000000000 ) ;
#17 = DIRECTION ( 'NONE',  ( -0.000000000000000000, -1.000000000000000000, -0.000000000000000000 ) ) ;
#18 = APPLICATION_PROTOCOL_DEFINITION ( 'draft international standard', 'automotive_design', 1998, #37 ) ;
#19 = DIRECTION ( 'NONE',  ( -0.000000000000000000, -1.000000000000000000, -0.000000000000000000 ) ) ;
#20 = SURFACE_STYLE_FILL_AREA ( #102 ) ;
#21 = DIRECTION ( 'NONE',  ( 0.000000000000000000, 0.000000000000000000, -1.000000000000000000 ) ) ;
#22 = ADVANCED_FACE ( 'NONE', ( #69 ), #167, .F. ) ;
#23 = LENGTH_MEASURE_WITH_UNIT ( LENGTH_MEASURE( 0.02539999999999999897 ), #118 );
#24 = MECHANICAL_DESIGN_GEOMETRIC_PRESENTATION_REPRESENTATION (  '', ( #282 ), #297 ) ;
#25 = PRESENTATION_STYLE_ASSIGNMENT (( #246 ) ) ;
#26 =( LENGTH_UNIT ( ) NAMED_UNIT ( * ) SI_UNIT ( $, .METRE. ) );
#27 = FILL_AREA_STYLE ('',( #144 ) ) ;
#28 =( NAMED_UNIT ( * ) SI_UNIT ( $, .STERADIAN. ) SOLID_ANGLE_UNIT ( ) );
#29 = DIRECTION ( 'NONE',  ( -0.000000000000000000, -1.000000000000000000, -0.000000000000000000 ) ) ;
#30 = CYLINDRICAL_SURFACE ( 'NONE', #298, 0.1874999999999999167 ) ;
#31 = DIMENSIONAL_EXPONENTS ( 1.000000000000000000, 0.000000000000000000, 0.000000000000000000, 0.000000000000000000, 0.000000000000000000, 0.000000000000000000, 0.000000000000000000 ) ;
#32 = DIRECTION ( 'NONE',  ( 1.632862398863137774E-16, 1.000000000000000000, -0.000000000000000000 ) ) ;
#33 = UNCERTAINTY_MEASURE_WITH_UNIT (LENGTH_MEASURE( 1.000000000000000082E-05 ), #124, 'distance_accuracy_value', 'NONE');
#34 = CARTESIAN_POINT ( 'NONE',  ( 0.000000000000000000, 0.5000000000000001110, 0.000000000000000000 ) ) ;
#35 = EDGE_CURVE ( 'NONE', #115, #90, #127, .T. ) ;
#36 = FACE_OUTER_BOUND ( 'NONE', #208, .T. ) ;
#37 = APPLICATION_CONTEXT ( 'automotive_design' ) ;
#38 =( GEOMETRIC_REPRESENTATION_CONTEXT ( 3 ) GLOBAL_UNCERTAINTY_ASSIGNED_CONTEXT ( ( #295 ) ) GLOBAL_UNIT_ASSIGNED_CONTEXT ( ( #304, #129, #195 ) ) REPRESENTATION_CONTEXT ( 'NONE', 'WORKASPACE' ) );
#39 = CIRCLE ( 'NONE', #222, 0.1875000000000000278 ) ;
#40 =( NAMED_UNIT ( * ) PLANE_ANGLE_UNIT ( ) SI_UNIT ( $, .RADIAN. ) );
#41 =( NAMED_UNIT ( * ) PLANE_ANGLE_UNIT ( ) SI_UNIT ( $, .RADIAN. ) );
#42 = EDGE_CURVE ( 'NONE', #45, #88, #136, .T. ) ;
#43 = FACE_OUTER_BOUND ( 'NONE', #227, .T. ) ;
#44 = PRESENTATION_STYLE_ASSIGNMENT (( #68 ) ) ;
#45 = VERTEX_POINT ( 'NONE', #121 ) ;
#46 = CIRCLE ( 'NONE', #73, 0.1874999999999997780 ) ;
#47 = LINE ( 'NONE', #243, #205 ) ;
#48 = ADVANCED_FACE ( 'NONE', ( #43 ), #4, .T. ) ;
#49 = FACE_OUTER_BOUND ( 'NONE', #85, .T. ) ;
#50 =( NAMED_UNIT ( * ) SI_UNIT ( $, .STERADIAN. ) SOLID_ANGLE_UNIT ( ) );
#51 = SURFACE_STYLE_FILL_AREA ( #95 ) ;
#52 = MECHANICAL_DESIGN_GEOMETRIC_PRESENTATION_REPRESENTATION (  '', ( #273 ), #60 ) ;
#53 = DIMENSIONAL_EXPONENTS ( 1.000000000000000000, 0.000000000000000000, 0.000000000000000000, 0.000000000000000000, 0.000000000000000000, 0.000000000000000000, 0.000000000000000000 ) ;
#54 = PRESENTATION_LAYER_ASSIGNMENT (  '', '', ( #273 ) ) ;
#55 = CARTESIAN_POINT ( 'NONE',  ( 0.000000000000000000, 0.000000000000000000, -0.1875000000000000278 ) ) ;
#56 = DIRECTION ( 'NONE',  ( 0.000000000000000000, 0.000000000000000000, -1.000000000000000000 ) ) ;
#57 = EDGE_CURVE ( 'NONE', #117, #45, #47, .T. ) ;
#58 = EDGE_LOOP ( 'NONE', ( #218, #183, #258, #87 ) ) ;
#59 = AXIS2_PLACEMENT_3D ( 'NONE', #175, #209, #263 ) ;
#60 =( GEOMETRIC_REPRESENTATION_CONTEXT ( 3 ) GLOBAL_UNCERTAINTY_ASSIGNED_CONTEXT ( ( #33 ) ) GLOBAL_UNIT_ASSIGNED_CONTEXT ( ( #124, #40, #174 ) ) REPRESENTATION_CONTEXT ( 'NONE', 'WORKASPACE' ) );
#61 = MECHANICAL_DESIGN_GEOMETRIC_PRESENTATION_REPRESENTATION (  '', ( #160 ), #200 ) ;
#62 = FILL_AREA_STYLE_COLOUR ( '', #302 ) ;
#63 = ORIENTED_EDGE ( 'NONE', *, *, #91, .F. ) ;
#64 = EDGE_LOOP ( 'NONE', ( #89, #285, #126, #202 ) ) ;
#65 = CARTESIAN_POINT ( 'NONE',  ( 0.000000000000000000, 0.5000000000000001110, 0.000000000000000000 ) ) ;
#66 = ORIENTED_EDGE ( 'NONE', *, *, #42, .T. ) ;
#67 = AXIS2_PLACEMENT_3D ( 'NONE', #34, #152, #293 ) ;
#68 = SURFACE_STYLE_USAGE ( .BOTH. , #264 ) ;
#69 = FACE_OUTER_BOUND ( 'NONE', #15, .T. ) ;
#70 = CARTESIAN_POINT ( 'NONE',  ( 0.000000000000000000, 0.5000000000000001110, 0.000000000000000000 ) ) ;
#71 = DIRECTION ( 'NONE',  ( 0.000000000000000000, -1.000000000000000000, -0.000000000000000000 ) ) ;
#72 = EDGE_CURVE ( 'NONE', #88, #45, #165, .T. ) ;
#73 = AXIS2_PLACEMENT_3D ( 'NONE', #309, #192, #169 ) ;
#74 = AXIS2_PLACEMENT_3D ( 'NONE', #70, #266, #168 ) ;
#75 = CARTESIAN_POINT ( 'NONE',  ( 0.000000000000000000, 0.000000000000000000, -0.1875000000000000278 ) ) ;
#76 = UNCERTAINTY_MEASURE_WITH_UNIT (LENGTH_MEASURE( 1.000000000000000082E-05 ), #267, 'distance_accuracy_value', 'NONE');
#77 = MANIFOLD_SOLID_BREP ( 'Revolve - Cutting Edge', #122 ) ;
#78 = LENGTH_MEASURE_WITH_UNIT ( LENGTH_MEASURE( 0.02539999999999999897 ), #128 );
#79 = CARTESIAN_POINT ( 'NONE',  ( -0.1875000000000000278, 0.5000000000000001110, 0.000000000000000000 ) ) ;
#80 = AXIS2_PLACEMENT_3D ( 'NONE', #274, #84, #161 ) ;
#81 =( NAMED_UNIT ( * ) SI_UNIT ( $, .STERADIAN. ) SOLID_ANGLE_UNIT ( ) );
#82 = EDGE_CURVE ( 'NONE', #277, #303, #104, .T. ) ;
#83 = VECTOR ( 'NONE', #157, 39.37007874015748143 ) ;
#84 = DIRECTION ( 'NONE',  ( 1.632862398863137774E-16, 1.000000000000000000, -0.000000000000000000 ) ) ;
#85 = EDGE_LOOP ( 'NONE', ( #158, #133, #14, #301 ) ) ;
#86 = DIRECTION ( 'NONE',  ( -1.000000000000000000, 1.632862398863137774E-16, 0.000000000000000000 ) ) ;
#87 = ORIENTED_EDGE ( 'NONE', *, *, #42, .F. ) ;
#88 = VERTEX_POINT ( 'NONE', #75 ) ;
#89 = ORIENTED_EDGE ( 'NONE', *, *, #108, .T. ) ;
#90 = VERTEX_POINT ( 'NONE', #198 ) ;
#91 = EDGE_CURVE ( 'NONE', #117, #162, #39, .T. ) ;
#92 = DIRECTION ( 'NONE',  ( -1.000000000000000000, 0.000000000000000000, 0.000000000000000000 ) ) ;
#93 = MECHANICAL_DESIGN_GEOMETRIC_PRESENTATION_REPRESENTATION (  '', ( #212 ), #166 ) ;
#94 = DIRECTION ( 'NONE',  ( 1.000000000000000000, -1.632862398863137774E-16, 0.000000000000000000 ) ) ;
#95 = FILL_AREA_STYLE ('',( #5 ) ) ;
#96 = CARTESIAN_POINT ( 'NONE',  ( 0.000000000000000000, 0.000000000000000000, 0.000000000000000000 ) ) ;
#97 = UNCERTAINTY_MEASURE_WITH_UNIT (LENGTH_MEASURE( 1.000000000000000082E-05 ), #220, 'distance_accuracy_value', 'NONE');
#98 = FILL_AREA_STYLE_COLOUR ( '', #173 ) ;
#99 = PRODUCT_CONTEXT ( 'NONE', #153, 'mechanical' ) ;
#100 =( NAMED_UNIT ( * ) PLANE_ANGLE_UNIT ( ) SI_UNIT ( $, .RADIAN. ) );
#101 = AXIS2_PLACEMENT_3D ( 'NONE', #148, #307, #289 ) ;
#102 = FILL_AREA_STYLE ('',( #130 ) ) ;
#103 = DIRECTION ( 'NONE',  ( -1.000000000000000000, 0.000000000000000000, 0.000000000000000000 ) ) ;
#104 = LINE ( 'NONE', #249, #229 ) ;
#105 = DIMENSIONAL_EXPONENTS ( 1.000000000000000000, 0.000000000000000000, 0.000000000000000000, 0.000000000000000000, 0.000000000000000000, 0.000000000000000000, 0.000000000000000000 ) ;
#106 = COLOUR_RGB ( '',0.7921568627450980005, 0.8196078431372548767, 0.9333333333333333481 ) ;
#107 = MECHANICAL_DESIGN_GEOMETRIC_PRESENTATION_REPRESENTATION (  '', ( #8 ), #38 ) ;
#108 = EDGE_CURVE ( 'NONE', #115, #277, #238, .T. ) ;
#109 = DIMENSIONAL_EXPONENTS ( 1.000000000000000000, 0.000000000000000000, 0.000000000000000000, 0.000000000000000000, 0.000000000000000000, 0.000000000000000000, 0.000000000000000000 ) ;
#110 = ORIENTED_EDGE ( 'NONE', *, *, #108, .F. ) ;
#111 = CLOSED_SHELL ( 'NONE', ( #116, #135, #154, #22 ) ) ;
#112 = CARTESIAN_POINT ( 'NONE',  ( 0.000000000000000000, 0.5000000000000001110, -0.1875000000000000278 ) ) ;
#113 = ORIENTED_EDGE ( 'NONE', *, *, #203, .T. ) ;
#114 = SURFACE_SIDE_STYLE ('',( #226 ) ) ;
#115 = VERTEX_POINT ( 'NONE', #79 ) ;
#116 = ADVANCED_FACE ( 'NONE', ( #223 ), #30, .T. ) ;
#117 = VERTEX_POINT ( 'NONE', #272 ) ;
#118 =( LENGTH_UNIT ( ) NAMED_UNIT ( * ) SI_UNIT ( $, .METRE. ) );
#119 = ORIENTED_EDGE ( 'NONE', *, *, #294, .F. ) ;
#120 = CARTESIAN_POINT ( 'NONE',  ( 0.1875000000000000278, 0.5000000000000001110, 2.296212748401286493E-17 ) ) ;
#121 = CARTESIAN_POINT ( 'NONE',  ( 2.296212748401287726E-17, 0.000000000000000000, 0.1875000000000000278 ) ) ;
#122 = CLOSED_SHELL ( 'NONE', ( #240, #187, #292, #48 ) ) ;
#123 = PRESENTATION_LAYER_ASSIGNMENT (  '', '', ( #8 ) ) ;
#124 =( CONVERSION_BASED_UNIT ( 'INCH', #23 ) LENGTH_UNIT ( ) NAMED_UNIT ( #31 ) );
#125 = CARTESIAN_POINT ( 'NONE',  ( 0.000000000000000000, 0.000000000000000000, 0.000000000000000000 ) ) ;
#126 = ORIENTED_EDGE ( 'NONE', *, *, #203, .F. ) ;
#127 = LINE ( 'NONE', #265, #260 ) ;
#128 =( LENGTH_UNIT ( ) NAMED_UNIT ( * ) SI_UNIT ( $, .METRE. ) );
#129 =( NAMED_UNIT ( * ) PLANE_ANGLE_UNIT ( ) SI_UNIT ( $, .RADIAN. ) );
#130 = FILL_AREA_STYLE_COLOUR ( '', #106 ) ;
#131 = DIMENSIONAL_EXPONENTS ( 1.000000000000000000, 0.000000000000000000, 0.000000000000000000, 0.000000000000000000, 0.000000000000000000, 0.000000000000000000, 0.000000000000000000 ) ;
#132 = STYLED_ITEM ( 'NONE', ( #261 ), #77 ) ;
#133 = ORIENTED_EDGE ( 'NONE', *, *, #57, .T. ) ;
#134 = PLANE ( 'NONE',  #74 ) ;
#135 = ADVANCED_FACE ( 'NONE', ( #251 ), #221, .F. ) ;
#136 = CIRCLE ( 'NONE', #59, 0.1875000000000000278 ) ;
#137 = PRODUCT_DEFINITION_FORMATION_WITH_SPECIFIED_SOURCE ( 'ANY', '', #241, .NOT_KNOWN. ) ;
#138 = EDGE_CURVE ( 'NONE', #162, #117, #283, .T. ) ;
#139 = DIRECTION ( 'NONE',  ( 0.000000000000000000, 0.000000000000000000, 1.000000000000000000 ) ) ;
#140 = PRESENTATION_LAYER_ASSIGNMENT (  '', '', ( #212 ) ) ;
#141 = LENGTH_MEASURE_WITH_UNIT ( LENGTH_MEASURE( 0.02539999999999999897 ), #1 );
#142 = CARTESIAN_POINT ( 'NONE',  ( 0.1875000000000000278, 2.000000000000000000, 0.000000000000000000 ) ) ;
#143 = FILL_AREA_STYLE_COLOUR ( '', #147 ) ;
#144 = FILL_AREA_STYLE_COLOUR ( '', #16 ) ;
#145 = SURFACE_STYLE_FILL_AREA ( #27 ) ;
#146 = PRESENTATION_LAYER_ASSIGNMENT (  '', '', ( #132 ) ) ;
#147 = COLOUR_RGB ( '',0.7921568627450980005, 0.8196078431372548767, 0.9333333333333333481 ) ;
#148 = CARTESIAN_POINT ( 'NONE',  ( 0.000000000000000000, 0.000000000000000000, 0.000000000000000000 ) ) ;
#149 =( NAMED_UNIT ( * ) PLANE_ANGLE_UNIT ( ) SI_UNIT ( $, .RADIAN. ) );
#150 = AXIS2_PLACEMENT_3D ( 'NONE', #3, #193, #290 ) ;
#151 =( LENGTH_UNIT ( ) NAMED_UNIT ( * ) SI_UNIT ( $, .METRE. ) );
#152 = DIRECTION ( 'NONE',  ( 1.632862398863137774E-16, 1.000000000000000000, -0.000000000000000000 ) ) ;
#153 = APPLICATION_CONTEXT ( 'automotive_design' ) ;
#154 = ADVANCED_FACE ( 'NONE', ( #257 ), #224, .T. ) ;
#155 = DIRECTION ( 'NONE',  ( -0.000000000000000000, -1.000000000000000000, -0.000000000000000000 ) ) ;
#156 = DIMENSIONAL_EXPONENTS ( 1.000000000000000000, 0.000000000000000000, 0.000000000000000000, 0.000000000000000000, 0.000000000000000000, 0.000000000000000000, 0.000000000000000000 ) ;
#157 = DIRECTION ( 'NONE',  ( -0.000000000000000000, -1.000000000000000000, -0.000000000000000000 ) ) ;
#158 = ORIENTED_EDGE ( 'NONE', *, *, #138, .T. ) ;
#159 = AXIS2_PLACEMENT_3D ( 'NONE', #142, #308, #94 ) ;
#160 = STYLED_ITEM ( 'NONE', ( #182 ), #187 ) ;
#161 = DIRECTION ( 'NONE',  ( -1.000000000000000000, 0.000000000000000000, 0.000000000000000000 ) ) ;
#162 = VERTEX_POINT ( 'NONE', #112 ) ;
#163 =( CONVERSION_BASED_UNIT ( 'INCH', #242 ) LENGTH_UNIT ( ) NAMED_UNIT ( #131 ) );
#164 = SURFACE_STYLE_USAGE ( .BOTH. , #197 ) ;
#165 = CIRCLE ( 'NONE', #150, 0.1875000000000000278 ) ;
#166 =( GEOMETRIC_REPRESENTATION_CONTEXT ( 3 ) GLOBAL_UNCERTAINTY_ASSIGNED_CONTEXT ( ( #244 ) ) GLOBAL_UNIT_ASSIGNED_CONTEXT ( ( #177, #41, #281 ) ) REPRESENTATION_CONTEXT ( 'NONE', 'WORKASPACE' ) );
#167 = PLANE ( 'NONE',  #159 ) ;
#168 = DIRECTION ( 'NONE',  ( 0.000000000000000000, -0.000000000000000000, 1.000000000000000000 ) ) ;
#169 = DIRECTION ( 'NONE',  ( -1.000000000000000000, 0.000000000000000000, 0.000000000000000000 ) ) ;
#170 = DIRECTION ( 'NONE',  ( -1.000000000000000000, 0.000000000000000000, 0.000000000000000000 ) ) ;
#171 = DIRECTION ( 'NONE',  ( 0.000000000000000000, 0.000000000000000000, -1.000000000000000000 ) ) ;
#172 = PRESENTATION_STYLE_ASSIGNMENT (( #247 ) ) ;
#173 = COLOUR_RGB ( '',1.000000000000000000, 0.000000000000000000, 0.000000000000000000 ) ;
#174 =( NAMED_UNIT ( * ) SI_UNIT ( $, .STERADIAN. ) SOLID_ANGLE_UNIT ( ) );
#175 = CARTESIAN_POINT ( 'NONE',  ( 0.000000000000000000, 0.000000000000000000, 0.000000000000000000 ) ) ;
#176 = EDGE_CURVE ( 'NONE', #162, #88, #300, .T. ) ;
#177 =( CONVERSION_BASED_UNIT ( 'INCH', #78 ) LENGTH_UNIT ( ) NAMED_UNIT ( #196 ) );
#178 = CARTESIAN_POINT ( 'NONE',  ( 2.449293598294706414E-16, 2.000000000000000000, 0.000000000000000000 ) ) ;
#179 = LENGTH_MEASURE_WITH_UNIT ( LENGTH_MEASURE( 0.02539999999999999897 ), #151 );
#180 = CARTESIAN_POINT ( 'NONE',  ( 0.000000000000000000, 0.5000000000000001110, 0.000000000000000000 ) ) ;
#181 = CARTESIAN_POINT ( 'NONE',  ( 0.000000000000000000, 0.5000000000000001110, 0.000000000000000000 ) ) ;
#182 = PRESENTATION_STYLE_ASSIGNMENT (( #204 ) ) ;
#183 = ORIENTED_EDGE ( 'NONE', *, *, #91, .T. ) ;
#184 = COLOUR_RGB ( '',1.000000000000000000, 0.000000000000000000, 0.000000000000000000 ) ;
#185 = ORIENTED_EDGE ( 'NONE', *, *, #294, .T. ) ;
#186 = CARTESIAN_POINT ( 'NONE',  ( 2.449293598294706414E-16, 2.000000000000000000, 0.000000000000000000 ) ) ;
#187 = ADVANCED_FACE ( 'NONE', ( #36 ), #134, .T. ) ;
#188 = LENGTH_MEASURE_WITH_UNIT ( LENGTH_MEASURE( 0.02539999999999999897 ), #215 );
#189 = UNCERTAINTY_MEASURE_WITH_UNIT (LENGTH_MEASURE( 1.000000000000000082E-05 ), #216, 'distance_accuracy_value', 'NONE');
#190 = SURFACE_STYLE_USAGE ( .BOTH. , #210 ) ;
#191 =( NAMED_UNIT ( * ) PLANE_ANGLE_UNIT ( ) SI_UNIT ( $, .RADIAN. ) );
#192 = DIRECTION ( 'NONE',  ( 1.632862398863137774E-16, 1.000000000000000000, -0.000000000000000000 ) ) ;
#193 = DIRECTION ( 'NONE',  ( -0.000000000000000000, -1.000000000000000000, -0.000000000000000000 ) ) ;
#194 = AXIS2_PLACEMENT_3D ( 'NONE', #6, #296, #86 ) ;
#195 =( NAMED_UNIT ( * ) SI_UNIT ( $, .STERADIAN. ) SOLID_ANGLE_UNIT ( ) );
#196 = DIMENSIONAL_EXPONENTS ( 1.000000000000000000, 0.000000000000000000, 0.000000000000000000, 0.000000000000000000, 0.000000000000000000, 0.000000000000000000, 0.000000000000000000 ) ;
#197 = SURFACE_SIDE_STYLE ('',( #20 ) ) ;
#198 = CARTESIAN_POINT ( 'NONE',  ( -0.1874999999999995282, 2.000000000000000000, 0.000000000000000000 ) ) ;
#199 = PRESENTATION_LAYER_ASSIGNMENT (  '', '', ( #282 ) ) ;
#200 =( GEOMETRIC_REPRESENTATION_CONTEXT ( 3 ) GLOBAL_UNCERTAINTY_ASSIGNED_CONTEXT ( ( #189 ) ) GLOBAL_UNIT_ASSIGNED_CONTEXT ( ( #216, #284, #28 ) ) REPRESENTATION_CONTEXT ( 'NONE', 'WORKASPACE' ) );
#201 = CIRCLE ( 'NONE', #248, 0.1875000000000000278 ) ;
#202 = ORIENTED_EDGE ( 'NONE', *, *, #35, .F. ) ;
#203 = EDGE_CURVE ( 'NONE', #90, #303, #239, .T. ) ;
#204 = SURFACE_STYLE_USAGE ( .BOTH. , #114 ) ;
#205 = VECTOR ( 'NONE', #29, 39.37007874015748143 ) ;
#206 = AXIS2_PLACEMENT_3D ( 'NONE', #181, #17, #56 ) ;
#207 = CARTESIAN_POINT ( 'NONE',  ( 0.1875000000000000278, 2.000000000000000000, 2.296212748401286493E-17 ) ) ;
#208 = EDGE_LOOP ( 'NONE', ( #275, #63 ) ) ;
#209 = DIRECTION ( 'NONE',  ( -0.000000000000000000, -1.000000000000000000, -0.000000000000000000 ) ) ;
#210 = SURFACE_SIDE_STYLE ('',( #213 ) ) ;
#211 = SHAPE_DEFINITION_REPRESENTATION ( #219, #9 ) ;
#212 = STYLED_ITEM ( 'NONE', ( #172 ), #292 ) ;
#213 = SURFACE_STYLE_FILL_AREA ( #234 ) ;
#214 = APPLICATION_PROTOCOL_DEFINITION ( 'draft international standard', 'automotive_design', 1998, #153 ) ;
#215 =( LENGTH_UNIT ( ) NAMED_UNIT ( * ) SI_UNIT ( $, .METRE. ) );
#216 =( CONVERSION_BASED_UNIT ( 'INCH', #141 ) LENGTH_UNIT ( ) NAMED_UNIT ( #156 ) );
#217 =( NAMED_UNIT ( * ) SI_UNIT ( $, .STERADIAN. ) SOLID_ANGLE_UNIT ( ) );
#218 = ORIENTED_EDGE ( 'NONE', *, *, #57, .F. ) ;
#219 = PRODUCT_DEFINITION_SHAPE ( 'NONE', 'NONE',  #299 ) ;
#220 =( CONVERSION_BASED_UNIT ( 'INCH', #179 ) LENGTH_UNIT ( ) NAMED_UNIT ( #105 ) );
#221 = PLANE ( 'NONE',  #194 ) ;
#222 = AXIS2_PLACEMENT_3D ( 'NONE', #180, #155, #10 ) ;
#223 = FACE_OUTER_BOUND ( 'NONE', #64, .T. ) ;
#224 = CYLINDRICAL_SURFACE ( 'NONE', #80, 0.1874999999999999167 ) ;
#225 = AXIS2_PLACEMENT_3D ( 'NONE', #288, #71, #171 ) ;
#226 = SURFACE_STYLE_FILL_AREA ( #13 ) ;
#227 = EDGE_LOOP ( 'NONE', ( #305, #66 ) ) ;
#228 = DIRECTION ( 'NONE',  ( 1.000000000000000000, 0.000000000000000000, 0.000000000000000000 ) ) ;
#229 = VECTOR ( 'NONE', #32, 39.37007874015748143 ) ;
#230 = ORIENTED_EDGE ( 'NONE', *, *, #12, .F. ) ;
#231 =( GEOMETRIC_REPRESENTATION_CONTEXT ( 3 ) GLOBAL_UNCERTAINTY_ASSIGNED_CONTEXT ( ( #271 ) ) GLOBAL_UNIT_ASSIGNED_CONTEXT ( ( #163, #191, #217 ) ) REPRESENTATION_CONTEXT ( 'NONE', 'WORKASPACE' ) );
#232 = FILL_AREA_STYLE ('',( #98 ) ) ;
#233 = DIRECTION ( 'NONE',  ( 1.632862398863137774E-16, 1.000000000000000000, -0.000000000000000000 ) ) ;
#234 = FILL_AREA_STYLE ('',( #143 ) ) ;
#235 = SURFACE_SIDE_STYLE ('',( #145 ) ) ;
#236 = PRODUCT_DEFINITION_CONTEXT ( 'detailed design', #37, 'design' ) ;
#237 = ORIENTED_EDGE ( 'NONE', *, *, #12, .T. ) ;
#238 = CIRCLE ( 'NONE', #67, 0.1875000000000000278 ) ;
#239 = CIRCLE ( 'NONE', #291, 0.1874999999999997780 ) ;
#240 = ADVANCED_FACE ( 'NONE', ( #49 ), #280, .T. ) ;
#241 = PRODUCT ( '03332', '03332', '', ( #99 ) ) ;
#242 = LENGTH_MEASURE_WITH_UNIT ( LENGTH_MEASURE( 0.02539999999999999897 ), #262 );
#243 = CARTESIAN_POINT ( 'NONE',  ( 2.296212748401287726E-17, 0.000000000000000000, 0.1875000000000000278 ) ) ;
#244 = UNCERTAINTY_MEASURE_WITH_UNIT (LENGTH_MEASURE( 1.000000000000000082E-05 ), #177, 'distance_accuracy_value', 'NONE');
#245 = LENGTH_MEASURE_WITH_UNIT ( LENGTH_MEASURE( 0.02539999999999999897 ), #26 );
#246 = SURFACE_STYLE_USAGE ( .BOTH. , #235 ) ;
#247 = SURFACE_STYLE_USAGE ( .BOTH. , #270 ) ;
#248 = AXIS2_PLACEMENT_3D ( 'NONE', #65, #287, #170 ) ;
#249 = CARTESIAN_POINT ( 'NONE',  ( 0.1875000000000001388, 2.000000000000000000, 2.296212748401286185E-17 ) ) ;
#250 = PRODUCT_RELATED_PRODUCT_CATEGORY ( 'part', '', ( #241 ) ) ;
#251 = FACE_OUTER_BOUND ( 'NONE', #256, .T. ) ;
#252 =( GEOMETRIC_REPRESENTATION_CONTEXT ( 3 ) GLOBAL_UNCERTAINTY_ASSIGNED_CONTEXT ( ( #97 ) ) GLOBAL_UNIT_ASSIGNED_CONTEXT ( ( #220, #149, #81 ) ) REPRESENTATION_CONTEXT ( 'NONE', 'WORKASPACE' ) );
#253 = PRESENTATION_LAYER_ASSIGNMENT (  '', '', ( #160 ) ) ;
#254 = EDGE_LOOP ( 'NONE', ( #278, #185, #11, #230 ) ) ;
#255 = AXIS2_PLACEMENT_3D ( 'NONE', #96, #19, #21 ) ;
#256 = EDGE_LOOP ( 'NONE', ( #110, #119 ) ) ;
#257 = FACE_OUTER_BOUND ( 'NONE', #254, .T. ) ;
#258 = ORIENTED_EDGE ( 'NONE', *, *, #176, .T. ) ;
#259 = SURFACE_STYLE_FILL_AREA ( #232 ) ;
#260 = VECTOR ( 'NONE', #233, 39.37007874015748143 ) ;
#261 = PRESENTATION_STYLE_ASSIGNMENT (( #164 ) ) ;
#262 =( LENGTH_UNIT ( ) NAMED_UNIT ( * ) SI_UNIT ( $, .METRE. ) );
#263 = DIRECTION ( 'NONE',  ( 0.000000000000000000, 0.000000000000000000, -1.000000000000000000 ) ) ;
#264 = SURFACE_SIDE_STYLE ('',( #259 ) ) ;
#265 = CARTESIAN_POINT ( 'NONE',  ( -0.1874999999999996669, 2.000000000000000000, 0.000000000000000000 ) ) ;
#266 = DIRECTION ( 'NONE',  ( 0.000000000000000000, 1.000000000000000000, 0.000000000000000000 ) ) ;
#267 =( CONVERSION_BASED_UNIT ( 'INCH', #188 ) LENGTH_UNIT ( ) NAMED_UNIT ( #53 ) );
#268 = FACE_OUTER_BOUND ( 'NONE', #58, .T. ) ;
#269 = DIRECTION ( 'NONE',  ( 1.632862398863137774E-16, 1.000000000000000000, -0.000000000000000000 ) ) ;
#270 = SURFACE_SIDE_STYLE ('',( #51 ) ) ;
#271 = UNCERTAINTY_MEASURE_WITH_UNIT (LENGTH_MEASURE( 1.000000000000000082E-05 ), #163, 'distance_accuracy_value', 'NONE');
#272 = CARTESIAN_POINT ( 'NONE',  ( 2.296212748401287726E-17, 0.5000000000000001110, 0.1875000000000000278 ) ) ;
#273 = STYLED_ITEM ( 'NONE', ( #44 ), #240 ) ;
#274 = CARTESIAN_POINT ( 'NONE',  ( 2.449293598294706414E-16, 2.000000000000000000, 0.000000000000000000 ) ) ;
#275 = ORIENTED_EDGE ( 'NONE', *, *, #138, .F. ) ;
#276 = AXIS2_PLACEMENT_3D ( 'NONE', #125, #139, #228 ) ;
#277 = VERTEX_POINT ( 'NONE', #120 ) ;
#278 = ORIENTED_EDGE ( 'NONE', *, *, #82, .F. ) ;
#279 = MANIFOLD_SOLID_BREP ( 'Revolve - Tool Body (Straight Shanked)', #111 ) ;
#280 = CYLINDRICAL_SURFACE ( 'NONE', #255, 0.1875000000000000278 ) ;
#281 =( NAMED_UNIT ( * ) SI_UNIT ( $, .STERADIAN. ) SOLID_ANGLE_UNIT ( ) );
#282 = STYLED_ITEM ( 'NONE', ( #25 ), #48 ) ;
#283 = CIRCLE ( 'NONE', #206, 0.1875000000000000278 ) ;
#284 =( NAMED_UNIT ( * ) PLANE_ANGLE_UNIT ( ) SI_UNIT ( $, .RADIAN. ) );
#285 = ORIENTED_EDGE ( 'NONE', *, *, #82, .T. ) ;
#286 = PRESENTATION_STYLE_ASSIGNMENT (( #190 ) ) ;
#287 = DIRECTION ( 'NONE',  ( 1.632862398863137774E-16, 1.000000000000000000, -0.000000000000000000 ) ) ;
#288 = CARTESIAN_POINT ( 'NONE',  ( 0.000000000000000000, 0.000000000000000000, 0.000000000000000000 ) ) ;
#289 = DIRECTION ( 'NONE',  ( 0.000000000000000000, 0.000000000000000000, -1.000000000000000000 ) ) ;
#290 = DIRECTION ( 'NONE',  ( 0.000000000000000000, 0.000000000000000000, -1.000000000000000000 ) ) ;
#291 = AXIS2_PLACEMENT_3D ( 'NONE', #186, #306, #92 ) ;
#292 = ADVANCED_FACE ( 'NONE', ( #268 ), #2, .T. ) ;
#293 = DIRECTION ( 'NONE',  ( -1.000000000000000000, 0.000000000000000000, 0.000000000000000000 ) ) ;
#294 = EDGE_CURVE ( 'NONE', #277, #115, #201, .T. ) ;
#295 = UNCERTAINTY_MEASURE_WITH_UNIT (LENGTH_MEASURE( 1.000000000000000082E-05 ), #304, 'distance_accuracy_value', 'NONE');
#296 = DIRECTION ( 'NONE',  ( 1.632862398863137774E-16, 1.000000000000000000, -0.000000000000000000 ) ) ;
#297 =( GEOMETRIC_REPRESENTATION_CONTEXT ( 3 ) GLOBAL_UNCERTAINTY_ASSIGNED_CONTEXT ( ( #76 ) ) GLOBAL_UNIT_ASSIGNED_CONTEXT ( ( #267, #100, #50 ) ) REPRESENTATION_CONTEXT ( 'NONE', 'WORKASPACE' ) );
#298 = AXIS2_PLACEMENT_3D ( 'NONE', #178, #269, #103 ) ;
#299 = PRODUCT_DEFINITION ( 'UNKNOWN', '', #137, #236 ) ;
#300 = LINE ( 'NONE', #55, #83 ) ;
#301 = ORIENTED_EDGE ( 'NONE', *, *, #176, .F. ) ;
#302 = COLOUR_RGB ( '',1.000000000000000000, 0.000000000000000000, 0.000000000000000000 ) ;
#303 = VERTEX_POINT ( 'NONE', #207 ) ;
#304 =( CONVERSION_BASED_UNIT ( 'INCH', #245 ) LENGTH_UNIT ( ) NAMED_UNIT ( #109 ) );
#305 = ORIENTED_EDGE ( 'NONE', *, *, #72, .T. ) ;
#306 = DIRECTION ( 'NONE',  ( 1.632862398863137774E-16, 1.000000000000000000, -0.000000000000000000 ) ) ;
#307 = DIRECTION ( 'NONE',  ( -0.000000000000000000, -1.000000000000000000, -0.000000000000000000 ) ) ;
#308 = DIRECTION ( 'NONE',  ( -1.632862398863137774E-16, -1.000000000000000000, 0.000000000000000000 ) ) ;
#309 = CARTESIAN_POINT ( 'NONE',  ( 2.449293598294706414E-16, 2.000000000000000000, 0.000000000000000000 ) ) ;
ENDSEC;
END-ISO-10303-21;
