ISO-10303-21;
HEADER;
FILE_DESCRIPTION (( 'STEP AP214' ),
    '1' );
FILE_NAME ('81705.STEP',
    '2023-06-23T02:40:31',
    ( '' ),
    ( '' ),
    'SwSTEP 2.0',
    'SolidWorks 2023',
    '' );
FILE_SCHEMA (( 'AUTOMOTIVE_DESIGN' ));
ENDSEC;

DATA;
#1 = LENGTH_MEASURE_WITH_UNIT ( LENGTH_MEASURE( 0.02539999999999999897 ), #167 );
#2 = VECTOR ( 'NONE', #191, 39.37007874015748854 ) ;
#3 = FILL_AREA_STYLE_COLOUR ( '', #105 ) ;
#4 = LINE ( 'NONE', #85, #258 ) ;
#5 = CARTESIAN_POINT ( 'NONE',  ( -6.123233995736766036E-17, 2.500000000000000000, 0.000000000000000000 ) ) ;
#6 = PRESENTATION_STYLE_ASSIGNMENT (( #265 ) ) ;
#7 = ORIENTED_EDGE ( 'NONE', *, *, #311, .T. ) ;
#8 = DIRECTION ( 'NONE',  ( -3.160378836509298460E-17, 1.000000000000000000, -0.000000000000000000 ) ) ;
#9 = VERTEX_POINT ( 'NONE', #324 ) ;
#10 = AXIS2_PLACEMENT_3D ( 'NONE', #75, #225, #165 ) ;
#11 = EDGE_LOOP ( 'NONE', ( #56, #53, #209, #32 ) ) ;
#12 =( NAMED_UNIT ( * ) SI_UNIT ( $, .STERADIAN. ) SOLID_ANGLE_UNIT ( ) );
#13 = DIRECTION ( 'NONE',  ( 0.000000000000000000, 0.000000000000000000, -1.000000000000000000 ) ) ;
#14 = CLOSED_SHELL ( 'NONE', ( #118, #300, #20, #294 ) ) ;
#15 =( GEOMETRIC_REPRESENTATION_CONTEXT ( 3 ) GLOBAL_UNCERTAINTY_ASSIGNED_CONTEXT ( ( #68 ) ) GLOBAL_UNIT_ASSIGNED_CONTEXT ( ( #109, #307, #310 ) ) REPRESENTATION_CONTEXT ( 'NONE', 'WORKASPACE' ) );
#16 = SURFACE_STYLE_FILL_AREA ( #101 ) ;
#17 = DIRECTION ( 'NONE',  ( -0.000000000000000000, -1.000000000000000000, -0.000000000000000000 ) ) ;
#18 = CARTESIAN_POINT ( 'NONE',  ( 0.07809999999999997500, 0.5625000000000001110, 1.052277762167363194E-17 ) ) ;
#19 = STYLED_ITEM ( 'NONE', ( #6 ), #294 ) ;
#20 = ADVANCED_FACE ( 'NONE', ( #245 ), #159, .T. ) ;
#21 = LENGTH_MEASURE_WITH_UNIT ( LENGTH_MEASURE( 0.02539999999999999897 ), #81 );
#22 = DIRECTION ( 'NONE',  ( -3.160378836509298460E-17, 1.000000000000000000, 0.000000000000000000 ) ) ;
#23 = STYLED_ITEM ( 'NONE', ( #116 ), #300 ) ;
#24 = EDGE_CURVE ( 'NONE', #94, #181, #163, .T. ) ;
#25 =( CONVERSION_BASED_UNIT ( 'INCH', #142 ) LENGTH_UNIT ( ) NAMED_UNIT ( #52 ) );
#26 = AXIS2_PLACEMENT_3D ( 'NONE', #288, #241, #156 ) ;
#27 = ORIENTED_EDGE ( 'NONE', *, *, #60, .F. ) ;
#28 = PRESENTATION_STYLE_ASSIGNMENT (( #57 ) ) ;
#29 = ORIENTED_EDGE ( 'NONE', *, *, #311, .F. ) ;
#30 = SURFACE_STYLE_FILL_AREA ( #287 ) ;
#31 = EDGE_LOOP ( 'NONE', ( #39, #285 ) ) ;
#32 = ORIENTED_EDGE ( 'NONE', *, *, #349, .F. ) ;
#33 = CIRCLE ( 'NONE', #160, 0.07809999999999997500 ) ;
#34 = FILL_AREA_STYLE ('',( #65 ) ) ;
#35 = EDGE_CURVE ( 'NONE', #185, #97, #257, .T. ) ;
#36 = ORIENTED_EDGE ( 'NONE', *, *, #336, .F. ) ;
#37 = CARTESIAN_POINT ( 'NONE',  ( -6.123233995736766036E-17, 2.500000000000000000, 0.000000000000000000 ) ) ;
#38 = DIMENSIONAL_EXPONENTS ( 1.000000000000000000, 0.000000000000000000, 0.000000000000000000, 0.000000000000000000, 0.000000000000000000, 0.000000000000000000, 0.000000000000000000 ) ;
#39 = ORIENTED_EDGE ( 'NONE', *, *, #111, .T. ) ;
#40 = FACE_OUTER_BOUND ( 'NONE', #316, .T. ) ;
#41 = CARTESIAN_POINT ( 'NONE',  ( 0.000000000000000000, 0.000000000000000000, -0.07810000000000000275 ) ) ;
#42 = AXIS2_PLACEMENT_3D ( 'NONE', #249, #104, #43 ) ;
#43 = DIRECTION ( 'NONE',  ( -1.000000000000000000, 0.000000000000000000, 0.000000000000000000 ) ) ;
#44 = CARTESIAN_POINT ( 'NONE',  ( 0.09374999999999994449, 2.500000000000000000, 1.148106374200643863E-17 ) ) ;
#45 = CARTESIAN_POINT ( 'NONE',  ( 0.000000000000000000, 0.000000000000000000, -0.07809999999999997500 ) ) ;
#46 = CIRCLE ( 'NONE', #179, 0.07809999999999997500 ) ;
#47 = PRESENTATION_STYLE_ASSIGNMENT (( #228 ) ) ;
#48 = EDGE_CURVE ( 'NONE', #9, #262, #33, .T. ) ;
#49 = VECTOR ( 'NONE', #164, 39.37007874015748143 ) ;
#50 = SHAPE_DEFINITION_REPRESENTATION ( #338, #145 ) ;
#51 = FILL_AREA_STYLE_COLOUR ( '', #292 ) ;
#52 = DIMENSIONAL_EXPONENTS ( 1.000000000000000000, 0.000000000000000000, 0.000000000000000000, 0.000000000000000000, 0.000000000000000000, 0.000000000000000000, 0.000000000000000000 ) ;
#53 = ORIENTED_EDGE ( 'NONE', *, *, #48, .T. ) ;
#54 = DIRECTION ( 'NONE',  ( -0.000000000000000000, -1.000000000000000000, -0.000000000000000000 ) ) ;
#55 =( GEOMETRIC_REPRESENTATION_CONTEXT ( 3 ) GLOBAL_UNCERTAINTY_ASSIGNED_CONTEXT ( ( #328 ) ) GLOBAL_UNIT_ASSIGNED_CONTEXT ( ( #25, #208, #315 ) ) REPRESENTATION_CONTEXT ( 'NONE', 'WORKASPACE' ) );
#56 = ORIENTED_EDGE ( 'NONE', *, *, #238, .F. ) ;
#57 = SURFACE_STYLE_USAGE ( .BOTH. , #95 ) ;
#58 = PLANE ( 'NONE',  #244 ) ;
#59 = EDGE_LOOP ( 'NONE', ( #291, #174 ) ) ;
#60 = EDGE_CURVE ( 'NONE', #181, #97, #122, .T. ) ;
#61 = DIRECTION ( 'NONE',  ( -3.160378836509298460E-17, 1.000000000000000000, -0.000000000000000000 ) ) ;
#62 = UNCERTAINTY_MEASURE_WITH_UNIT (LENGTH_MEASURE( 1.000000000000000082E-05 ), #345, 'distance_accuracy_value', 'NONE');
#63 = ORIENTED_EDGE ( 'NONE', *, *, #172, .T. ) ;
#64 =( GEOMETRIC_REPRESENTATION_CONTEXT ( 3 ) GLOBAL_UNCERTAINTY_ASSIGNED_CONTEXT ( ( #62 ) ) GLOBAL_UNIT_ASSIGNED_CONTEXT ( ( #345, #320, #12 ) ) REPRESENTATION_CONTEXT ( 'NONE', 'WORKASPACE' ) );
#65 = FILL_AREA_STYLE_COLOUR ( '', #290 ) ;
#66 = VECTOR ( 'NONE', #353, 39.37007874015748143 ) ;
#67 = SURFACE_STYLE_USAGE ( .BOTH. , #329 ) ;
#68 = UNCERTAINTY_MEASURE_WITH_UNIT (LENGTH_MEASURE( 1.000000000000000082E-05 ), #109, 'distance_accuracy_value', 'NONE');
#69 = ORIENTED_EDGE ( 'NONE', *, *, #24, .T. ) ;
#70 = PRODUCT_RELATED_PRODUCT_CATEGORY ( 'part', '', ( #335 ) ) ;
#71 = STYLED_ITEM ( 'NONE', ( #224 ), #118 ) ;
#72 = CARTESIAN_POINT ( 'NONE',  ( 0.07809999999999997500, 0.5625000000000001110, 9.564491501340826783E-18 ) ) ;
#73 = DIRECTION ( 'NONE',  ( 0.000000000000000000, 0.000000000000000000, 1.000000000000000000 ) ) ;
#74 =( NAMED_UNIT ( * ) SI_UNIT ( $, .STERADIAN. ) SOLID_ANGLE_UNIT ( ) );
#75 = CARTESIAN_POINT ( 'NONE',  ( 0.000000000000000000, 0.000000000000000000, 0.000000000000000000 ) ) ;
#76 = FILL_AREA_STYLE_COLOUR ( '', #356 ) ;
#77 =( NAMED_UNIT ( * ) SI_UNIT ( $, .STERADIAN. ) SOLID_ANGLE_UNIT ( ) );
#78 = UNCERTAINTY_MEASURE_WITH_UNIT (LENGTH_MEASURE( 1.000000000000000082E-05 ), #200, 'distance_accuracy_value', 'NONE');
#79 = SURFACE_STYLE_FILL_AREA ( #201 ) ;
#80 = AXIS2_PLACEMENT_3D ( 'NONE', #211, #317, #86 ) ;
#81 =( LENGTH_UNIT ( ) NAMED_UNIT ( * ) SI_UNIT ( $, .METRE. ) );
#82 =( LENGTH_UNIT ( ) NAMED_UNIT ( * ) SI_UNIT ( $, .METRE. ) );
#83 = CARTESIAN_POINT ( 'NONE',  ( 0.000000000000000000, 0.000000000000000000, 0.000000000000000000 ) ) ;
#84 = ADVANCED_FACE ( 'NONE', ( #40 ), #304, .T. ) ;
#85 = CARTESIAN_POINT ( 'NONE',  ( -0.09375000000000006939, 2.500000000000000000, 0.000000000000000000 ) ) ;
#86 = DIRECTION ( 'NONE',  ( 1.000000000000000000, 3.160378836509298460E-17, 0.000000000000000000 ) ) ;
#87 = DIMENSIONAL_EXPONENTS ( 1.000000000000000000, 0.000000000000000000, 0.000000000000000000, 0.000000000000000000, 0.000000000000000000, 0.000000000000000000, 0.000000000000000000 ) ;
#88 = CIRCLE ( 'NONE', #296, 0.07810000000000000275 ) ;
#89 = APPLICATION_CONTEXT ( 'automotive_design' ) ;
#90 = DIRECTION ( 'NONE',  ( -1.000000000000000000, -3.160378836509298460E-17, 0.000000000000000000 ) ) ;
#91 = DIRECTION ( 'NONE',  ( 0.000000000000000000, 0.000000000000000000, -1.000000000000000000 ) ) ;
#92 = UNCERTAINTY_MEASURE_WITH_UNIT (LENGTH_MEASURE( 1.000000000000000082E-05 ), #313, 'distance_accuracy_value', 'NONE');
#93 =( NAMED_UNIT ( * ) SI_UNIT ( $, .STERADIAN. ) SOLID_ANGLE_UNIT ( ) );
#94 = VERTEX_POINT ( 'NONE', #18 ) ;
#95 = SURFACE_SIDE_STYLE ('',( #182 ) ) ;
#96 = FACE_OUTER_BOUND ( 'NONE', #31, .T. ) ;
#97 = VERTEX_POINT ( 'NONE', #44 ) ;
#98 = PRESENTATION_LAYER_ASSIGNMENT (  '', '', ( #71 ) ) ;
#99 = MECHANICAL_DESIGN_GEOMETRIC_PRESENTATION_REPRESENTATION (  '', ( #166 ), #15 ) ;
#100 = EDGE_LOOP ( 'NONE', ( #63, #150, #103, #352 ) ) ;
#101 = FILL_AREA_STYLE ('',( #276 ) ) ;
#102 = DIRECTION ( 'NONE',  ( -1.000000000000000000, 0.000000000000000000, 0.000000000000000000 ) ) ;
#103 = ORIENTED_EDGE ( 'NONE', *, *, #111, .F. ) ;
#104 = DIRECTION ( 'NONE',  ( -3.160378836509298460E-17, 1.000000000000000000, -0.000000000000000000 ) ) ;
#105 = COLOUR_RGB ( '',1.000000000000000000, 0.000000000000000000, 0.000000000000000000 ) ;
#106 = SURFACE_SIDE_STYLE ('',( #168 ) ) ;
#107 =( NAMED_UNIT ( * ) PLANE_ANGLE_UNIT ( ) SI_UNIT ( $, .RADIAN. ) );
#108 = PRESENTATION_LAYER_ASSIGNMENT (  '', '', ( #207 ) ) ;
#109 =( CONVERSION_BASED_UNIT ( 'INCH', #21 ) LENGTH_UNIT ( ) NAMED_UNIT ( #38 ) );
#110 = CARTESIAN_POINT ( 'NONE',  ( -6.123233995736766036E-17, 2.500000000000000000, 0.000000000000000000 ) ) ;
#111 = EDGE_CURVE ( 'NONE', #213, #152, #88, .T. ) ;
#112 = FILL_AREA_STYLE ('',( #3 ) ) ;
#113 = CARTESIAN_POINT ( 'NONE',  ( -0.09375000000000006939, 2.500000000000000000, 0.000000000000000000 ) ) ;
#114 = ORIENTED_EDGE ( 'NONE', *, *, #326, .T. ) ;
#115 = CARTESIAN_POINT ( 'NONE',  ( 9.564491501340828324E-18, 0.000000000000000000, 0.07810000000000000275 ) ) ;
#116 = PRESENTATION_STYLE_ASSIGNMENT (( #256 ) ) ;
#117 = CYLINDRICAL_SURFACE ( 'NONE', #132, 0.09375000000000001388 ) ;
#118 = ADVANCED_FACE ( 'NONE', ( #251 ), #303, .T. ) ;
#119 = MECHANICAL_DESIGN_GEOMETRIC_PRESENTATION_REPRESENTATION (  '', ( #207 ), #217 ) ;
#120 =( CONVERSION_BASED_UNIT ( 'INCH', #341 ) LENGTH_UNIT ( ) NAMED_UNIT ( #87 ) );
#121 = EDGE_LOOP ( 'NONE', ( #322, #350 ) ) ;
#122 = LINE ( 'NONE', #243, #49 ) ;
#123 = AXIS2_PLACEMENT_3D ( 'NONE', #134, #305, #252 ) ;
#124 = ORIENTED_EDGE ( 'NONE', *, *, #336, .T. ) ;
#125 = LINE ( 'NONE', #190, #2 ) ;
#126 = UNCERTAINTY_MEASURE_WITH_UNIT (LENGTH_MEASURE( 1.000000000000000082E-05 ), #120, 'distance_accuracy_value', 'NONE');
#127 =( NAMED_UNIT ( * ) PLANE_ANGLE_UNIT ( ) SI_UNIT ( $, .RADIAN. ) );
#128 = ADVANCED_FACE ( 'NONE', ( #153 ), #141, .T. ) ;
#129 = DIRECTION ( 'NONE',  ( 0.000000000000000000, 0.000000000000000000, -1.000000000000000000 ) ) ;
#130 = PRESENTATION_LAYER_ASSIGNMENT (  '', '', ( #198 ) ) ;
#131 = ADVANCED_FACE ( 'NONE', ( #268 ), #180, .F. ) ;
#132 = AXIS2_PLACEMENT_3D ( 'NONE', #5, #342, #206 ) ;
#133 = FILL_AREA_STYLE ('',( #76 ) ) ;
#134 = CARTESIAN_POINT ( 'NONE',  ( 0.000000000000000000, 0.5625000000000001110, 0.000000000000000000 ) ) ;
#135 = APPLICATION_PROTOCOL_DEFINITION ( 'draft international standard', 'automotive_design', 1998, #295 ) ;
#136 = FACE_OUTER_BOUND ( 'NONE', #147, .T. ) ;
#137 = PRODUCT_DEFINITION_FORMATION_WITH_SPECIFIED_SOURCE ( 'ANY', '', #335, .NOT_KNOWN. ) ;
#138 = MANIFOLD_SOLID_BREP ( 'Revolve - Tool Body (Reduced Cut Diameter)', #302 ) ;
#139 = CYLINDRICAL_SURFACE ( 'NONE', #299, 0.09375000000000001388 ) ;
#140 = DIRECTION ( 'NONE',  ( 0.000000000000000000, 0.000000000000000000, -1.000000000000000000 ) ) ;
#141 = CONICAL_SURFACE ( 'NONE', #202, 0.07809999999999997500, 0.3490658503988668948 ) ;
#142 = LENGTH_MEASURE_WITH_UNIT ( LENGTH_MEASURE( 0.02539999999999999897 ), #312 );
#143 = VERTEX_POINT ( 'NONE', #175 ) ;
#144 =( NAMED_UNIT ( * ) PLANE_ANGLE_UNIT ( ) SI_UNIT ( $, .RADIAN. ) );
#145 = ADVANCED_BREP_SHAPE_REPRESENTATION ( '81705', ( #264, #138, #222 ), #333 ) ;
#146 =( NAMED_UNIT ( * ) PLANE_ANGLE_UNIT ( ) SI_UNIT ( $, .RADIAN. ) );
#147 = EDGE_LOOP ( 'NONE', ( #7, #319, #355, #221 ) ) ;
#148 = DIRECTION ( 'NONE',  ( -1.000000000000000000, 0.000000000000000000, 0.000000000000000000 ) ) ;
#149 = CARTESIAN_POINT ( 'NONE',  ( 0.000000000000000000, 0.000000000000000000, 0.000000000000000000 ) ) ;
#150 = ORIENTED_EDGE ( 'NONE', *, *, #238, .T. ) ;
#151 = DIRECTION ( 'NONE',  ( -3.160378836509298460E-17, 1.000000000000000000, -0.000000000000000000 ) ) ;
#152 = VERTEX_POINT ( 'NONE', #115 ) ;
#153 = FACE_OUTER_BOUND ( 'NONE', #155, .T. ) ;
#154 = CIRCLE ( 'NONE', #123, 0.07809999999999997500 ) ;
#155 = EDGE_LOOP ( 'NONE', ( #223, #261, #263, #36 ) ) ;
#156 = DIRECTION ( 'NONE',  ( 0.000000000000000000, 0.000000000000000000, -1.000000000000000000 ) ) ;
#157 = EDGE_CURVE ( 'NONE', #97, #185, #277, .T. ) ;
#158 =( CONVERSION_BASED_UNIT ( 'INCH', #197 ) LENGTH_UNIT ( ) NAMED_UNIT ( #183 ) );
#159 = CYLINDRICAL_SURFACE ( 'NONE', #194, 0.07809999999999997500 ) ;
#160 = AXIS2_PLACEMENT_3D ( 'NONE', #327, #298, #13 ) ;
#161 = LINE ( 'NONE', #246, #66 ) ;
#162 = AXIS2_PLACEMENT_3D ( 'NONE', #177, #248, #102 ) ;
#163 = LINE ( 'NONE', #72, #176 ) ;
#164 = DIRECTION ( 'NONE',  ( -3.160378836509298460E-17, 1.000000000000000000, -0.000000000000000000 ) ) ;
#165 = DIRECTION ( 'NONE',  ( 0.000000000000000000, 0.000000000000000000, -1.000000000000000000 ) ) ;
#166 = STYLED_ITEM ( 'NONE', ( #47 ), #264 ) ;
#167 =( LENGTH_UNIT ( ) NAMED_UNIT ( * ) SI_UNIT ( $, .METRE. ) );
#168 = SURFACE_STYLE_FILL_AREA ( #133 ) ;
#169 = FACE_OUTER_BOUND ( 'NONE', #178, .T. ) ;
#170 =( GEOMETRIC_REPRESENTATION_CONTEXT ( 3 ) GLOBAL_UNCERTAINTY_ASSIGNED_CONTEXT ( ( #92 ) ) GLOBAL_UNIT_ASSIGNED_CONTEXT ( ( #313, #144, #282 ) ) REPRESENTATION_CONTEXT ( 'NONE', 'WORKASPACE' ) );
#171 = CARTESIAN_POINT ( 'NONE',  ( 0.000000000000000000, 0.000000000000000000, 0.000000000000000000 ) ) ;
#172 = EDGE_CURVE ( 'NONE', #262, #9, #323, .T. ) ;
#173 = FACE_OUTER_BOUND ( 'NONE', #59, .T. ) ;
#174 = ORIENTED_EDGE ( 'NONE', *, *, #48, .F. ) ;
#175 = CARTESIAN_POINT ( 'NONE',  ( -0.09375000000000001388, 0.6054980216144648653, 0.000000000000000000 ) ) ;
#176 = VECTOR ( 'NONE', #196, 39.37007874015748143 ) ;
#177 = CARTESIAN_POINT ( 'NONE',  ( -1.358900375221237887E-18, 0.6054980216144648653, 0.000000000000000000 ) ) ;
#178 = EDGE_LOOP ( 'NONE', ( #240, #218 ) ) ;
#179 = AXIS2_PLACEMENT_3D ( 'NONE', #284, #8, #232 ) ;
#180 = PLANE ( 'NONE',  #80 ) ;
#181 = VERTEX_POINT ( 'NONE', #270 ) ;
#182 = SURFACE_STYLE_FILL_AREA ( #34 ) ;
#183 = DIMENSIONAL_EXPONENTS ( 1.000000000000000000, 0.000000000000000000, 0.000000000000000000, 0.000000000000000000, 0.000000000000000000, 0.000000000000000000, 0.000000000000000000 ) ;
#184 = MECHANICAL_DESIGN_GEOMETRIC_PRESENTATION_REPRESENTATION (  '', ( #198 ), #64 ) ;
#185 = VERTEX_POINT ( 'NONE', #113 ) ;
#186 = LENGTH_MEASURE_WITH_UNIT ( LENGTH_MEASURE( 0.02539999999999999897 ), #359 );
#187 = MECHANICAL_DESIGN_GEOMETRIC_PRESENTATION_REPRESENTATION (  '', ( #19 ), #55 ) ;
#188 = EDGE_CURVE ( 'NONE', #94, #272, #46, .T. ) ;
#189 = CARTESIAN_POINT ( 'NONE',  ( 0.000000000000000000, 0.000000000000000000, 0.000000000000000000 ) ) ;
#190 = CARTESIAN_POINT ( 'NONE',  ( -0.07809999999999997500, 0.5625000000000001110, 0.000000000000000000 ) ) ;
#191 = DIRECTION ( 'NONE',  ( -0.3420201433256696566, 0.9396926207859079838, 0.000000000000000000 ) ) ;
#192 = DIRECTION ( 'NONE',  ( 0.000000000000000000, 0.000000000000000000, -1.000000000000000000 ) ) ;
#193 = ADVANCED_FACE ( 'NONE', ( #340 ), #117, .T. ) ;
#194 = AXIS2_PLACEMENT_3D ( 'NONE', #189, #293, #192 ) ;
#195 = PRESENTATION_LAYER_ASSIGNMENT (  '', '', ( #23 ) ) ;
#196 = DIRECTION ( 'NONE',  ( 0.3420201433256696011, 0.9396926207859080948, 4.188538737677003475E-17 ) ) ;
#197 = LENGTH_MEASURE_WITH_UNIT ( LENGTH_MEASURE( 0.02539999999999999897 ), #301 );
#198 = STYLED_ITEM ( 'NONE', ( #28 ), #138 ) ;
#199 = CIRCLE ( 'NONE', #219, 0.09375000000000001388 ) ;
#200 =( CONVERSION_BASED_UNIT ( 'INCH', #1 ) LENGTH_UNIT ( ) NAMED_UNIT ( #235 ) );
#201 = FILL_AREA_STYLE ('',( #337 ) ) ;
#202 = AXIS2_PLACEMENT_3D ( 'NONE', #214, #151, #148 ) ;
#203 = EDGE_CURVE ( 'NONE', #272, #143, #125, .T. ) ;
#204 = CARTESIAN_POINT ( 'NONE',  ( -1.358900375221237887E-18, 0.6054980216144648653, 0.000000000000000000 ) ) ;
#205 = DIRECTION ( 'NONE',  ( -3.160378836509298460E-17, 1.000000000000000000, -0.000000000000000000 ) ) ;
#206 = DIRECTION ( 'NONE',  ( -1.000000000000000000, 0.000000000000000000, 0.000000000000000000 ) ) ;
#207 = STYLED_ITEM ( 'NONE', ( #220 ), #20 ) ;
#208 =( NAMED_UNIT ( * ) PLANE_ANGLE_UNIT ( ) SI_UNIT ( $, .RADIAN. ) );
#209 = ORIENTED_EDGE ( 'NONE', *, *, #354, .T. ) ;
#210 = PRESENTATION_LAYER_ASSIGNMENT (  '', '', ( #166 ) ) ;
#211 = CARTESIAN_POINT ( 'NONE',  ( 0.09374999999999994449, 2.500000000000000000, 0.000000000000000000 ) ) ;
#212 = DIRECTION ( 'NONE',  ( 0.000000000000000000, 1.000000000000000000, 0.000000000000000000 ) ) ;
#213 = VERTEX_POINT ( 'NONE', #41 ) ;
#214 = CARTESIAN_POINT ( 'NONE',  ( 0.000000000000000000, 0.5625000000000001110, 0.000000000000000000 ) ) ;
#215 = DIRECTION ( 'NONE',  ( 0.000000000000000000, -1.000000000000000000, -0.000000000000000000 ) ) ;
#216 =( LENGTH_UNIT ( ) NAMED_UNIT ( * ) SI_UNIT ( $, .METRE. ) );
#217 =( GEOMETRIC_REPRESENTATION_CONTEXT ( 3 ) GLOBAL_UNCERTAINTY_ASSIGNED_CONTEXT ( ( #236 ) ) GLOBAL_UNIT_ASSIGNED_CONTEXT ( ( #158, #127, #74 ) ) REPRESENTATION_CONTEXT ( 'NONE', 'WORKASPACE' ) );
#218 = ORIENTED_EDGE ( 'NONE', *, *, #188, .F. ) ;
#219 = AXIS2_PLACEMENT_3D ( 'NONE', #204, #318, #346 ) ;
#220 = PRESENTATION_STYLE_ASSIGNMENT (( #67 ) ) ;
#221 = ORIENTED_EDGE ( 'NONE', *, *, #326, .F. ) ;
#222 = AXIS2_PLACEMENT_3D ( 'NONE', #171, #73, #334 ) ;
#223 = ORIENTED_EDGE ( 'NONE', *, *, #24, .F. ) ;
#224 = PRESENTATION_STYLE_ASSIGNMENT (( #330 ) ) ;
#225 = DIRECTION ( 'NONE',  ( -0.000000000000000000, -1.000000000000000000, -0.000000000000000000 ) ) ;
#226 = CARTESIAN_POINT ( 'NONE',  ( 0.000000000000000000, 0.5625000000000000000, -0.07809999999999997500 ) ) ;
#227 = AXIS2_PLACEMENT_3D ( 'NONE', #279, #22, #90 ) ;
#228 = SURFACE_STYLE_USAGE ( .BOTH. , #229 ) ;
#229 = SURFACE_SIDE_STYLE ('',( #79 ) ) ;
#230 = DIRECTION ( 'NONE',  ( -3.160378836509298460E-17, 1.000000000000000000, -0.000000000000000000 ) ) ;
#231 = SURFACE_STYLE_FILL_AREA ( #112 ) ;
#232 = DIRECTION ( 'NONE',  ( -1.000000000000000000, 0.000000000000000000, 0.000000000000000000 ) ) ;
#233 = EDGE_LOOP ( 'NONE', ( #27, #124, #114, #348 ) ) ;
#234 = DIRECTION ( 'NONE',  ( -1.000000000000000000, 0.000000000000000000, 0.000000000000000000 ) ) ;
#235 = DIMENSIONAL_EXPONENTS ( 1.000000000000000000, 0.000000000000000000, 0.000000000000000000, 0.000000000000000000, 0.000000000000000000, 0.000000000000000000, 0.000000000000000000 ) ;
#236 = UNCERTAINTY_MEASURE_WITH_UNIT (LENGTH_MEASURE( 1.000000000000000082E-05 ), #158, 'distance_accuracy_value', 'NONE');
#237 = VECTOR ( 'NONE', #255, 39.37007874015748143 ) ;
#238 = EDGE_CURVE ( 'NONE', #9, #152, #161, .T. ) ;
#239 = SURFACE_SIDE_STYLE ('',( #30 ) ) ;
#240 = ORIENTED_EDGE ( 'NONE', *, *, #247, .F. ) ;
#241 = DIRECTION ( 'NONE',  ( -0.000000000000000000, -1.000000000000000000, -0.000000000000000000 ) ) ;
#242 = CARTESIAN_POINT ( 'NONE',  ( 0.000000000000000000, 0.000000000000000000, 0.000000000000000000 ) ) ;
#243 = CARTESIAN_POINT ( 'NONE',  ( 0.09374999999999994449, 2.500000000000000000, 1.148106374200643863E-17 ) ) ;
#244 = AXIS2_PLACEMENT_3D ( 'NONE', #149, #215, #140 ) ;
#245 = FACE_OUTER_BOUND ( 'NONE', #11, .T. ) ;
#246 = CARTESIAN_POINT ( 'NONE',  ( 9.564491501340826783E-18, 0.000000000000000000, 0.07809999999999997500 ) ) ;
#247 = EDGE_CURVE ( 'NONE', #272, #94, #154, .T. ) ;
#248 = DIRECTION ( 'NONE',  ( -3.160378836509298460E-17, 1.000000000000000000, -0.000000000000000000 ) ) ;
#249 = CARTESIAN_POINT ( 'NONE',  ( 0.000000000000000000, 0.5625000000000001110, 0.000000000000000000 ) ) ;
#250 = COLOUR_RGB ( '',1.000000000000000000, 0.000000000000000000, 0.000000000000000000 ) ;
#251 = FACE_OUTER_BOUND ( 'NONE', #100, .T. ) ;
#252 = DIRECTION ( 'NONE',  ( -1.000000000000000000, 0.000000000000000000, 0.000000000000000000 ) ) ;
#253 = CARTESIAN_POINT ( 'NONE',  ( -0.07809999999999997500, 0.5625000000000001110, 0.000000000000000000 ) ) ;
#254 = CIRCLE ( 'NONE', #162, 0.09375000000000001388 ) ;
#255 = DIRECTION ( 'NONE',  ( -0.000000000000000000, -1.000000000000000000, -0.000000000000000000 ) ) ;
#256 = SURFACE_STYLE_USAGE ( .BOTH. , #239 ) ;
#257 = CIRCLE ( 'NONE', #314, 0.09375000000000001388 ) ;
#258 = VECTOR ( 'NONE', #205, 39.37007874015748143 ) ;
#259 = ADVANCED_FACE ( 'NONE', ( #136 ), #139, .T. ) ;
#260 = DIRECTION ( 'NONE',  ( 0.000000000000000000, -0.000000000000000000, 1.000000000000000000 ) ) ;
#261 = ORIENTED_EDGE ( 'NONE', *, *, #188, .T. ) ;
#262 = VERTEX_POINT ( 'NONE', #226 ) ;
#263 = ORIENTED_EDGE ( 'NONE', *, *, #203, .T. ) ;
#264 = MANIFOLD_SOLID_BREP ( 'Revolve - Cutting Edge', #14 ) ;
#265 = SURFACE_STYLE_USAGE ( .BOTH. , #339 ) ;
#266 = ORIENTED_EDGE ( 'NONE', *, *, #247, .T. ) ;
#267 = PRESENTATION_LAYER_ASSIGNMENT (  '', '', ( #19 ) ) ;
#268 = FACE_OUTER_BOUND ( 'NONE', #121, .T. ) ;
#269 = ORIENTED_EDGE ( 'NONE', *, *, #203, .F. ) ;
#270 = CARTESIAN_POINT ( 'NONE',  ( 0.09375000000000001388, 0.6054980216144648653, 1.148106374200643863E-17 ) ) ;
#271 = DIRECTION ( 'NONE',  ( -1.000000000000000000, 0.000000000000000000, 0.000000000000000000 ) ) ;
#272 = VERTEX_POINT ( 'NONE', #253 ) ;
#273 = MECHANICAL_DESIGN_GEOMETRIC_PRESENTATION_REPRESENTATION (  '', ( #23 ), #281 ) ;
#274 = CARTESIAN_POINT ( 'NONE',  ( -6.123233995736766036E-17, 2.500000000000000000, 0.000000000000000000 ) ) ;
#275 = ADVANCED_FACE ( 'NONE', ( #169 ), #332, .F. ) ;
#276 = FILL_AREA_STYLE_COLOUR ( '', #250 ) ;
#277 = CIRCLE ( 'NONE', #283, 0.09375000000000001388 ) ;
#278 = DIRECTION ( 'NONE',  ( -1.000000000000000000, 0.000000000000000000, 0.000000000000000000 ) ) ;
#279 = CARTESIAN_POINT ( 'NONE',  ( 3.900311809394915129E-35, 0.5625000000000000000, 0.000000000000000000 ) ) ;
#280 = MECHANICAL_DESIGN_GEOMETRIC_PRESENTATION_REPRESENTATION (  '', ( #71 ), #170 ) ;
#281 =( GEOMETRIC_REPRESENTATION_CONTEXT ( 3 ) GLOBAL_UNCERTAINTY_ASSIGNED_CONTEXT ( ( #126 ) ) GLOBAL_UNIT_ASSIGNED_CONTEXT ( ( #120, #146, #93 ) ) REPRESENTATION_CONTEXT ( 'NONE', 'WORKASPACE' ) );
#282 =( NAMED_UNIT ( * ) SI_UNIT ( $, .STERADIAN. ) SOLID_ANGLE_UNIT ( ) );
#283 = AXIS2_PLACEMENT_3D ( 'NONE', #37, #61, #234 ) ;
#284 = CARTESIAN_POINT ( 'NONE',  ( 0.000000000000000000, 0.5625000000000001110, 0.000000000000000000 ) ) ;
#285 = ORIENTED_EDGE ( 'NONE', *, *, #349, .T. ) ;
#286 = LENGTH_MEASURE_WITH_UNIT ( LENGTH_MEASURE( 0.02539999999999999897 ), #216 );
#287 = FILL_AREA_STYLE ('',( #51 ) ) ;
#288 = CARTESIAN_POINT ( 'NONE',  ( 0.000000000000000000, 0.5625000000000000000, 0.000000000000000000 ) ) ;
#289 = PRODUCT_DEFINITION ( 'UNKNOWN', '', #137, #331 ) ;
#290 = COLOUR_RGB ( '',0.7921568627450980005, 0.8196078431372548767, 0.9333333333333333481 ) ;
#291 = ORIENTED_EDGE ( 'NONE', *, *, #172, .F. ) ;
#292 = COLOUR_RGB ( '',1.000000000000000000, 0.000000000000000000, 0.000000000000000000 ) ;
#293 = DIRECTION ( 'NONE',  ( -0.000000000000000000, -1.000000000000000000, -0.000000000000000000 ) ) ;
#294 = ADVANCED_FACE ( 'NONE', ( #96 ), #58, .T. ) ;
#295 = APPLICATION_CONTEXT ( 'automotive_design' ) ;
#296 = AXIS2_PLACEMENT_3D ( 'NONE', #242, #17, #129 ) ;
#297 = DIMENSIONAL_EXPONENTS ( 1.000000000000000000, 0.000000000000000000, 0.000000000000000000, 0.000000000000000000, 0.000000000000000000, 0.000000000000000000, 0.000000000000000000 ) ;
#298 = DIRECTION ( 'NONE',  ( -0.000000000000000000, -1.000000000000000000, -0.000000000000000000 ) ) ;
#299 = AXIS2_PLACEMENT_3D ( 'NONE', #110, #230, #278 ) ;
#300 = ADVANCED_FACE ( 'NONE', ( #173 ), #344, .T. ) ;
#301 =( LENGTH_UNIT ( ) NAMED_UNIT ( * ) SI_UNIT ( $, .METRE. ) );
#302 = CLOSED_SHELL ( 'NONE', ( #259, #84, #275, #128, #193, #131 ) ) ;
#303 = CYLINDRICAL_SURFACE ( 'NONE', #309, 0.07809999999999997500 ) ;
#304 = CONICAL_SURFACE ( 'NONE', #42, 0.07809999999999997500, 0.3490658503988668948 ) ;
#305 = DIRECTION ( 'NONE',  ( -3.160378836509298460E-17, 1.000000000000000000, -0.000000000000000000 ) ) ;
#306 = LINE ( 'NONE', #45, #237 ) ;
#307 =( NAMED_UNIT ( * ) PLANE_ANGLE_UNIT ( ) SI_UNIT ( $, .RADIAN. ) );
#308 = PRODUCT_CONTEXT ( 'NONE', #295, 'mechanical' ) ;
#309 = AXIS2_PLACEMENT_3D ( 'NONE', #83, #54, #91 ) ;
#310 =( NAMED_UNIT ( * ) SI_UNIT ( $, .STERADIAN. ) SOLID_ANGLE_UNIT ( ) );
#311 = EDGE_CURVE ( 'NONE', #143, #181, #199, .T. ) ;
#312 =( LENGTH_UNIT ( ) NAMED_UNIT ( * ) SI_UNIT ( $, .METRE. ) );
#313 =( CONVERSION_BASED_UNIT ( 'INCH', #186 ) LENGTH_UNIT ( ) NAMED_UNIT ( #297 ) );
#314 = AXIS2_PLACEMENT_3D ( 'NONE', #274, #357, #271 ) ;
#315 =( NAMED_UNIT ( * ) SI_UNIT ( $, .STERADIAN. ) SOLID_ANGLE_UNIT ( ) );
#316 = EDGE_LOOP ( 'NONE', ( #266, #69, #29, #269 ) ) ;
#317 = DIRECTION ( 'NONE',  ( 3.160378836509298460E-17, -1.000000000000000000, 0.000000000000000000 ) ) ;
#318 = DIRECTION ( 'NONE',  ( -3.160378836509298460E-17, 1.000000000000000000, -0.000000000000000000 ) ) ;
#319 = ORIENTED_EDGE ( 'NONE', *, *, #60, .T. ) ;
#320 =( NAMED_UNIT ( * ) PLANE_ANGLE_UNIT ( ) SI_UNIT ( $, .RADIAN. ) );
#321 = CARTESIAN_POINT ( 'NONE',  ( 0.000000000000000000, 0.5625000000000000000, 0.000000000000000000 ) ) ;
#322 = ORIENTED_EDGE ( 'NONE', *, *, #35, .T. ) ;
#323 = CIRCLE ( 'NONE', #26, 0.07809999999999997500 ) ;
#324 = CARTESIAN_POINT ( 'NONE',  ( 9.564491501340826783E-18, 0.5625000000000000000, 0.07809999999999997500 ) ) ;
#325 = AXIS2_PLACEMENT_3D ( 'NONE', #321, #212, #260 ) ;
#326 = EDGE_CURVE ( 'NONE', #143, #185, #4, .T. ) ;
#327 = CARTESIAN_POINT ( 'NONE',  ( 0.000000000000000000, 0.5625000000000000000, 0.000000000000000000 ) ) ;
#328 = UNCERTAINTY_MEASURE_WITH_UNIT (LENGTH_MEASURE( 1.000000000000000082E-05 ), #25, 'distance_accuracy_value', 'NONE');
#329 = SURFACE_SIDE_STYLE ('',( #16 ) ) ;
#330 = SURFACE_STYLE_USAGE ( .BOTH. , #106 ) ;
#331 = PRODUCT_DEFINITION_CONTEXT ( 'detailed design', #89, 'design' ) ;
#332 = PLANE ( 'NONE',  #227 ) ;
#333 =( GEOMETRIC_REPRESENTATION_CONTEXT ( 3 ) GLOBAL_UNCERTAINTY_ASSIGNED_CONTEXT ( ( #78 ) ) GLOBAL_UNIT_ASSIGNED_CONTEXT ( ( #200, #107, #77 ) ) REPRESENTATION_CONTEXT ( 'NONE', 'WORKASPACE' ) );
#334 = DIRECTION ( 'NONE',  ( 1.000000000000000000, 0.000000000000000000, 0.000000000000000000 ) ) ;
#335 = PRODUCT ( '81705', '81705', '', ( #308 ) ) ;
#336 = EDGE_CURVE ( 'NONE', #181, #143, #254, .T. ) ;
#337 = FILL_AREA_STYLE_COLOUR ( '', #343 ) ;
#338 = PRODUCT_DEFINITION_SHAPE ( 'NONE', 'NONE',  #289 ) ;
#339 = SURFACE_SIDE_STYLE ('',( #231 ) ) ;
#340 = FACE_OUTER_BOUND ( 'NONE', #233, .T. ) ;
#341 = LENGTH_MEASURE_WITH_UNIT ( LENGTH_MEASURE( 0.02539999999999999897 ), #82 );
#342 = DIRECTION ( 'NONE',  ( -3.160378836509298460E-17, 1.000000000000000000, -0.000000000000000000 ) ) ;
#343 = COLOUR_RGB ( '',0.7921568627450980005, 0.8196078431372548767, 0.9333333333333333481 ) ;
#344 = PLANE ( 'NONE',  #325 ) ;
#345 =( CONVERSION_BASED_UNIT ( 'INCH', #286 ) LENGTH_UNIT ( ) NAMED_UNIT ( #347 ) );
#346 = DIRECTION ( 'NONE',  ( -1.000000000000000000, 0.000000000000000000, 0.000000000000000000 ) ) ;
#347 = DIMENSIONAL_EXPONENTS ( 1.000000000000000000, 0.000000000000000000, 0.000000000000000000, 0.000000000000000000, 0.000000000000000000, 0.000000000000000000, 0.000000000000000000 ) ;
#348 = ORIENTED_EDGE ( 'NONE', *, *, #157, .F. ) ;
#349 = EDGE_CURVE ( 'NONE', #152, #213, #351, .T. ) ;
#350 = ORIENTED_EDGE ( 'NONE', *, *, #157, .T. ) ;
#351 = CIRCLE ( 'NONE', #10, 0.07810000000000000275 ) ;
#352 = ORIENTED_EDGE ( 'NONE', *, *, #354, .F. ) ;
#353 = DIRECTION ( 'NONE',  ( -0.000000000000000000, -1.000000000000000000, -0.000000000000000000 ) ) ;
#354 = EDGE_CURVE ( 'NONE', #262, #213, #306, .T. ) ;
#355 = ORIENTED_EDGE ( 'NONE', *, *, #35, .F. ) ;
#356 = COLOUR_RGB ( '',1.000000000000000000, 0.000000000000000000, 0.000000000000000000 ) ;
#357 = DIRECTION ( 'NONE',  ( -3.160378836509298460E-17, 1.000000000000000000, -0.000000000000000000 ) ) ;
#358 = APPLICATION_PROTOCOL_DEFINITION ( 'draft international standard', 'automotive_design', 1998, #89 ) ;
#359 =( LENGTH_UNIT ( ) NAMED_UNIT ( * ) SI_UNIT ( $, .METRE. ) );
ENDSEC;
END-ISO-10303-21;
