ISO-10303-21;
HEADER;
FILE_DESCRIPTION (( 'STEP AP214' ),
    '1' );
FILE_NAME ('59702.STEP',
    '2023-07-24T15:53:48',
    ( '' ),
    ( '' ),
    'SwSTEP 2.0',
    'SolidWorks 2023',
    '' );
FILE_SCHEMA (( 'AUTOMOTIVE_DESIGN' ));
ENDSEC;

DATA;
#1 = ORIENTED_EDGE ( 'NONE', *, *, #92, .F. ) ;
#2 = SURFACE_STYLE_USAGE ( .BOTH. , #42 ) ;
#3 = SURFACE_STYLE_FILL_AREA ( #249 ) ;
#4 = PRESENTATION_LAYER_ASSIGNMENT (  '', '', ( #24 ) ) ;
#5 = AXIS2_PLACEMENT_3D ( 'NONE', #127, #283, #171 ) ;
#6 = UNCERTAINTY_MEASURE_WITH_UNIT (LENGTH_MEASURE( 1.000000000000000082E-05 ), #126, 'distance_accuracy_value', 'NONE');
#7 = MECHANICAL_DESIGN_GEOMETRIC_PRESENTATION_REPRESENTATION (  '', ( #218 ), #151 ) ;
#8 = EDGE_CURVE ( 'NONE', #35, #86, #122, .T. ) ;
#9 = FILL_AREA_STYLE ('',( #191 ) ) ;
#10 = DIRECTION ( 'NONE',  ( 3.061616997868382402E-17, 1.000000000000000000, -0.000000000000000000 ) ) ;
#11 = CARTESIAN_POINT ( 'NONE',  ( 0.000000000000000000, 15.00000000000000000, 0.000000000000000000 ) ) ;
#12 = CIRCLE ( 'NONE', #84, 5.000000000000000000 ) ;
#13 = ORIENTED_EDGE ( 'NONE', *, *, #163, .T. ) ;
#14 = ORIENTED_EDGE ( 'NONE', *, *, #105, .T. ) ;
#15 = CARTESIAN_POINT ( 'NONE',  ( 0.000000000000000000, 0.000000000000000000, -5.000000000000000000 ) ) ;
#16 = EDGE_LOOP ( 'NONE', ( #238, #135, #276, #40 ) ) ;
#17 =( NAMED_UNIT ( * ) PLANE_ANGLE_UNIT ( ) SI_UNIT ( $, .RADIAN. ) );
#18 = EDGE_LOOP ( 'NONE', ( #83, #220 ) ) ;
#19 = CARTESIAN_POINT ( 'NONE',  ( 2.343374660409151486E-33, 15.00000000000000000, 0.000000000000000000 ) ) ;
#20 = FILL_AREA_STYLE_COLOUR ( '', #113 ) ;
#21 = DIRECTION ( 'NONE',  ( 3.061616997868382402E-17, 1.000000000000000000, -0.000000000000000000 ) ) ;
#22 = DIRECTION ( 'NONE',  ( 0.000000000000000000, 0.000000000000000000, 1.000000000000000000 ) ) ;
#23 = ADVANCED_FACE ( 'NONE', ( #125 ), #147, .F. ) ;
#24 = STYLED_ITEM ( 'NONE', ( #88 ), #124 ) ;
#25 = SHAPE_DEFINITION_REPRESENTATION ( #281, #146 ) ;
#26 = UNCERTAINTY_MEASURE_WITH_UNIT (LENGTH_MEASURE( 1.000000000000000082E-05 ), #30, 'distance_accuracy_value', 'NONE');
#27 =( NAMED_UNIT ( * ) PLANE_ANGLE_UNIT ( ) SI_UNIT ( $, .RADIAN. ) );
#28 = SURFACE_SIDE_STYLE ('',( #73 ) ) ;
#29 = CARTESIAN_POINT ( 'NONE',  ( 5.000000000000000888, 63.00000000000000000, 6.123233995736765296E-16 ) ) ;
#30 =( LENGTH_UNIT ( ) NAMED_UNIT ( * ) SI_UNIT ( .MILLI., .METRE. ) );
#31 = DIRECTION ( 'NONE',  ( -0.000000000000000000, -1.000000000000000000, -0.000000000000000000 ) ) ;
#32 = FILL_AREA_STYLE_COLOUR ( '', #51 ) ;
#33 = COLOUR_RGB ( '',1.000000000000000000, 0.000000000000000000, 0.000000000000000000 ) ;
#34 = PLANE ( 'NONE',  #134 ) ;
#35 = VERTEX_POINT ( 'NONE', #108 ) ;
#36 = CYLINDRICAL_SURFACE ( 'NONE', #120, 5.000000000000000000 ) ;
#37 = APPLICATION_CONTEXT ( 'automotive_design' ) ;
#38 = CARTESIAN_POINT ( 'NONE',  ( 5.000000000000000000, 63.00000000000000000, 6.123233995736766282E-16 ) ) ;
#39 =( NAMED_UNIT ( * ) SI_UNIT ( $, .STERADIAN. ) SOLID_ANGLE_UNIT ( ) );
#40 = ORIENTED_EDGE ( 'NONE', *, *, #163, .F. ) ;
#41 = DIRECTION ( 'NONE',  ( -0.000000000000000000, -1.000000000000000000, -0.000000000000000000 ) ) ;
#42 = SURFACE_SIDE_STYLE ('',( #3 ) ) ;
#43 = VERTEX_POINT ( 'NONE', #38 ) ;
#44 = SURFACE_STYLE_FILL_AREA ( #176 ) ;
#45 = CYLINDRICAL_SURFACE ( 'NONE', #258, 5.000000000000000000 ) ;
#46 =( GEOMETRIC_REPRESENTATION_CONTEXT ( 3 ) GLOBAL_UNCERTAINTY_ASSIGNED_CONTEXT ( ( #232 ) ) GLOBAL_UNIT_ASSIGNED_CONTEXT ( ( #75, #279, #78 ) ) REPRESENTATION_CONTEXT ( 'NONE', 'WORKASPACE' ) );
#47 = DIRECTION ( 'NONE',  ( -1.000000000000000000, 0.000000000000000000, 0.000000000000000000 ) ) ;
#48 = PRODUCT_RELATED_PRODUCT_CATEGORY ( 'part', '', ( #251 ) ) ;
#49 = DIRECTION ( 'NONE',  ( -0.000000000000000000, -1.000000000000000000, -0.000000000000000000 ) ) ;
#50 = AXIS2_PLACEMENT_3D ( 'NONE', #11, #188, #58 ) ;
#51 = COLOUR_RGB ( '',1.000000000000000000, 0.000000000000000000, 0.000000000000000000 ) ;
#52 = EDGE_CURVE ( 'NONE', #161, #174, #268, .T. ) ;
#53 = CARTESIAN_POINT ( 'NONE',  ( 1.469576158976823750E-15, 63.00000000000000000, 0.000000000000000000 ) ) ;
#54 = AXIS2_PLACEMENT_3D ( 'NONE', #187, #85, #197 ) ;
#55 = DIRECTION ( 'NONE',  ( -0.000000000000000000, -1.000000000000000000, -0.000000000000000000 ) ) ;
#56 = ORIENTED_EDGE ( 'NONE', *, *, #118, .F. ) ;
#57 = FACE_OUTER_BOUND ( 'NONE', #205, .T. ) ;
#58 = DIRECTION ( 'NONE',  ( 0.000000000000000000, -0.000000000000000000, 1.000000000000000000 ) ) ;
#59 = EDGE_CURVE ( 'NONE', #175, #35, #253, .T. ) ;
#60 = AXIS2_PLACEMENT_3D ( 'NONE', #158, #49, #287 ) ;
#61 = STYLED_ITEM ( 'NONE', ( #285 ), #247 ) ;
#62 =( LENGTH_UNIT ( ) NAMED_UNIT ( * ) SI_UNIT ( .MILLI., .METRE. ) );
#63 = CARTESIAN_POINT ( 'NONE',  ( -4.999999999999997335, 63.00000000000000000, 0.000000000000000000 ) ) ;
#64 = FACE_OUTER_BOUND ( 'NONE', #87, .T. ) ;
#65 = AXIS2_PLACEMENT_3D ( 'NONE', #53, #233, #139 ) ;
#66 = CARTESIAN_POINT ( 'NONE',  ( 5.000000000000000000, 63.00000000000000000, 0.000000000000000000 ) ) ;
#67 = APPLICATION_PROTOCOL_DEFINITION ( 'draft international standard', 'automotive_design', 1998, #37 ) ;
#68 = CARTESIAN_POINT ( 'NONE',  ( 1.469576158976823750E-15, 63.00000000000000000, 0.000000000000000000 ) ) ;
#69 = CARTESIAN_POINT ( 'NONE',  ( 1.469576158976823750E-15, 63.00000000000000000, 0.000000000000000000 ) ) ;
#70 = EDGE_CURVE ( 'NONE', #35, #175, #12, .T. ) ;
#71 = PRODUCT_DEFINITION_CONTEXT ( 'detailed design', #37, 'design' ) ;
#72 =( NAMED_UNIT ( * ) SI_UNIT ( $, .STERADIAN. ) SOLID_ANGLE_UNIT ( ) );
#73 = SURFACE_STYLE_FILL_AREA ( #116 ) ;
#74 = EDGE_LOOP ( 'NONE', ( #104, #142, #1, #215 ) ) ;
#75 =( LENGTH_UNIT ( ) NAMED_UNIT ( * ) SI_UNIT ( .MILLI., .METRE. ) );
#76 = CARTESIAN_POINT ( 'NONE',  ( 6.123233995736766282E-16, 0.000000000000000000, 5.000000000000000000 ) ) ;
#77 =( GEOMETRIC_REPRESENTATION_CONTEXT ( 3 ) GLOBAL_UNCERTAINTY_ASSIGNED_CONTEXT ( ( #184 ) ) GLOBAL_UNIT_ASSIGNED_CONTEXT ( ( #62, #17, #109 ) ) REPRESENTATION_CONTEXT ( 'NONE', 'WORKASPACE' ) );
#78 =( NAMED_UNIT ( * ) SI_UNIT ( $, .STERADIAN. ) SOLID_ANGLE_UNIT ( ) );
#79 = CARTESIAN_POINT ( 'NONE',  ( 6.123233995736766282E-16, 0.000000000000000000, 5.000000000000000000 ) ) ;
#80 = EDGE_CURVE ( 'NONE', #264, #161, #167, .T. ) ;
#81 = CARTESIAN_POINT ( 'NONE',  ( 0.000000000000000000, 0.000000000000000000, 0.000000000000000000 ) ) ;
#82 =( NAMED_UNIT ( * ) SI_UNIT ( $, .STERADIAN. ) SOLID_ANGLE_UNIT ( ) );
#83 = ORIENTED_EDGE ( 'NONE', *, *, #92, .T. ) ;
#84 = AXIS2_PLACEMENT_3D ( 'NONE', #155, #149, #93 ) ;
#85 = DIRECTION ( 'NONE',  ( -0.000000000000000000, -1.000000000000000000, -0.000000000000000000 ) ) ;
#86 = VERTEX_POINT ( 'NONE', #221 ) ;
#87 = EDGE_LOOP ( 'NONE', ( #234, #14, #13, #213 ) ) ;
#88 = PRESENTATION_STYLE_ASSIGNMENT (( #2 ) ) ;
#89 = AXIS2_PLACEMENT_3D ( 'NONE', #19, #239, #219 ) ;
#90 =( NAMED_UNIT ( * ) PLANE_ANGLE_UNIT ( ) SI_UNIT ( $, .RADIAN. ) );
#91 = FACE_OUTER_BOUND ( 'NONE', #74, .T. ) ;
#92 = EDGE_CURVE ( 'NONE', #86, #43, #236, .T. ) ;
#93 = DIRECTION ( 'NONE',  ( -1.000000000000000000, 0.000000000000000000, 0.000000000000000000 ) ) ;
#94 = DIRECTION ( 'NONE',  ( 1.000000000000000000, 0.000000000000000000, 0.000000000000000000 ) ) ;
#95 = UNCERTAINTY_MEASURE_WITH_UNIT (LENGTH_MEASURE( 1.000000000000000082E-05 ), #132, 'distance_accuracy_value', 'NONE');
#96 = PRODUCT_DEFINITION_FORMATION_WITH_SPECIFIED_SOURCE ( 'ANY', '', #251, .NOT_KNOWN. ) ;
#97 = PRODUCT_DEFINITION ( 'UNKNOWN', '', #96, #71 ) ;
#98 = CARTESIAN_POINT ( 'NONE',  ( 5.000000000000000000, 15.00000000000000000, 6.123233995736766282E-16 ) ) ;
#99 = CARTESIAN_POINT ( 'NONE',  ( 6.123233995736766282E-16, 15.00000000000000000, 5.000000000000000000 ) ) ;
#100 = STYLED_ITEM ( 'NONE', ( #185 ), #154 ) ;
#101 = CIRCLE ( 'NONE', #150, 4.999999999999998224 ) ;
#102 = LINE ( 'NONE', #29, #211 ) ;
#103 = PRESENTATION_STYLE_ASSIGNMENT (( #235 ) ) ;
#104 = ORIENTED_EDGE ( 'NONE', *, *, #70, .T. ) ;
#105 = EDGE_CURVE ( 'NONE', #161, #264, #280, .T. ) ;
#106 = COLOUR_RGB ( '',1.000000000000000000, 0.000000000000000000, 0.000000000000000000 ) ;
#107 = FILL_AREA_STYLE_COLOUR ( '', #179 ) ;
#108 = CARTESIAN_POINT ( 'NONE',  ( -5.000000000000000000, 15.00000000000000000, 0.000000000000000000 ) ) ;
#109 =( NAMED_UNIT ( * ) SI_UNIT ( $, .STERADIAN. ) SOLID_ANGLE_UNIT ( ) );
#110 = EDGE_LOOP ( 'NONE', ( #170, #273, #177, #56 ) ) ;
#111 = DIRECTION ( 'NONE',  ( -1.000000000000000000, 0.000000000000000000, 0.000000000000000000 ) ) ;
#112 = FACE_OUTER_BOUND ( 'NONE', #18, .T. ) ;
#113 = COLOUR_RGB ( '',0.7921568627450980005, 0.8196078431372548767, 0.9333333333333333481 ) ;
#114 =( NAMED_UNIT ( * ) PLANE_ANGLE_UNIT ( ) SI_UNIT ( $, .RADIAN. ) );
#115 = APPLICATION_PROTOCOL_DEFINITION ( 'draft international standard', 'automotive_design', 1998, #259 ) ;
#116 = FILL_AREA_STYLE ('',( #159 ) ) ;
#117 = UNCERTAINTY_MEASURE_WITH_UNIT (LENGTH_MEASURE( 1.000000000000000082E-05 ), #153, 'distance_accuracy_value', 'NONE');
#118 = EDGE_CURVE ( 'NONE', #43, #86, #101, .T. ) ;
#119 =( NAMED_UNIT ( * ) PLANE_ANGLE_UNIT ( ) SI_UNIT ( $, .RADIAN. ) );
#120 = AXIS2_PLACEMENT_3D ( 'NONE', #165, #55, #216 ) ;
#121 = SURFACE_SIDE_STYLE ('',( #140 ) ) ;
#122 = LINE ( 'NONE', #63, #231 ) ;
#123 = FILL_AREA_STYLE ('',( #266 ) ) ;
#124 = MANIFOLD_SOLID_BREP ( 'Revolve - Tool Body (Straight Shanked)', #206 ) ;
#125 = FACE_OUTER_BOUND ( 'NONE', #277, .T. ) ;
#126 =( LENGTH_UNIT ( ) NAMED_UNIT ( * ) SI_UNIT ( .MILLI., .METRE. ) );
#127 = CARTESIAN_POINT ( 'NONE',  ( 0.000000000000000000, 0.000000000000000000, 0.000000000000000000 ) ) ;
#128 = ORIENTED_EDGE ( 'NONE', *, *, #80, .F. ) ;
#129 = SURFACE_STYLE_USAGE ( .BOTH. , #244 ) ;
#130 = DIRECTION ( 'NONE',  ( 1.000000000000000000, -3.061616997868382402E-17, 0.000000000000000000 ) ) ;
#131 = CYLINDRICAL_SURFACE ( 'NONE', #65, 4.999999999999999112 ) ;
#132 =( LENGTH_UNIT ( ) NAMED_UNIT ( * ) SI_UNIT ( .MILLI., .METRE. ) );
#133 =( LENGTH_UNIT ( ) NAMED_UNIT ( * ) SI_UNIT ( .MILLI., .METRE. ) );
#134 = AXIS2_PLACEMENT_3D ( 'NONE', #81, #168, #255 ) ;
#135 = ORIENTED_EDGE ( 'NONE', *, *, #52, .T. ) ;
#136 = ADVANCED_FACE ( 'NONE', ( #91 ), #274, .T. ) ;
#137 = ORIENTED_EDGE ( 'NONE', *, *, #105, .F. ) ;
#138 = SURFACE_STYLE_FILL_AREA ( #278 ) ;
#139 = DIRECTION ( 'NONE',  ( -1.000000000000000000, 0.000000000000000000, 0.000000000000000000 ) ) ;
#140 = SURFACE_STYLE_FILL_AREA ( #9 ) ;
#141 = CARTESIAN_POINT ( 'NONE',  ( 0.000000000000000000, 15.00000000000000000, 0.000000000000000000 ) ) ;
#142 = ORIENTED_EDGE ( 'NONE', *, *, #166, .T. ) ;
#143 = CARTESIAN_POINT ( 'NONE',  ( 0.000000000000000000, 0.000000000000000000, -5.000000000000000000 ) ) ;
#144 = AXIS2_PLACEMENT_3D ( 'NONE', #66, #173, #130 ) ;
#145 = ADVANCED_FACE ( 'NONE', ( #202 ), #131, .T. ) ;
#146 = ADVANCED_BREP_SHAPE_REPRESENTATION ( '59702', ( #227, #124, #182 ), #77 ) ;
#147 = PLANE ( 'NONE',  #89 ) ;
#148 =( NAMED_UNIT ( * ) SI_UNIT ( $, .STERADIAN. ) SOLID_ANGLE_UNIT ( ) );
#149 = DIRECTION ( 'NONE',  ( 3.061616997868382402E-17, 1.000000000000000000, -0.000000000000000000 ) ) ;
#150 = AXIS2_PLACEMENT_3D ( 'NONE', #181, #199, #271 ) ;
#151 =( GEOMETRIC_REPRESENTATION_CONTEXT ( 3 ) GLOBAL_UNCERTAINTY_ASSIGNED_CONTEXT ( ( #117 ) ) GLOBAL_UNIT_ASSIGNED_CONTEXT ( ( #153, #196, #39 ) ) REPRESENTATION_CONTEXT ( 'NONE', 'WORKASPACE' ) );
#152 = PLANE ( 'NONE',  #144 ) ;
#153 =( LENGTH_UNIT ( ) NAMED_UNIT ( * ) SI_UNIT ( .MILLI., .METRE. ) );
#154 = ADVANCED_FACE ( 'NONE', ( #160 ), #230, .T. ) ;
#155 = CARTESIAN_POINT ( 'NONE',  ( 0.000000000000000000, 15.00000000000000000, 0.000000000000000000 ) ) ;
#156 = VECTOR ( 'NONE', #31, 1000.000000000000000 ) ;
#157 = MECHANICAL_DESIGN_GEOMETRIC_PRESENTATION_REPRESENTATION (  '', ( #61 ), #169 ) ;
#158 = CARTESIAN_POINT ( 'NONE',  ( 0.000000000000000000, 15.00000000000000000, 0.000000000000000000 ) ) ;
#159 = FILL_AREA_STYLE_COLOUR ( '', #106 ) ;
#160 = FACE_OUTER_BOUND ( 'NONE', #282, .T. ) ;
#161 = VERTEX_POINT ( 'NONE', #99 ) ;
#162 = VECTOR ( 'NONE', #210, 1000.000000000000000 ) ;
#163 = EDGE_CURVE ( 'NONE', #264, #198, #214, .T. ) ;
#164 = SURFACE_STYLE_USAGE ( .BOTH. , #28 ) ;
#165 = CARTESIAN_POINT ( 'NONE',  ( 0.000000000000000000, 0.000000000000000000, 0.000000000000000000 ) ) ;
#166 = EDGE_CURVE ( 'NONE', #175, #43, #102, .T. ) ;
#167 = CIRCLE ( 'NONE', #275, 5.000000000000000000 ) ;
#168 = DIRECTION ( 'NONE',  ( 0.000000000000000000, -1.000000000000000000, -0.000000000000000000 ) ) ;
#169 =( GEOMETRIC_REPRESENTATION_CONTEXT ( 3 ) GLOBAL_UNCERTAINTY_ASSIGNED_CONTEXT ( ( #6 ) ) GLOBAL_UNIT_ASSIGNED_CONTEXT ( ( #126, #90, #148 ) ) REPRESENTATION_CONTEXT ( 'NONE', 'WORKASPACE' ) );
#170 = ORIENTED_EDGE ( 'NONE', *, *, #166, .F. ) ;
#171 = DIRECTION ( 'NONE',  ( 0.000000000000000000, 0.000000000000000000, -1.000000000000000000 ) ) ;
#172 = ORIENTED_EDGE ( 'NONE', *, *, #70, .F. ) ;
#173 = DIRECTION ( 'NONE',  ( -3.061616997868382402E-17, -1.000000000000000000, 0.000000000000000000 ) ) ;
#174 = VERTEX_POINT ( 'NONE', #76 ) ;
#175 = VERTEX_POINT ( 'NONE', #98 ) ;
#176 = FILL_AREA_STYLE ('',( #107 ) ) ;
#177 = ORIENTED_EDGE ( 'NONE', *, *, #8, .T. ) ;
#178 =( GEOMETRIC_REPRESENTATION_CONTEXT ( 3 ) GLOBAL_UNCERTAINTY_ASSIGNED_CONTEXT ( ( #252 ) ) GLOBAL_UNIT_ASSIGNED_CONTEXT ( ( #133, #27, #72 ) ) REPRESENTATION_CONTEXT ( 'NONE', 'WORKASPACE' ) );
#179 = COLOUR_RGB ( '',0.7921568627450980005, 0.8196078431372548767, 0.9333333333333333481 ) ;
#180 = SURFACE_STYLE_FILL_AREA ( #123 ) ;
#181 = CARTESIAN_POINT ( 'NONE',  ( 1.469576158976823750E-15, 63.00000000000000000, 0.000000000000000000 ) ) ;
#182 = AXIS2_PLACEMENT_3D ( 'NONE', #200, #22, #94 ) ;
#183 = ADVANCED_FACE ( 'NONE', ( #57 ), #34, .T. ) ;
#184 = UNCERTAINTY_MEASURE_WITH_UNIT (LENGTH_MEASURE( 1.000000000000000082E-05 ), #62, 'distance_accuracy_value', 'NONE');
#185 = PRESENTATION_STYLE_ASSIGNMENT (( #164 ) ) ;
#186 = STYLED_ITEM ( 'NONE', ( #103 ), #183 ) ;
#187 = CARTESIAN_POINT ( 'NONE',  ( 0.000000000000000000, 0.000000000000000000, 0.000000000000000000 ) ) ;
#188 = DIRECTION ( 'NONE',  ( 0.000000000000000000, 1.000000000000000000, 0.000000000000000000 ) ) ;
#189 =( GEOMETRIC_REPRESENTATION_CONTEXT ( 3 ) GLOBAL_UNCERTAINTY_ASSIGNED_CONTEXT ( ( #95 ) ) GLOBAL_UNIT_ASSIGNED_CONTEXT ( ( #132, #114, #226 ) ) REPRESENTATION_CONTEXT ( 'NONE', 'WORKASPACE' ) );
#190 = CIRCLE ( 'NONE', #5, 5.000000000000000000 ) ;
#191 = FILL_AREA_STYLE_COLOUR ( '', #33 ) ;
#192 = PRESENTATION_STYLE_ASSIGNMENT (( #269 ) ) ;
#193 = ADVANCED_FACE ( 'NONE', ( #257 ), #36, .T. ) ;
#194 = PRESENTATION_LAYER_ASSIGNMENT (  '', '', ( #248 ) ) ;
#195 = PRESENTATION_LAYER_ASSIGNMENT (  '', '', ( #218 ) ) ;
#196 =( NAMED_UNIT ( * ) PLANE_ANGLE_UNIT ( ) SI_UNIT ( $, .RADIAN. ) );
#197 = DIRECTION ( 'NONE',  ( 0.000000000000000000, 0.000000000000000000, -1.000000000000000000 ) ) ;
#198 = VERTEX_POINT ( 'NONE', #15 ) ;
#199 = DIRECTION ( 'NONE',  ( 3.061616997868382402E-17, 1.000000000000000000, -0.000000000000000000 ) ) ;
#200 = CARTESIAN_POINT ( 'NONE',  ( 0.000000000000000000, 0.000000000000000000, 0.000000000000000000 ) ) ;
#201 = EDGE_CURVE ( 'NONE', #198, #174, #284, .T. ) ;
#202 = FACE_OUTER_BOUND ( 'NONE', #110, .T. ) ;
#203 = DIRECTION ( 'NONE',  ( -1.000000000000000000, 0.000000000000000000, 0.000000000000000000 ) ) ;
#204 = MECHANICAL_DESIGN_GEOMETRIC_PRESENTATION_REPRESENTATION (  '', ( #24 ), #189 ) ;
#205 = EDGE_LOOP ( 'NONE', ( #267, #286 ) ) ;
#206 = CLOSED_SHELL ( 'NONE', ( #136, #23, #145, #229 ) ) ;
#207 = AXIS2_PLACEMENT_3D ( 'NONE', #141, #10, #203 ) ;
#208 = COLOUR_RGB ( '',1.000000000000000000, 0.000000000000000000, 0.000000000000000000 ) ;
#209 = SURFACE_STYLE_USAGE ( .BOTH. , #262 ) ;
#210 = DIRECTION ( 'NONE',  ( -0.000000000000000000, -1.000000000000000000, -0.000000000000000000 ) ) ;
#211 = VECTOR ( 'NONE', #260, 1000.000000000000000 ) ;
#212 = MECHANICAL_DESIGN_GEOMETRIC_PRESENTATION_REPRESENTATION (  '', ( #248 ), #243 ) ;
#213 = ORIENTED_EDGE ( 'NONE', *, *, #237, .F. ) ;
#214 = LINE ( 'NONE', #143, #162 ) ;
#215 = ORIENTED_EDGE ( 'NONE', *, *, #8, .F. ) ;
#216 = DIRECTION ( 'NONE',  ( 0.000000000000000000, 0.000000000000000000, -1.000000000000000000 ) ) ;
#217 = DIRECTION ( 'NONE',  ( 3.061616997868382402E-17, 1.000000000000000000, -0.000000000000000000 ) ) ;
#218 = STYLED_ITEM ( 'NONE', ( #192 ), #227 ) ;
#219 = DIRECTION ( 'NONE',  ( -1.000000000000000000, 3.061616997868382402E-17, 0.000000000000000000 ) ) ;
#220 = ORIENTED_EDGE ( 'NONE', *, *, #118, .T. ) ;
#221 = CARTESIAN_POINT ( 'NONE',  ( -4.999999999999996447, 63.00000000000000000, 0.000000000000000000 ) ) ;
#222 = CARTESIAN_POINT ( 'NONE',  ( 0.000000000000000000, 15.00000000000000000, 0.000000000000000000 ) ) ;
#223 = PRESENTATION_LAYER_ASSIGNMENT (  '', '', ( #186 ) ) ;
#224 = PRESENTATION_LAYER_ASSIGNMENT (  '', '', ( #61 ) ) ;
#225 = CLOSED_SHELL ( 'NONE', ( #193, #154, #247, #183 ) ) ;
#226 =( NAMED_UNIT ( * ) SI_UNIT ( $, .STERADIAN. ) SOLID_ANGLE_UNIT ( ) );
#227 = MANIFOLD_SOLID_BREP ( 'Revolve - Cutting Edge', #225 ) ;
#228 = DIRECTION ( 'NONE',  ( -0.000000000000000000, -1.000000000000000000, -0.000000000000000000 ) ) ;
#229 = ADVANCED_FACE ( 'NONE', ( #112 ), #152, .F. ) ;
#230 = PLANE ( 'NONE',  #50 ) ;
#231 = VECTOR ( 'NONE', #217, 1000.000000000000000 ) ;
#232 = UNCERTAINTY_MEASURE_WITH_UNIT (LENGTH_MEASURE( 1.000000000000000082E-05 ), #75, 'distance_accuracy_value', 'NONE');
#233 = DIRECTION ( 'NONE',  ( 3.061616997868382402E-17, 1.000000000000000000, -0.000000000000000000 ) ) ;
#234 = ORIENTED_EDGE ( 'NONE', *, *, #52, .F. ) ;
#235 = SURFACE_STYLE_USAGE ( .BOTH. , #121 ) ;
#236 = CIRCLE ( 'NONE', #256, 4.999999999999998224 ) ;
#237 = EDGE_CURVE ( 'NONE', #174, #198, #190, .T. ) ;
#238 = ORIENTED_EDGE ( 'NONE', *, *, #80, .T. ) ;
#239 = DIRECTION ( 'NONE',  ( 3.061616997868382402E-17, 1.000000000000000000, -0.000000000000000000 ) ) ;
#240 = CARTESIAN_POINT ( 'NONE',  ( 0.000000000000000000, 0.000000000000000000, 0.000000000000000000 ) ) ;
#241 = AXIS2_PLACEMENT_3D ( 'NONE', #68, #246, #47 ) ;
#242 = DIRECTION ( 'NONE',  ( 0.000000000000000000, 0.000000000000000000, -1.000000000000000000 ) ) ;
#243 =( GEOMETRIC_REPRESENTATION_CONTEXT ( 3 ) GLOBAL_UNCERTAINTY_ASSIGNED_CONTEXT ( ( #26 ) ) GLOBAL_UNIT_ASSIGNED_CONTEXT ( ( #30, #119, #82 ) ) REPRESENTATION_CONTEXT ( 'NONE', 'WORKASPACE' ) );
#244 = SURFACE_SIDE_STYLE ('',( #180 ) ) ;
#245 = CARTESIAN_POINT ( 'NONE',  ( 0.000000000000000000, 15.00000000000000000, -5.000000000000000000 ) ) ;
#246 = DIRECTION ( 'NONE',  ( 3.061616997868382402E-17, 1.000000000000000000, -0.000000000000000000 ) ) ;
#247 = ADVANCED_FACE ( 'NONE', ( #64 ), #45, .T. ) ;
#248 = STYLED_ITEM ( 'NONE', ( #261 ), #193 ) ;
#249 = FILL_AREA_STYLE ('',( #20 ) ) ;
#250 = PRODUCT_CONTEXT ( 'NONE', #259, 'mechanical' ) ;
#251 = PRODUCT ( '59702', '59702', '', ( #250 ) ) ;
#252 = UNCERTAINTY_MEASURE_WITH_UNIT (LENGTH_MEASURE( 1.000000000000000082E-05 ), #133, 'distance_accuracy_value', 'NONE');
#253 = CIRCLE ( 'NONE', #207, 5.000000000000000000 ) ;
#254 = ORIENTED_EDGE ( 'NONE', *, *, #59, .F. ) ;
#255 = DIRECTION ( 'NONE',  ( 0.000000000000000000, 0.000000000000000000, -1.000000000000000000 ) ) ;
#256 = AXIS2_PLACEMENT_3D ( 'NONE', #69, #21, #111 ) ;
#257 = FACE_OUTER_BOUND ( 'NONE', #16, .T. ) ;
#258 = AXIS2_PLACEMENT_3D ( 'NONE', #240, #41, #265 ) ;
#259 = APPLICATION_CONTEXT ( 'automotive_design' ) ;
#260 = DIRECTION ( 'NONE',  ( 3.061616997868382402E-17, 1.000000000000000000, -0.000000000000000000 ) ) ;
#261 = PRESENTATION_STYLE_ASSIGNMENT (( #209 ) ) ;
#262 = SURFACE_SIDE_STYLE ('',( #138 ) ) ;
#263 = MECHANICAL_DESIGN_GEOMETRIC_PRESENTATION_REPRESENTATION (  '', ( #186 ), #46 ) ;
#264 = VERTEX_POINT ( 'NONE', #245 ) ;
#265 = DIRECTION ( 'NONE',  ( 0.000000000000000000, 0.000000000000000000, -1.000000000000000000 ) ) ;
#266 = FILL_AREA_STYLE_COLOUR ( '', #208 ) ;
#267 = ORIENTED_EDGE ( 'NONE', *, *, #201, .T. ) ;
#268 = LINE ( 'NONE', #79, #156 ) ;
#269 = SURFACE_STYLE_USAGE ( .BOTH. , #288 ) ;
#270 = PRESENTATION_LAYER_ASSIGNMENT (  '', '', ( #100 ) ) ;
#271 = DIRECTION ( 'NONE',  ( -1.000000000000000000, 0.000000000000000000, 0.000000000000000000 ) ) ;
#272 = MECHANICAL_DESIGN_GEOMETRIC_PRESENTATION_REPRESENTATION (  '', ( #100 ), #178 ) ;
#273 = ORIENTED_EDGE ( 'NONE', *, *, #59, .T. ) ;
#274 = CYLINDRICAL_SURFACE ( 'NONE', #241, 4.999999999999999112 ) ;
#275 = AXIS2_PLACEMENT_3D ( 'NONE', #222, #228, #242 ) ;
#276 = ORIENTED_EDGE ( 'NONE', *, *, #201, .F. ) ;
#277 = EDGE_LOOP ( 'NONE', ( #172, #254 ) ) ;
#278 = FILL_AREA_STYLE ('',( #32 ) ) ;
#279 =( NAMED_UNIT ( * ) PLANE_ANGLE_UNIT ( ) SI_UNIT ( $, .RADIAN. ) );
#280 = CIRCLE ( 'NONE', #60, 5.000000000000000000 ) ;
#281 = PRODUCT_DEFINITION_SHAPE ( 'NONE', 'NONE',  #97 ) ;
#282 = EDGE_LOOP ( 'NONE', ( #128, #137 ) ) ;
#283 = DIRECTION ( 'NONE',  ( -0.000000000000000000, -1.000000000000000000, -0.000000000000000000 ) ) ;
#284 = CIRCLE ( 'NONE', #54, 5.000000000000000000 ) ;
#285 = PRESENTATION_STYLE_ASSIGNMENT (( #129 ) ) ;
#286 = ORIENTED_EDGE ( 'NONE', *, *, #237, .T. ) ;
#287 = DIRECTION ( 'NONE',  ( 0.000000000000000000, 0.000000000000000000, -1.000000000000000000 ) ) ;
#288 = SURFACE_SIDE_STYLE ('',( #44 ) ) ;
ENDSEC;
END-ISO-10303-21;
