ISO-10303-21;
HEADER;
FILE_DESCRIPTION (( 'STEP AP214' ),
    '1' );
FILE_NAME ('30137.STEP',
    '2023-06-22T17:59:09',
    ( '' ),
    ( '' ),
    'SwSTEP 2.0',
    'SolidWorks 2023',
    '' );
FILE_SCHEMA (( 'AUTOMOTIVE_DESIGN' ));
ENDSEC;

DATA;
#1 = DIRECTION ( 'NONE',  ( 3.768143997376471359E-17, 1.000000000000000000, -0.000000000000000000 ) ) ;
#2 = LINE ( 'NONE', #160, #268 ) ;
#3 = DIRECTION ( 'NONE',  ( -1.000000000000000000, 3.768143997376471359E-17, 0.000000000000000000 ) ) ;
#4 = LENGTH_MEASURE_WITH_UNIT ( LENGTH_MEASURE( 0.02539999999999999897 ), #264 );
#5 = SURFACE_SIDE_STYLE ('',( #48 ) ) ;
#6 = COLOUR_RGB ( '',0.7921568627450980005, 0.8196078431372548767, 0.9333333333333333481 ) ;
#7 =( NAMED_UNIT ( * ) SI_UNIT ( $, .STERADIAN. ) SOLID_ANGLE_UNIT ( ) );
#8 = EDGE_LOOP ( 'NONE', ( #157, #32, #218, #154 ) ) ;
#9 = CARTESIAN_POINT ( 'NONE',  ( 1.530808498934191509E-17, 0.000000000000000000, 0.1250000000000000000 ) ) ;
#10 = SURFACE_SIDE_STYLE ('',( #126 ) ) ;
#11 = PRODUCT_DEFINITION_CONTEXT ( 'detailed design', #230, 'design' ) ;
#12 = AXIS2_PLACEMENT_3D ( 'NONE', #80, #131, #102 ) ;
#13 = CARTESIAN_POINT ( 'NONE',  ( 6.123233995736766036E-17, 2.000000000000000000, 0.000000000000000000 ) ) ;
#14 = STYLED_ITEM ( 'NONE', ( #302 ), #200 ) ;
#15 = VERTEX_POINT ( 'NONE', #55 ) ;
#16 = VECTOR ( 'NONE', #110, 39.37007874015748143 ) ;
#17 = DIRECTION ( 'NONE',  ( 3.768143997376471359E-17, 1.000000000000000000, -0.000000000000000000 ) ) ;
#18 = DIRECTION ( 'NONE',  ( -1.000000000000000000, 0.000000000000000000, 0.000000000000000000 ) ) ;
#19 = CARTESIAN_POINT ( 'NONE',  ( 0.000000000000000000, 0.3750000000000000555, 0.000000000000000000 ) ) ;
#20 = PRESENTATION_LAYER_ASSIGNMENT (  '', '', ( #287 ) ) ;
#21 = DIRECTION ( 'NONE',  ( -0.000000000000000000, -1.000000000000000000, -0.000000000000000000 ) ) ;
#22 =( NAMED_UNIT ( * ) PLANE_ANGLE_UNIT ( ) SI_UNIT ( $, .RADIAN. ) );
#23 = DIRECTION ( 'NONE',  ( 0.000000000000000000, 0.000000000000000000, 1.000000000000000000 ) ) ;
#24 = SURFACE_SIDE_STYLE ('',( #116 ) ) ;
#25 = EDGE_CURVE ( 'NONE', #15, #141, #145, .T. ) ;
#26 = AXIS2_PLACEMENT_3D ( 'NONE', #19, #58, #210 ) ;
#27 = MECHANICAL_DESIGN_GEOMETRIC_PRESENTATION_REPRESENTATION (  '', ( #14 ), #122 ) ;
#28 = EDGE_CURVE ( 'NONE', #141, #205, #2, .T. ) ;
#29 = CARTESIAN_POINT ( 'NONE',  ( 0.000000000000000000, 0.000000000000000000, 0.000000000000000000 ) ) ;
#30 = ORIENTED_EDGE ( 'NONE', *, *, #253, .T. ) ;
#31 = FILL_AREA_STYLE ('',( #51 ) ) ;
#32 = ORIENTED_EDGE ( 'NONE', *, *, #138, .T. ) ;
#33 =( NAMED_UNIT ( * ) SI_UNIT ( $, .STERADIAN. ) SOLID_ANGLE_UNIT ( ) );
#34 = CYLINDRICAL_SURFACE ( 'NONE', #12, 0.1249999999999999861 ) ;
#35 = AXIS2_PLACEMENT_3D ( 'NONE', #29, #123, #291 ) ;
#36 = MECHANICAL_DESIGN_GEOMETRIC_PRESENTATION_REPRESENTATION (  '', ( #228 ), #199 ) ;
#37 =( NAMED_UNIT ( * ) SI_UNIT ( $, .STERADIAN. ) SOLID_ANGLE_UNIT ( ) );
#38 = DIMENSIONAL_EXPONENTS ( 1.000000000000000000, 0.000000000000000000, 0.000000000000000000, 0.000000000000000000, 0.000000000000000000, 0.000000000000000000, 0.000000000000000000 ) ;
#39 = ADVANCED_FACE ( 'NONE', ( #190 ), #34, .T. ) ;
#40 = CARTESIAN_POINT ( 'NONE',  ( 0.000000000000000000, 0.000000000000000000, -0.1250000000000000000 ) ) ;
#41 =( NAMED_UNIT ( * ) SI_UNIT ( $, .STERADIAN. ) SOLID_ANGLE_UNIT ( ) );
#42 = EDGE_LOOP ( 'NONE', ( #78, #109 ) ) ;
#43 = AXIS2_PLACEMENT_3D ( 'NONE', #219, #193, #201 ) ;
#44 = DIRECTION ( 'NONE',  ( 3.768143997376471359E-17, 1.000000000000000000, -0.000000000000000000 ) ) ;
#45 = CARTESIAN_POINT ( 'NONE',  ( 0.000000000000000000, 0.000000000000000000, 0.000000000000000000 ) ) ;
#46 = DIRECTION ( 'NONE',  ( 0.000000000000000000, 0.000000000000000000, -1.000000000000000000 ) ) ;
#47 = EDGE_CURVE ( 'NONE', #257, #75, #121, .T. ) ;
#48 = SURFACE_STYLE_FILL_AREA ( #117 ) ;
#49 = DIRECTION ( 'NONE',  ( 1.000000000000000000, -3.768143997376471359E-17, 0.000000000000000000 ) ) ;
#50 = PRESENTATION_STYLE_ASSIGNMENT (( #285 ) ) ;
#51 = FILL_AREA_STYLE_COLOUR ( '', #68 ) ;
#52 = UNCERTAINTY_MEASURE_WITH_UNIT (LENGTH_MEASURE( 1.000000000000000082E-05 ), #242, 'distance_accuracy_value', 'NONE');
#53 = DIRECTION ( 'NONE',  ( 0.000000000000000000, 0.000000000000000000, -1.000000000000000000 ) ) ;
#54 = ORIENTED_EDGE ( 'NONE', *, *, #47, .T. ) ;
#55 = CARTESIAN_POINT ( 'NONE',  ( 0.1250000000000000278, 0.3749999999999999445, 1.530808498934191817E-17 ) ) ;
#56 = ADVANCED_FACE ( 'NONE', ( #65 ), #244, .T. ) ;
#57 = ORIENTED_EDGE ( 'NONE', *, *, #138, .F. ) ;
#58 = DIRECTION ( 'NONE',  ( -0.000000000000000000, -1.000000000000000000, -0.000000000000000000 ) ) ;
#59 = AXIS2_PLACEMENT_3D ( 'NONE', #250, #165, #187 ) ;
#60 = VECTOR ( 'NONE', #234, 39.37007874015748143 ) ;
#61 = CARTESIAN_POINT ( 'NONE',  ( 0.000000000000000000, 0.000000000000000000, 0.000000000000000000 ) ) ;
#62 = PLANE ( 'NONE',  #35 ) ;
#63 = CLOSED_SHELL ( 'NONE', ( #200, #222, #247, #74 ) ) ;
#64 =( CONVERSION_BASED_UNIT ( 'INCH', #236 ) LENGTH_UNIT ( ) NAMED_UNIT ( #227 ) );
#65 = FACE_OUTER_BOUND ( 'NONE', #297, .T. ) ;
#66 = SURFACE_STYLE_FILL_AREA ( #70 ) ;
#67 = PRODUCT_DEFINITION_SHAPE ( 'NONE', 'NONE',  #278 ) ;
#68 = COLOUR_RGB ( '',0.7921568627450980005, 0.8196078431372548767, 0.9333333333333333481 ) ;
#69 = COLOUR_RGB ( '',1.000000000000000000, 0.000000000000000000, 0.000000000000000000 ) ;
#70 = FILL_AREA_STYLE ('',( #240 ) ) ;
#71 =( NAMED_UNIT ( * ) PLANE_ANGLE_UNIT ( ) SI_UNIT ( $, .RADIAN. ) );
#72 = PLANE ( 'NONE',  #43 ) ;
#73 = AXIS2_PLACEMENT_3D ( 'NONE', #99, #44, #18 ) ;
#74 = ADVANCED_FACE ( 'NONE', ( #163 ), #62, .T. ) ;
#75 = VERTEX_POINT ( 'NONE', #9 ) ;
#76 = STYLED_ITEM ( 'NONE', ( #203 ), #82 ) ;
#77 = COLOUR_RGB ( '',1.000000000000000000, 0.000000000000000000, 0.000000000000000000 ) ;
#78 = ORIENTED_EDGE ( 'NONE', *, *, #124, .F. ) ;
#79 = CYLINDRICAL_SURFACE ( 'NONE', #139, 0.1250000000000000000 ) ;
#80 = CARTESIAN_POINT ( 'NONE',  ( 6.123233995736766036E-17, 2.000000000000000000, 0.000000000000000000 ) ) ;
#81 = STYLED_ITEM ( 'NONE', ( #153 ), #74 ) ;
#82 = MANIFOLD_SOLID_BREP ( 'Revolve - Cutting Edge', #63 ) ;
#83 = DIRECTION ( 'NONE',  ( 0.000000000000000000, 0.000000000000000000, -1.000000000000000000 ) ) ;
#84 = FACE_OUTER_BOUND ( 'NONE', #42, .T. ) ;
#85 = ORIENTED_EDGE ( 'NONE', *, *, #91, .F. ) ;
#86 = FACE_OUTER_BOUND ( 'NONE', #8, .T. ) ;
#87 = AXIS2_PLACEMENT_3D ( 'NONE', #61, #300, #133 ) ;
#88 =( LENGTH_UNIT ( ) NAMED_UNIT ( * ) SI_UNIT ( $, .METRE. ) );
#89 = PRODUCT ( '30137', '30137', '', ( #301 ) ) ;
#90 = CYLINDRICAL_SURFACE ( 'NONE', #241, 0.1250000000000000000 ) ;
#91 = EDGE_CURVE ( 'NONE', #137, #271, #245, .T. ) ;
#92 = CARTESIAN_POINT ( 'NONE',  ( 0.1250000000000000278, 2.000000000000000000, 0.000000000000000000 ) ) ;
#93 = AXIS2_PLACEMENT_3D ( 'NONE', #92, #143, #49 ) ;
#94 =( NAMED_UNIT ( * ) PLANE_ANGLE_UNIT ( ) SI_UNIT ( $, .RADIAN. ) );
#95 = SURFACE_STYLE_USAGE ( .BOTH. , #10 ) ;
#96 = CLOSED_SHELL ( 'NONE', ( #39, #263, #56, #204 ) ) ;
#97 = PRESENTATION_LAYER_ASSIGNMENT (  '', '', ( #166 ) ) ;
#98 = CIRCLE ( 'NONE', #246, 0.1250000000000000000 ) ;
#99 = CARTESIAN_POINT ( 'NONE',  ( 0.000000000000000000, 0.3749999999999999445, 0.000000000000000000 ) ) ;
#100 = AXIS2_PLACEMENT_3D ( 'NONE', #13, #226, #275 ) ;
#101 = EDGE_LOOP ( 'NONE', ( #54, #30 ) ) ;
#102 = DIRECTION ( 'NONE',  ( -1.000000000000000000, 0.000000000000000000, 0.000000000000000000 ) ) ;
#103 = UNCERTAINTY_MEASURE_WITH_UNIT (LENGTH_MEASURE( 1.000000000000000082E-05 ), #64, 'distance_accuracy_value', 'NONE');
#104 =( LENGTH_UNIT ( ) NAMED_UNIT ( * ) SI_UNIT ( $, .METRE. ) );
#105 = SHAPE_DEFINITION_REPRESENTATION ( #67, #206 ) ;
#106 = SURFACE_STYLE_USAGE ( .BOTH. , #211 ) ;
#107 = CIRCLE ( 'NONE', #100, 0.1249999999999999445 ) ;
#108 = DIRECTION ( 'NONE',  ( -0.000000000000000000, -1.000000000000000000, -0.000000000000000000 ) ) ;
#109 = ORIENTED_EDGE ( 'NONE', *, *, #25, .F. ) ;
#110 = DIRECTION ( 'NONE',  ( -0.000000000000000000, -1.000000000000000000, -0.000000000000000000 ) ) ;
#111 = EDGE_CURVE ( 'NONE', #309, #205, #107, .T. ) ;
#112 =( NAMED_UNIT ( * ) PLANE_ANGLE_UNIT ( ) SI_UNIT ( $, .RADIAN. ) );
#113 = ORIENTED_EDGE ( 'NONE', *, *, #253, .F. ) ;
#114 = CARTESIAN_POINT ( 'NONE',  ( -0.1250000000000000278, 0.3749999999999999445, 0.000000000000000000 ) ) ;
#115 = DIRECTION ( 'NONE',  ( 3.768143997376471359E-17, 1.000000000000000000, -0.000000000000000000 ) ) ;
#116 = SURFACE_STYLE_FILL_AREA ( #192 ) ;
#117 = FILL_AREA_STYLE ('',( #286 ) ) ;
#118 = CIRCLE ( 'NONE', #292, 0.1249999999999999445 ) ;
#119 =( LENGTH_UNIT ( ) NAMED_UNIT ( * ) SI_UNIT ( $, .METRE. ) );
#120 = FACE_OUTER_BOUND ( 'NONE', #224, .T. ) ;
#121 = CIRCLE ( 'NONE', #87, 0.1250000000000000000 ) ;
#122 =( GEOMETRIC_REPRESENTATION_CONTEXT ( 3 ) GLOBAL_UNCERTAINTY_ASSIGNED_CONTEXT ( ( #150 ) ) GLOBAL_UNIT_ASSIGNED_CONTEXT ( ( #258, #22, #33 ) ) REPRESENTATION_CONTEXT ( 'NONE', 'WORKASPACE' ) );
#123 = DIRECTION ( 'NONE',  ( 0.000000000000000000, -1.000000000000000000, -0.000000000000000000 ) ) ;
#124 = EDGE_CURVE ( 'NONE', #141, #15, #151, .T. ) ;
#125 =( NAMED_UNIT ( * ) SI_UNIT ( $, .STERADIAN. ) SOLID_ANGLE_UNIT ( ) );
#126 = SURFACE_STYLE_FILL_AREA ( #31 ) ;
#127 = PRESENTATION_LAYER_ASSIGNMENT (  '', '', ( #81 ) ) ;
#128 = ORIENTED_EDGE ( 'NONE', *, *, #180, .F. ) ;
#129 = DIMENSIONAL_EXPONENTS ( 1.000000000000000000, 0.000000000000000000, 0.000000000000000000, 0.000000000000000000, 0.000000000000000000, 0.000000000000000000, 0.000000000000000000 ) ;
#130 = DIRECTION ( 'NONE',  ( -0.000000000000000000, -1.000000000000000000, -0.000000000000000000 ) ) ;
#131 = DIRECTION ( 'NONE',  ( 3.768143997376471359E-17, 1.000000000000000000, -0.000000000000000000 ) ) ;
#132 = FILL_AREA_STYLE_COLOUR ( '', #77 ) ;
#133 = DIRECTION ( 'NONE',  ( 0.000000000000000000, 0.000000000000000000, -1.000000000000000000 ) ) ;
#134 = FILL_AREA_STYLE ('',( #132 ) ) ;
#135 = ORIENTED_EDGE ( 'NONE', *, *, #260, .T. ) ;
#136 = PLANE ( 'NONE',  #152 ) ;
#137 = VERTEX_POINT ( 'NONE', #184 ) ;
#138 = EDGE_CURVE ( 'NONE', #137, #75, #162, .T. ) ;
#139 = AXIS2_PLACEMENT_3D ( 'NONE', #233, #182, #46 ) ;
#140 = CARTESIAN_POINT ( 'NONE',  ( 0.1250000000000000278, 2.000000000000000000, 1.530808498934191817E-17 ) ) ;
#141 = VERTEX_POINT ( 'NONE', #114 ) ;
#142 = SURFACE_STYLE_FILL_AREA ( #215 ) ;
#143 = DIRECTION ( 'NONE',  ( -3.768143997376471359E-17, -1.000000000000000000, 0.000000000000000000 ) ) ;
#144 = PRESENTATION_STYLE_ASSIGNMENT (( #239 ) ) ;
#145 = CIRCLE ( 'NONE', #265, 0.1250000000000000278 ) ;
#146 = PRESENTATION_LAYER_ASSIGNMENT (  '', '', ( #14 ) ) ;
#147 = EDGE_CURVE ( 'NONE', #271, #257, #299, .T. ) ;
#148 =( CONVERSION_BASED_UNIT ( 'INCH', #4 ) LENGTH_UNIT ( ) NAMED_UNIT ( #296 ) );
#149 = EDGE_CURVE ( 'NONE', #205, #309, #118, .T. ) ;
#150 = UNCERTAINTY_MEASURE_WITH_UNIT (LENGTH_MEASURE( 1.000000000000000082E-05 ), #258, 'distance_accuracy_value', 'NONE');
#151 = CIRCLE ( 'NONE', #73, 0.1250000000000000278 ) ;
#152 = AXIS2_PLACEMENT_3D ( 'NONE', #281, #17, #3 ) ;
#153 = PRESENTATION_STYLE_ASSIGNMENT (( #194 ) ) ;
#154 = ORIENTED_EDGE ( 'NONE', *, *, #147, .F. ) ;
#155 =( GEOMETRIC_REPRESENTATION_CONTEXT ( 3 ) GLOBAL_UNCERTAINTY_ASSIGNED_CONTEXT ( ( #179 ) ) GLOBAL_UNIT_ASSIGNED_CONTEXT ( ( #167, #112, #254 ) ) REPRESENTATION_CONTEXT ( 'NONE', 'WORKASPACE' ) );
#156 =( NAMED_UNIT ( * ) PLANE_ANGLE_UNIT ( ) SI_UNIT ( $, .RADIAN. ) );
#157 = ORIENTED_EDGE ( 'NONE', *, *, #180, .T. ) ;
#158 = UNCERTAINTY_MEASURE_WITH_UNIT (LENGTH_MEASURE( 1.000000000000000082E-05 ), #148, 'distance_accuracy_value', 'NONE');
#159 = CIRCLE ( 'NONE', #26, 0.1250000000000000278 ) ;
#160 = CARTESIAN_POINT ( 'NONE',  ( -0.1249999999999999167, 2.000000000000000000, 0.000000000000000000 ) ) ;
#161 = CARTESIAN_POINT ( 'NONE',  ( 0.000000000000000000, 0.3750000000000000555, -0.1250000000000000278 ) ) ;
#162 = LINE ( 'NONE', #255, #16 ) ;
#163 = FACE_OUTER_BOUND ( 'NONE', #101, .T. ) ;
#164 = LENGTH_MEASURE_WITH_UNIT ( LENGTH_MEASURE( 0.02539999999999999897 ), #284 );
#165 = DIRECTION ( 'NONE',  ( 3.768143997376471359E-17, 1.000000000000000000, -0.000000000000000000 ) ) ;
#166 = STYLED_ITEM ( 'NONE', ( #50 ), #247 ) ;
#167 =( CONVERSION_BASED_UNIT ( 'INCH', #183 ) LENGTH_UNIT ( ) NAMED_UNIT ( #177 ) );
#168 = FACE_OUTER_BOUND ( 'NONE', #251, .T. ) ;
#169 = CARTESIAN_POINT ( 'NONE',  ( -0.1249999999999998751, 2.000000000000000000, 0.000000000000000000 ) ) ;
#170 = PRODUCT_RELATED_PRODUCT_CATEGORY ( 'part', '', ( #89 ) ) ;
#171 = MECHANICAL_DESIGN_GEOMETRIC_PRESENTATION_REPRESENTATION (  '', ( #76 ), #249 ) ;
#172 =( GEOMETRIC_REPRESENTATION_CONTEXT ( 3 ) GLOBAL_UNCERTAINTY_ASSIGNED_CONTEXT ( ( #158 ) ) GLOBAL_UNIT_ASSIGNED_CONTEXT ( ( #148, #94, #41 ) ) REPRESENTATION_CONTEXT ( 'NONE', 'WORKASPACE' ) );
#173 = ORIENTED_EDGE ( 'NONE', *, *, #111, .F. ) ;
#174 = SURFACE_SIDE_STYLE ('',( #66 ) ) ;
#175 = CARTESIAN_POINT ( 'NONE',  ( 0.000000000000000000, 0.3750000000000000555, 0.000000000000000000 ) ) ;
#176 = ORIENTED_EDGE ( 'NONE', *, *, #91, .T. ) ;
#177 = DIMENSIONAL_EXPONENTS ( 1.000000000000000000, 0.000000000000000000, 0.000000000000000000, 0.000000000000000000, 0.000000000000000000, 0.000000000000000000, 0.000000000000000000 ) ;
#178 = MECHANICAL_DESIGN_GEOMETRIC_PRESENTATION_REPRESENTATION (  '', ( #166 ), #172 ) ;
#179 = UNCERTAINTY_MEASURE_WITH_UNIT (LENGTH_MEASURE( 1.000000000000000082E-05 ), #167, 'distance_accuracy_value', 'NONE');
#180 = EDGE_CURVE ( 'NONE', #271, #137, #159, .T. ) ;
#181 = EDGE_LOOP ( 'NONE', ( #272, #135, #213, #248 ) ) ;
#182 = DIRECTION ( 'NONE',  ( -0.000000000000000000, -1.000000000000000000, -0.000000000000000000 ) ) ;
#183 = LENGTH_MEASURE_WITH_UNIT ( LENGTH_MEASURE( 0.02539999999999999897 ), #237 );
#184 = CARTESIAN_POINT ( 'NONE',  ( 1.530808498934191817E-17, 0.3750000000000000555, 0.1250000000000000278 ) ) ;
#185 = CARTESIAN_POINT ( 'NONE',  ( 0.1250000000000000555, 2.000000000000000000, 1.530808498934191201E-17 ) ) ;
#186 = CARTESIAN_POINT ( 'NONE',  ( 6.123233995736766036E-17, 2.000000000000000000, 0.000000000000000000 ) ) ;
#187 = DIRECTION ( 'NONE',  ( -1.000000000000000000, 0.000000000000000000, 0.000000000000000000 ) ) ;
#188 = ORIENTED_EDGE ( 'NONE', *, *, #28, .T. ) ;
#189 = DIRECTION ( 'NONE',  ( -1.000000000000000000, 0.000000000000000000, 0.000000000000000000 ) ) ;
#190 = FACE_OUTER_BOUND ( 'NONE', #181, .T. ) ;
#191 = PRESENTATION_LAYER_ASSIGNMENT (  '', '', ( #228 ) ) ;
#192 = FILL_AREA_STYLE ('',( #261 ) ) ;
#193 = DIRECTION ( 'NONE',  ( 0.000000000000000000, 1.000000000000000000, 0.000000000000000000 ) ) ;
#194 = SURFACE_STYLE_USAGE ( .BOTH. , #24 ) ;
#195 = APPLICATION_CONTEXT ( 'automotive_design' ) ;
#196 = MANIFOLD_SOLID_BREP ( 'Revolve - Tool Body (Straight Shanked)', #96 ) ;
#197 = LENGTH_MEASURE_WITH_UNIT ( LENGTH_MEASURE( 0.02539999999999999897 ), #88 );
#198 = MECHANICAL_DESIGN_GEOMETRIC_PRESENTATION_REPRESENTATION (  '', ( #287 ), #279 ) ;
#199 =( GEOMETRIC_REPRESENTATION_CONTEXT ( 3 ) GLOBAL_UNCERTAINTY_ASSIGNED_CONTEXT ( ( #52 ) ) GLOBAL_UNIT_ASSIGNED_CONTEXT ( ( #242, #243, #267 ) ) REPRESENTATION_CONTEXT ( 'NONE', 'WORKASPACE' ) );
#200 = ADVANCED_FACE ( 'NONE', ( #86 ), #79, .T. ) ;
#201 = DIRECTION ( 'NONE',  ( 0.000000000000000000, -0.000000000000000000, 1.000000000000000000 ) ) ;
#202 = DIMENSIONAL_EXPONENTS ( 1.000000000000000000, 0.000000000000000000, 0.000000000000000000, 0.000000000000000000, 0.000000000000000000, 0.000000000000000000, 0.000000000000000000 ) ;
#203 = PRESENTATION_STYLE_ASSIGNMENT (( #95 ) ) ;
#204 = ADVANCED_FACE ( 'NONE', ( #168 ), #266, .F. ) ;
#205 = VERTEX_POINT ( 'NONE', #169 ) ;
#206 = ADVANCED_BREP_SHAPE_REPRESENTATION ( '30137', ( #82, #196, #212 ), #155 ) ;
#207 =( CONVERSION_BASED_UNIT ( 'INCH', #273 ) LENGTH_UNIT ( ) NAMED_UNIT ( #129 ) );
#208 = ORIENTED_EDGE ( 'NONE', *, *, #149, .T. ) ;
#209 = UNCERTAINTY_MEASURE_WITH_UNIT (LENGTH_MEASURE( 1.000000000000000082E-05 ), #207, 'distance_accuracy_value', 'NONE');
#210 = DIRECTION ( 'NONE',  ( 0.000000000000000000, 0.000000000000000000, -1.000000000000000000 ) ) ;
#211 = SURFACE_SIDE_STYLE ('',( #282 ) ) ;
#212 = AXIS2_PLACEMENT_3D ( 'NONE', #45, #23, #308 ) ;
#213 = ORIENTED_EDGE ( 'NONE', *, *, #149, .F. ) ;
#214 = EDGE_LOOP ( 'NONE', ( #57, #176, #235, #113 ) ) ;
#215 = FILL_AREA_STYLE ('',( #307 ) ) ;
#216 = DIRECTION ( 'NONE',  ( -1.000000000000000000, 0.000000000000000000, 0.000000000000000000 ) ) ;
#217 = APPLICATION_PROTOCOL_DEFINITION ( 'draft international standard', 'automotive_design', 1998, #195 ) ;
#218 = ORIENTED_EDGE ( 'NONE', *, *, #47, .F. ) ;
#219 = CARTESIAN_POINT ( 'NONE',  ( 0.000000000000000000, 0.3750000000000000555, 0.000000000000000000 ) ) ;
#220 = PRESENTATION_LAYER_ASSIGNMENT (  '', '', ( #76 ) ) ;
#221 =( CONVERSION_BASED_UNIT ( 'INCH', #288 ) LENGTH_UNIT ( ) NAMED_UNIT ( #38 ) );
#222 = ADVANCED_FACE ( 'NONE', ( #120 ), #72, .T. ) ;
#223 = COLOUR_RGB ( '',1.000000000000000000, 0.000000000000000000, 0.000000000000000000 ) ;
#224 = EDGE_LOOP ( 'NONE', ( #128, #85 ) ) ;
#225 = UNCERTAINTY_MEASURE_WITH_UNIT (LENGTH_MEASURE( 1.000000000000000082E-05 ), #221, 'distance_accuracy_value', 'NONE');
#226 = DIRECTION ( 'NONE',  ( 3.768143997376471359E-17, 1.000000000000000000, -0.000000000000000000 ) ) ;
#227 = DIMENSIONAL_EXPONENTS ( 1.000000000000000000, 0.000000000000000000, 0.000000000000000000, 0.000000000000000000, 0.000000000000000000, 0.000000000000000000, 0.000000000000000000 ) ;
#228 = STYLED_ITEM ( 'NONE', ( #144 ), #222 ) ;
#229 = PRESENTATION_STYLE_ASSIGNMENT (( #280 ) ) ;
#230 = APPLICATION_CONTEXT ( 'automotive_design' ) ;
#231 = CARTESIAN_POINT ( 'NONE',  ( 0.000000000000000000, 0.000000000000000000, 0.000000000000000000 ) ) ;
#232 = CARTESIAN_POINT ( 'NONE',  ( 0.000000000000000000, 0.000000000000000000, 0.000000000000000000 ) ) ;
#233 = CARTESIAN_POINT ( 'NONE',  ( 0.000000000000000000, 0.000000000000000000, 0.000000000000000000 ) ) ;
#234 = DIRECTION ( 'NONE',  ( 3.768143997376471359E-17, 1.000000000000000000, -0.000000000000000000 ) ) ;
#235 = ORIENTED_EDGE ( 'NONE', *, *, #147, .T. ) ;
#236 = LENGTH_MEASURE_WITH_UNIT ( LENGTH_MEASURE( 0.02539999999999999897 ), #104 );
#237 =( LENGTH_UNIT ( ) NAMED_UNIT ( * ) SI_UNIT ( $, .METRE. ) );
#238 = SURFACE_SIDE_STYLE ('',( #142 ) ) ;
#239 = SURFACE_STYLE_USAGE ( .BOTH. , #5 ) ;
#240 = FILL_AREA_STYLE_COLOUR ( '', #69 ) ;
#241 = AXIS2_PLACEMENT_3D ( 'NONE', #231, #108, #306 ) ;
#242 =( CONVERSION_BASED_UNIT ( 'INCH', #197 ) LENGTH_UNIT ( ) NAMED_UNIT ( #270 ) );
#243 =( NAMED_UNIT ( * ) PLANE_ANGLE_UNIT ( ) SI_UNIT ( $, .RADIAN. ) );
#244 = CYLINDRICAL_SURFACE ( 'NONE', #59, 0.1249999999999999861 ) ;
#245 = CIRCLE ( 'NONE', #283, 0.1250000000000000278 ) ;
#246 = AXIS2_PLACEMENT_3D ( 'NONE', #232, #21, #83 ) ;
#247 = ADVANCED_FACE ( 'NONE', ( #289 ), #90, .T. ) ;
#248 = ORIENTED_EDGE ( 'NONE', *, *, #28, .F. ) ;
#249 =( GEOMETRIC_REPRESENTATION_CONTEXT ( 3 ) GLOBAL_UNCERTAINTY_ASSIGNED_CONTEXT ( ( #209 ) ) GLOBAL_UNIT_ASSIGNED_CONTEXT ( ( #207, #156, #125 ) ) REPRESENTATION_CONTEXT ( 'NONE', 'WORKASPACE' ) );
#250 = CARTESIAN_POINT ( 'NONE',  ( 6.123233995736766036E-17, 2.000000000000000000, 0.000000000000000000 ) ) ;
#251 = EDGE_LOOP ( 'NONE', ( #208, #274 ) ) ;
#252 = VECTOR ( 'NONE', #276, 39.37007874015748143 ) ;
#253 = EDGE_CURVE ( 'NONE', #75, #257, #98, .T. ) ;
#254 =( NAMED_UNIT ( * ) SI_UNIT ( $, .STERADIAN. ) SOLID_ANGLE_UNIT ( ) );
#255 = CARTESIAN_POINT ( 'NONE',  ( 1.530808498934191509E-17, 0.000000000000000000, 0.1250000000000000000 ) ) ;
#256 = CARTESIAN_POINT ( 'NONE',  ( 0.000000000000000000, 0.000000000000000000, -0.1250000000000000000 ) ) ;
#257 = VERTEX_POINT ( 'NONE', #256 ) ;
#258 =( CONVERSION_BASED_UNIT ( 'INCH', #164 ) LENGTH_UNIT ( ) NAMED_UNIT ( #202 ) );
#259 =( NAMED_UNIT ( * ) PLANE_ANGLE_UNIT ( ) SI_UNIT ( $, .RADIAN. ) );
#260 = EDGE_CURVE ( 'NONE', #15, #309, #262, .T. ) ;
#261 = FILL_AREA_STYLE_COLOUR ( '', #223 ) ;
#262 = LINE ( 'NONE', #185, #60 ) ;
#263 = ADVANCED_FACE ( 'NONE', ( #84 ), #136, .F. ) ;
#264 =( LENGTH_UNIT ( ) NAMED_UNIT ( * ) SI_UNIT ( $, .METRE. ) );
#265 = AXIS2_PLACEMENT_3D ( 'NONE', #305, #115, #216 ) ;
#266 = PLANE ( 'NONE',  #93 ) ;
#267 =( NAMED_UNIT ( * ) SI_UNIT ( $, .STERADIAN. ) SOLID_ANGLE_UNIT ( ) );
#268 = VECTOR ( 'NONE', #277, 39.37007874015748143 ) ;
#269 = COLOUR_RGB ( '',1.000000000000000000, 0.000000000000000000, 0.000000000000000000 ) ;
#270 = DIMENSIONAL_EXPONENTS ( 1.000000000000000000, 0.000000000000000000, 0.000000000000000000, 0.000000000000000000, 0.000000000000000000, 0.000000000000000000, 0.000000000000000000 ) ;
#271 = VERTEX_POINT ( 'NONE', #161 ) ;
#272 = ORIENTED_EDGE ( 'NONE', *, *, #124, .T. ) ;
#273 = LENGTH_MEASURE_WITH_UNIT ( LENGTH_MEASURE( 0.02539999999999999897 ), #293 );
#274 = ORIENTED_EDGE ( 'NONE', *, *, #111, .T. ) ;
#275 = DIRECTION ( 'NONE',  ( -1.000000000000000000, 0.000000000000000000, 0.000000000000000000 ) ) ;
#276 = DIRECTION ( 'NONE',  ( -0.000000000000000000, -1.000000000000000000, -0.000000000000000000 ) ) ;
#277 = DIRECTION ( 'NONE',  ( 3.768143997376471359E-17, 1.000000000000000000, -0.000000000000000000 ) ) ;
#278 = PRODUCT_DEFINITION ( 'UNKNOWN', '', #294, #11 ) ;
#279 =( GEOMETRIC_REPRESENTATION_CONTEXT ( 3 ) GLOBAL_UNCERTAINTY_ASSIGNED_CONTEXT ( ( #103 ) ) GLOBAL_UNIT_ASSIGNED_CONTEXT ( ( #64, #259, #37 ) ) REPRESENTATION_CONTEXT ( 'NONE', 'WORKASPACE' ) );
#280 = SURFACE_STYLE_USAGE ( .BOTH. , #238 ) ;
#281 = CARTESIAN_POINT ( 'NONE',  ( 8.874318240602707505E-35, 0.3750000000000000555, 0.000000000000000000 ) ) ;
#282 = SURFACE_STYLE_FILL_AREA ( #134 ) ;
#283 = AXIS2_PLACEMENT_3D ( 'NONE', #175, #130, #53 ) ;
#284 =( LENGTH_UNIT ( ) NAMED_UNIT ( * ) SI_UNIT ( $, .METRE. ) );
#285 = SURFACE_STYLE_USAGE ( .BOTH. , #174 ) ;
#286 = FILL_AREA_STYLE_COLOUR ( '', #269 ) ;
#287 = STYLED_ITEM ( 'NONE', ( #229 ), #196 ) ;
#288 = LENGTH_MEASURE_WITH_UNIT ( LENGTH_MEASURE( 0.02539999999999999897 ), #119 );
#289 = FACE_OUTER_BOUND ( 'NONE', #214, .T. ) ;
#290 = ORIENTED_EDGE ( 'NONE', *, *, #260, .F. ) ;
#291 = DIRECTION ( 'NONE',  ( 0.000000000000000000, 0.000000000000000000, -1.000000000000000000 ) ) ;
#292 = AXIS2_PLACEMENT_3D ( 'NONE', #186, #1, #189 ) ;
#293 =( LENGTH_UNIT ( ) NAMED_UNIT ( * ) SI_UNIT ( $, .METRE. ) );
#294 = PRODUCT_DEFINITION_FORMATION_WITH_SPECIFIED_SOURCE ( 'ANY', '', #89, .NOT_KNOWN. ) ;
#295 = ORIENTED_EDGE ( 'NONE', *, *, #25, .T. ) ;
#296 = DIMENSIONAL_EXPONENTS ( 1.000000000000000000, 0.000000000000000000, 0.000000000000000000, 0.000000000000000000, 0.000000000000000000, 0.000000000000000000, 0.000000000000000000 ) ;
#297 = EDGE_LOOP ( 'NONE', ( #290, #295, #188, #173 ) ) ;
#298 = MECHANICAL_DESIGN_GEOMETRIC_PRESENTATION_REPRESENTATION (  '', ( #81 ), #303 ) ;
#299 = LINE ( 'NONE', #40, #252 ) ;
#300 = DIRECTION ( 'NONE',  ( -0.000000000000000000, -1.000000000000000000, -0.000000000000000000 ) ) ;
#301 = PRODUCT_CONTEXT ( 'NONE', #195, 'mechanical' ) ;
#302 = PRESENTATION_STYLE_ASSIGNMENT (( #106 ) ) ;
#303 =( GEOMETRIC_REPRESENTATION_CONTEXT ( 3 ) GLOBAL_UNCERTAINTY_ASSIGNED_CONTEXT ( ( #225 ) ) GLOBAL_UNIT_ASSIGNED_CONTEXT ( ( #221, #71, #7 ) ) REPRESENTATION_CONTEXT ( 'NONE', 'WORKASPACE' ) );
#304 = APPLICATION_PROTOCOL_DEFINITION ( 'draft international standard', 'automotive_design', 1998, #230 ) ;
#305 = CARTESIAN_POINT ( 'NONE',  ( 0.000000000000000000, 0.3749999999999999445, 0.000000000000000000 ) ) ;
#306 = DIRECTION ( 'NONE',  ( 0.000000000000000000, 0.000000000000000000, -1.000000000000000000 ) ) ;
#307 = FILL_AREA_STYLE_COLOUR ( '', #6 ) ;
#308 = DIRECTION ( 'NONE',  ( 1.000000000000000000, 0.000000000000000000, 0.000000000000000000 ) ) ;
#309 = VERTEX_POINT ( 'NONE', #140 ) ;
ENDSEC;
END-ISO-10303-21;
