ISO-10303-21;
HEADER;
FILE_DESCRIPTION (( 'STEP AP214' ),
    '1' );
FILE_NAME ('Micro_SEM-078-02.STEP',
    '2021-09-02T00:55:17',
    ( '' ),
    ( '' ),
    'SwSTEP 2.0',
    'SolidWorks 2020',
    '' );
FILE_SCHEMA (( 'AUTOMOTIVE_DESIGN' ));
ENDSEC;

DATA;
#1 = ORIENTED_EDGE ( 'NONE', *, *, #193, .F. ) ;
#2 = PRESENTATION_STYLE_ASSIGNMENT (( #77 ) ) ;
#3 = VECTOR ( 'NONE', #166, 39.37007874015748143 ) ;
#4 = STYLED_ITEM ( 'NONE', ( #37 ), #140 ) ;
#5 = ADVANCED_FACE ( 'NONE', ( #183 ), #136, .T. ) ;
#6 = DIRECTION ( 'NONE',  ( -0.0000000000000000000, -0.0000000000000000000, -1.000000000000000000 ) ) ;
#7 = LENGTH_MEASURE_WITH_UNIT ( LENGTH_MEASURE( 0.02539999999999999897 ), #236 );
#8 = EDGE_CURVE ( 'NONE', #211, #230, #35, .T. ) ;
#9 = CIRCLE ( 'NONE', #259, 0.03901095000000000257 ) ;
#10 = DIRECTION ( 'NONE',  ( 0.0000000000000000000, 0.0000000000000000000, 1.000000000000000000 ) ) ;
#11 =( LENGTH_UNIT ( ) NAMED_UNIT ( * ) SI_UNIT ( $, .METRE. ) );
#12 = VERTEX_POINT ( 'NONE', #299 ) ;
#13 = CIRCLE ( 'NONE', #216, 0.03901095000000000257 ) ;
#14 = EDGE_CURVE ( 'NONE', #266, #143, #152, .T. ) ;
#15 = ORIENTED_EDGE ( 'NONE', *, *, #182, .T. ) ;
#16 = APPLICATION_CONTEXT ( 'automotive_design' ) ;
#17 = VERTEX_POINT ( 'NONE', #72 ) ;
#18 = DIRECTION ( 'NONE',  ( 1.000000000000000000, 0.0000000000000000000, 0.0000000000000000000 ) ) ;
#19 = EDGE_LOOP ( 'NONE', ( #202, #133, #15, #153 ) ) ;
#20 = ORIENTED_EDGE ( 'NONE', *, *, #95, .T. ) ;
#21 = VECTOR ( 'NONE', #31, 39.37007874015748143 ) ;
#22 = DIRECTION ( 'NONE',  ( -0.0000000000000000000, -0.0000000000000000000, -1.000000000000000000 ) ) ;
#23 = DIRECTION ( 'NONE',  ( -1.000000000000000000, 0.0000000000000000000, 0.0000000000000000000 ) ) ;
#24 = CARTESIAN_POINT ( 'NONE',  ( 0.0000000000000000000, 0.0000000000000000000, 0.0000000000000000000 ) ) ;
#25 = AXIS2_PLACEMENT_3D ( 'NONE', #181, #203, #179 ) ;
#26 = CYLINDRICAL_SURFACE ( 'NONE', #206, 0.03901095000000000257 ) ;
#27 = SURFACE_SIDE_STYLE ('',( #123 ) ) ;
#28 = ADVANCED_FACE ( 'NONE', ( #71 ), #298, .T. ) ;
#29 = CARTESIAN_POINT ( 'NONE',  ( -0.03901094999999998869, 4.777463504919744426E-18, 0.1559999999999999998 ) ) ;
#30 = UNCERTAINTY_MEASURE_WITH_UNIT (LENGTH_MEASURE( 1.000000000000000082E-05 ), #126, 'distance_accuracy_value', 'NONE');
#31 = DIRECTION ( 'NONE',  ( 0.1736481776669313859, 0.0000000000000000000, 0.9848077530122077983 ) ) ;
#32 = DIRECTION ( 'NONE',  ( -0.0000000000000000000, -0.0000000000000000000, -1.000000000000000000 ) ) ;
#33 = ADVANCED_FACE ( 'NONE', ( #50 ), #46, .T. ) ;
#34 = CARTESIAN_POINT ( 'NONE',  ( 0.06250000000000000000, 7.654042494670956004E-18, 1.485000000000000764 ) ) ;
#35 = CIRCLE ( 'NONE', #147, 0.04750000000000064587 ) ;
#36 = COLOUR_RGB ( '',0.7921568627450980005, 0.8196078431372548767, 0.9333333333333333481 ) ;
#37 = PRESENTATION_STYLE_ASSIGNMENT (( #159 ) ) ;
#38 = ORIENTED_EDGE ( 'NONE', *, *, #70, .T. ) ;
#39 = EDGE_CURVE ( 'NONE', #230, #248, #232, .T. ) ;
#40 = SURFACE_STYLE_FILL_AREA ( #282 ) ;
#41 = ORIENTED_EDGE ( 'NONE', *, *, #170, .F. ) ;
#42 = AXIS2_PLACEMENT_3D ( 'NONE', #275, #271, #163 ) ;
#43 = DIRECTION ( 'NONE',  ( -1.224646799147353454E-16, -0.0000000000000000000, -1.000000000000000000 ) ) ;
#44 = ORIENTED_EDGE ( 'NONE', *, *, #258, .F. ) ;
#45 = DIRECTION ( 'NONE',  ( -1.224646799147353454E-16, -0.0000000000000000000, -1.000000000000000000 ) ) ;
#46 = CYLINDRICAL_SURFACE ( 'NONE', #227, 0.06250000000000000000 ) ;
#47 = CARTESIAN_POINT ( 'NONE',  ( 0.03901095000000000257, 4.777463504919744426E-18, -4.777463504919745966E-18 ) ) ;
#48 = DIRECTION ( 'NONE',  ( -1.224646799147353454E-16, -0.0000000000000000000, -1.000000000000000000 ) ) ;
#49 = DIMENSIONAL_EXPONENTS ( 1.000000000000000000, 0.0000000000000000000, 0.0000000000000000000, 0.0000000000000000000, 0.0000000000000000000, 0.0000000000000000000, 0.0000000000000000000 ) ;
#50 = FACE_OUTER_BOUND ( 'NONE', #263, .T. ) ;
#51 = DIRECTION ( 'NONE',  ( 1.000000000000000000, 0.0000000000000000000, -0.0000000000000000000 ) ) ;
#52 = APPLICATION_CONTEXT ( 'automotive_design' ) ;
#53 = PRODUCT_DEFINITION ( 'UNKNOWN', '', #158, #287 ) ;
#54 = LINE ( 'NONE', #29, #272 ) ;
#55 = CIRCLE ( 'NONE', #221, 0.06250000000000000000 ) ;
#56 = DIRECTION ( 'NONE',  ( -1.224646799147353454E-16, -0.0000000000000000000, -1.000000000000000000 ) ) ;
#57 = CARTESIAN_POINT ( 'NONE',  ( 0.0000000000000000000, 0.0000000000000000000, 0.0000000000000000000 ) ) ;
#58 = AXIS2_PLACEMENT_3D ( 'NONE', #174, #234, #51 ) ;
#59 = DIRECTION ( 'NONE',  ( 0.0000000000000000000, 0.0000000000000000000, 1.000000000000000000 ) ) ;
#60 = EDGE_LOOP ( 'NONE', ( #242, #83, #65, #154 ) ) ;
#61 = ADVANCED_FACE ( 'NONE', ( #294 ), #74, .T. ) ;
#62 = APPLICATION_PROTOCOL_DEFINITION ( 'draft international standard', 'automotive_design', 1998, #52 ) ;
#63 = EDGE_CURVE ( 'NONE', #143, #12, #276, .T. ) ;
#64 = VECTOR ( 'NONE', #94, 39.37007874015748143 ) ;
#65 = ORIENTED_EDGE ( 'NONE', *, *, #70, .F. ) ;
#66 = EDGE_LOOP ( 'NONE', ( #247, #283, #20, #286 ) ) ;
#67 = DIRECTION ( 'NONE',  ( -0.0000000000000000000, -0.0000000000000000000, -1.000000000000000000 ) ) ;
#68 = DIRECTION ( 'NONE',  ( -1.000000000000000000, 0.0000000000000000000, 0.0000000000000000000 ) ) ;
#69 = PRODUCT_DEFINITION_SHAPE ( 'NONE', 'NONE',  #53 ) ;
#70 = EDGE_CURVE ( 'NONE', #17, #12, #13, .T. ) ;
#71 = FACE_OUTER_BOUND ( 'NONE', #229, .T. ) ;
#72 = CARTESIAN_POINT ( 'NONE',  ( -0.03901095000000000257, 0.0000000000000000000, 9.554927009839491933E-18 ) ) ;
#73 = DIMENSIONAL_EXPONENTS ( 1.000000000000000000, 0.0000000000000000000, 0.0000000000000000000, 0.0000000000000000000, 0.0000000000000000000, 0.0000000000000000000, 0.0000000000000000000 ) ;
#74 = CYLINDRICAL_SURFACE ( 'NONE', #167, 0.06250000000000000000 ) ;
#75 = ADVANCED_FACE ( 'NONE', ( #273 ), #26, .T. ) ;
#76 = AXIS2_PLACEMENT_3D ( 'NONE', #192, #175, #257 ) ;
#77 = SURFACE_STYLE_USAGE ( .BOTH. , #27 ) ;
#78 = LINE ( 'NONE', #215, #106 ) ;
#79 = CIRCLE ( 'NONE', #25, 0.06250000000000000000 ) ;
#80 =( GEOMETRIC_REPRESENTATION_CONTEXT ( 3 ) GLOBAL_UNCERTAINTY_ASSIGNED_CONTEXT ( ( #84 ) ) GLOBAL_UNIT_ASSIGNED_CONTEXT ( ( #241, #269, #196 ) ) REPRESENTATION_CONTEXT ( 'NONE', 'WORKASPACE' ) );
#81 = PLANE ( 'NONE',  #58 ) ;
#82 = CARTESIAN_POINT ( 'NONE',  ( 0.03901095000000002339, 0.0000000000000000000, 0.1559999999999999998 ) ) ;
#83 = ORIENTED_EDGE ( 'NONE', *, *, #63, .T. ) ;
#84 = UNCERTAINTY_MEASURE_WITH_UNIT (LENGTH_MEASURE( 1.000000000000000082E-05 ), #241, 'distance_accuracy_value', 'NONE');
#85 = CONICAL_SURFACE ( 'NONE', #76, 0.03901095000000000257, 0.1745329251994338915 ) ;
#86 = APPLICATION_PROTOCOL_DEFINITION ( 'draft international standard', 'automotive_design', 1998, #16 ) ;
#87 = ORIENTED_EDGE ( 'NONE', *, *, #250, .F. ) ;
#88 = ADVANCED_FACE ( 'NONE', ( #138 ), #115, .T. ) ;
#89 = ORIENTED_EDGE ( 'NONE', *, *, #274, .F. ) ;
#90 = CARTESIAN_POINT ( 'NONE',  ( 0.0000000000000000000, 0.0000000000000000000, 1.500000000000000222 ) ) ;
#91 = DIRECTION ( 'NONE',  ( -1.000000000000000000, 0.0000000000000000000, 1.224646799147353700E-16 ) ) ;
#92 = ADVANCED_FACE ( 'NONE', ( #185 ), #285, .T. ) ;
#93 = ORIENTED_EDGE ( 'NONE', *, *, #116, .F. ) ;
#94 = DIRECTION ( 'NONE',  ( -1.224646799147353454E-16, -0.0000000000000000000, -1.000000000000000000 ) ) ;
#95 = EDGE_CURVE ( 'NONE', #211, #134, #252, .T. ) ;
#96 = DIRECTION ( 'NONE',  ( 0.0000000000000000000, 0.0000000000000000000, -1.000000000000000000 ) ) ;
#97 = AXIS2_PLACEMENT_3D ( 'NONE', #118, #56, #171 ) ;
#98 =( NAMED_UNIT ( * ) PLANE_ANGLE_UNIT ( ) SI_UNIT ( $, .RADIAN. ) );
#99 = CARTESIAN_POINT ( 'NONE',  ( 0.03901095000000002339, 0.0000000000000000000, 0.1559999999999999998 ) ) ;
#100 = CARTESIAN_POINT ( 'NONE',  ( 0.06250000000000002776, 7.654042494670959086E-18, 0.2892130222250905436 ) ) ;
#101 = AXIS2_PLACEMENT_3D ( 'NONE', #207, #96, #254 ) ;
#102 = FACE_OUTER_BOUND ( 'NONE', #178, .T. ) ;
#103 = ORIENTED_EDGE ( 'NONE', *, *, #250, .T. ) ;
#104 =( NAMED_UNIT ( * ) SI_UNIT ( $, .STERADIAN. ) SOLID_ANGLE_UNIT ( ) );
#105 = EDGE_LOOP ( 'NONE', ( #38, #198 ) ) ;
#106 = VECTOR ( 'NONE', #32, 39.37007874015748143 ) ;
#107 = CARTESIAN_POINT ( 'NONE',  ( 1.910449006669871395E-17, 0.0000000000000000000, 0.1559999999999999998 ) ) ;
#108 = ORIENTED_EDGE ( 'NONE', *, *, #95, .F. ) ;
#109 =( GEOMETRIC_REPRESENTATION_CONTEXT ( 3 ) GLOBAL_UNCERTAINTY_ASSIGNED_CONTEXT ( ( #145 ) ) GLOBAL_UNIT_ASSIGNED_CONTEXT ( ( #256, #98, #144 ) ) REPRESENTATION_CONTEXT ( 'NONE', 'WORKASPACE' ) );
#110 = CARTESIAN_POINT ( 'NONE',  ( 0.0000000000000000000, 0.0000000000000000000, 1.500000000000000222 ) ) ;
#111 = DIRECTION ( 'NONE',  ( 0.7071067811865456854, 8.659560562354911904E-17, -0.7071067811865493491 ) ) ;
#112 = PRODUCT_RELATED_PRODUCT_CATEGORY ( 'part', '', ( #268 ) ) ;
#113 = CARTESIAN_POINT ( 'NONE',  ( 5.850705389343263536E-34, 0.0000000000000000000, 4.777463504919745966E-18 ) ) ;
#114 = CARTESIAN_POINT ( 'NONE',  ( 0.0000000000000000000, 0.0000000000000000000, 1.500000000000000222 ) ) ;
#115 = CONICAL_SURFACE ( 'NONE', #135, 0.04750000000000064587, 0.7853981633974457255 ) ;
#116 = EDGE_CURVE ( 'NONE', #248, #222, #141, .T. ) ;
#117 = ORIENTED_EDGE ( 'NONE', *, *, #223, .T. ) ;
#118 = CARTESIAN_POINT ( 'NONE',  ( 5.850705389343263536E-34, 0.0000000000000000000, 4.777463504919745966E-18 ) ) ;
#119 = CARTESIAN_POINT ( 'NONE',  ( -0.03901095000000000257, 0.0000000000000000000, 4.777463504919745966E-18 ) ) ;
#120 = STYLED_ITEM ( 'NONE', ( #2 ), #184 ) ;
#121 = VECTOR ( 'NONE', #191, 39.37007874015748143 ) ;
#122 = DIRECTION ( 'NONE',  ( -0.1736481776669311916, 2.126576849575783316E-17, 0.9848077530122080203 ) ) ;
#123 = SURFACE_STYLE_FILL_AREA ( #281 ) ;
#124 = DIRECTION ( 'NONE',  ( -1.224646799147353454E-16, -0.0000000000000000000, -1.000000000000000000 ) ) ;
#125 = EDGE_CURVE ( 'NONE', #12, #17, #235, .T. ) ;
#126 =( CONVERSION_BASED_UNIT ( 'INCH', #155 ) LENGTH_UNIT ( ) NAMED_UNIT ( #73 ) );
#127 = ORIENTED_EDGE ( 'NONE', *, *, #223, .F. ) ;
#128 = CARTESIAN_POINT ( 'NONE',  ( -0.06249999999999996531, 0.0000000000000000000, 0.2892130222250905436 ) ) ;
#129 = EDGE_LOOP ( 'NONE', ( #296, #244, #225, #127 ) ) ;
#130 = CIRCLE ( 'NONE', #210, 0.04750000000000064587 ) ;
#131 = DIRECTION ( 'NONE',  ( 0.0000000000000000000, 0.0000000000000000000, 1.000000000000000000 ) ) ;
#132 = ORIENTED_EDGE ( 'NONE', *, *, #204, .F. ) ;
#133 = ORIENTED_EDGE ( 'NONE', *, *, #258, .T. ) ;
#134 = VERTEX_POINT ( 'NONE', #148 ) ;
#135 = AXIS2_PLACEMENT_3D ( 'NONE', #114, #187, #228 ) ;
#136 = CYLINDRICAL_SURFACE ( 'NONE', #176, 0.03901095000000000257 ) ;
#137 = CARTESIAN_POINT ( 'NONE',  ( -0.04750000000000064587, 0.0000000000000000000, 1.500000000000000222 ) ) ;
#138 = FACE_OUTER_BOUND ( 'NONE', #66, .T. ) ;
#139 = ADVANCED_FACE ( 'NONE', ( #102 ), #85, .T. ) ;
#140 = ADVANCED_BREP_SHAPE_REPRESENTATION ( 'Micro_SEM-078-02', ( #184, #168 ), #292 ) ;
#141 = LINE ( 'NONE', #255, #190 ) ;
#142 = AXIS2_PLACEMENT_3D ( 'NONE', #172, #146, #169 ) ;
#143 = VERTEX_POINT ( 'NONE', #99 ) ;
#144 =( NAMED_UNIT ( * ) SI_UNIT ( $, .STERADIAN. ) SOLID_ANGLE_UNIT ( ) );
#145 = UNCERTAINTY_MEASURE_WITH_UNIT (LENGTH_MEASURE( 1.000000000000000082E-05 ), #256, 'distance_accuracy_value', 'NONE');
#146 = DIRECTION ( 'NONE',  ( -1.224646799147353454E-16, -0.0000000000000000000, -1.000000000000000000 ) ) ;
#147 = AXIS2_PLACEMENT_3D ( 'NONE', #110, #253, #209 ) ;
#148 = CARTESIAN_POINT ( 'NONE',  ( -0.06250000000000000000, 0.0000000000000000000, 1.485000000000000764 ) ) ;
#149 = DIRECTION ( 'NONE',  ( 1.000000000000000000, 0.0000000000000000000, -0.0000000000000000000 ) ) ;
#150 = EDGE_CURVE ( 'NONE', #222, #291, #231, .T. ) ;
#151 = DIRECTION ( 'NONE',  ( 0.0000000000000000000, 0.0000000000000000000, -1.000000000000000000 ) ) ;
#152 = CIRCLE ( 'NONE', #157, 0.03901095000000000257 ) ;
#153 = ORIENTED_EDGE ( 'NONE', *, *, #125, .F. ) ;
#154 = ORIENTED_EDGE ( 'NONE', *, *, #182, .F. ) ;
#155 = LENGTH_MEASURE_WITH_UNIT ( LENGTH_MEASURE( 0.02539999999999999897 ), #238 );
#156 = ORIENTED_EDGE ( 'NONE', *, *, #297, .T. ) ;
#157 = AXIS2_PLACEMENT_3D ( 'NONE', #270, #188, #68 ) ;
#158 = PRODUCT_DEFINITION_FORMATION_WITH_SPECIFIED_SOURCE ( 'ANY', '', #268, .NOT_KNOWN. ) ;
#159 = SURFACE_STYLE_USAGE ( .BOTH. , #243 ) ;
#160 = EDGE_LOOP ( 'NONE', ( #103, #226, #1, #132 ) ) ;
#161 = ORIENTED_EDGE ( 'NONE', *, *, #204, .T. ) ;
#162 = DIRECTION ( 'NONE',  ( -1.000000000000000000, 0.0000000000000000000, 1.224646799147353700E-16 ) ) ;
#163 = DIRECTION ( 'NONE',  ( 1.000000000000000000, 0.0000000000000000000, 0.0000000000000000000 ) ) ;
#164 = DIRECTION ( 'NONE',  ( -1.000000000000000000, 0.0000000000000000000, 1.224646799147353700E-16 ) ) ;
#165 = ORIENTED_EDGE ( 'NONE', *, *, #8, .T. ) ;
#166 = DIRECTION ( 'NONE',  ( -0.7071067811865456854, 0.0000000000000000000, -0.7071067811865493491 ) ) ;
#167 = AXIS2_PLACEMENT_3D ( 'NONE', #90, #67, #212 ) ;
#168 = AXIS2_PLACEMENT_3D ( 'NONE', #224, #59, #197 ) ;
#169 = DIRECTION ( 'NONE',  ( 1.000000000000000000, 0.0000000000000000000, 0.0000000000000000000 ) ) ;
#170 = EDGE_CURVE ( 'NONE', #266, #291, #54, .T. ) ;
#171 = DIRECTION ( 'NONE',  ( -1.000000000000000000, 0.0000000000000000000, 1.224646799147353700E-16 ) ) ;
#172 = CARTESIAN_POINT ( 'NONE',  ( 3.541838019396895887E-17, 0.0000000000000000000, 0.2892130222250905436 ) ) ;
#173 = CIRCLE ( 'NONE', #142, 0.06250000000000000000 ) ;
#174 = CARTESIAN_POINT ( 'NONE',  ( 0.0000000000000000000, 0.0000000000000000000, 1.500000000000000222 ) ) ;
#175 = DIRECTION ( 'NONE',  ( 1.224646799147353454E-16, 0.0000000000000000000, 1.000000000000000000 ) ) ;
#176 = AXIS2_PLACEMENT_3D ( 'NONE', #24, #293, #164 ) ;
#177 = CARTESIAN_POINT ( 'NONE',  ( -0.03901094999999998869, 6.215752999795350985E-18, 0.1559999999999999998 ) ) ;
#178 = EDGE_LOOP ( 'NONE', ( #41, #44, #117, #205 ) ) ;
#179 = DIRECTION ( 'NONE',  ( 1.000000000000000000, 0.0000000000000000000, 0.0000000000000000000 ) ) ;
#180 = FILL_AREA_STYLE_COLOUR ( '', #36 ) ;
#181 = CARTESIAN_POINT ( 'NONE',  ( 0.0000000000000000000, 0.0000000000000000000, 1.485000000000000764 ) ) ;
#182 = EDGE_CURVE ( 'NONE', #266, #17, #262, .T. ) ;
#183 = FACE_OUTER_BOUND ( 'NONE', #19, .T. ) ;
#184 = MANIFOLD_SOLID_BREP ( 'Cut-Revolve1', #199 ) ;
#185 = FACE_OUTER_BOUND ( 'NONE', #129, .T. ) ;
#186 = CARTESIAN_POINT ( 'NONE',  ( 0.04750000000000064587, 5.817072295950006528E-18, 1.500000000000000222 ) ) ;
#187 = DIRECTION ( 'NONE',  ( 0.0000000000000000000, 0.0000000000000000000, -1.000000000000000000 ) ) ;
#188 = DIRECTION ( 'NONE',  ( -1.224646799147353454E-16, -0.0000000000000000000, -1.000000000000000000 ) ) ;
#189 = LINE ( 'NONE', #82, #21 ) ;
#190 = VECTOR ( 'NONE', #6, 39.37007874015748143 ) ;
#191 = DIRECTION ( 'NONE',  ( -1.224646799147353454E-16, -0.0000000000000000000, -1.000000000000000000 ) ) ;
#192 = CARTESIAN_POINT ( 'NONE',  ( 1.910449006669871395E-17, 0.0000000000000000000, 0.1559999999999999998 ) ) ;
#193 = EDGE_CURVE ( 'NONE', #291, #222, #173, .T. ) ;
#194 = CARTESIAN_POINT ( 'NONE',  ( 0.04750000000000064587, 6.735557395310482421E-18, 1.500000000000000222 ) ) ;
#195 = AXIS2_PLACEMENT_3D ( 'NONE', #57, #10, #149 ) ;
#196 =( NAMED_UNIT ( * ) SI_UNIT ( $, .STERADIAN. ) SOLID_ANGLE_UNIT ( ) );
#197 = DIRECTION ( 'NONE',  ( 1.000000000000000000, 0.0000000000000000000, 0.0000000000000000000 ) ) ;
#198 = ORIENTED_EDGE ( 'NONE', *, *, #125, .T. ) ;
#199 = CLOSED_SHELL ( 'NONE', ( #75, #92, #28, #61, #33, #240, #88, #139, #5, #245 ) ) ;
#200 = COLOUR_RGB ( '',0.7921568627450980005, 0.8196078431372548767, 0.9333333333333333481 ) ;
#201 = DIRECTION ( 'NONE',  ( -1.000000000000000000, 0.0000000000000000000, 0.0000000000000000000 ) ) ;
#202 = ORIENTED_EDGE ( 'NONE', *, *, #63, .F. ) ;
#203 = DIRECTION ( 'NONE',  ( 0.0000000000000000000, 0.0000000000000000000, -1.000000000000000000 ) ) ;
#204 = EDGE_CURVE ( 'NONE', #134, #291, #78, .T. ) ;
#205 = ORIENTED_EDGE ( 'NONE', *, *, #150, .T. ) ;
#206 = AXIS2_PLACEMENT_3D ( 'NONE', #249, #45, #91 ) ;
#207 = CARTESIAN_POINT ( 'NONE',  ( 0.0000000000000000000, 0.0000000000000000000, 1.500000000000000222 ) ) ;
#208 = CARTESIAN_POINT ( 'NONE',  ( 0.0000000000000000000, 0.0000000000000000000, 1.500000000000000222 ) ) ;
#209 = DIRECTION ( 'NONE',  ( 1.000000000000000000, 0.0000000000000000000, 0.0000000000000000000 ) ) ;
#210 = AXIS2_PLACEMENT_3D ( 'NONE', #265, #131, #288 ) ;
#211 = VERTEX_POINT ( 'NONE', #214 ) ;
#212 = DIRECTION ( 'NONE',  ( -1.000000000000000000, 0.0000000000000000000, 0.0000000000000000000 ) ) ;
#213 = DIRECTION ( 'NONE',  ( 1.000000000000000000, 0.0000000000000000000, 0.0000000000000000000 ) ) ;
#214 = CARTESIAN_POINT ( 'NONE',  ( -0.04750000000000064587, 0.0000000000000000000, 1.500000000000000222 ) ) ;
#215 = CARTESIAN_POINT ( 'NONE',  ( -0.06250000000000000000, 0.0000000000000000000, 1.500000000000000222 ) ) ;
#216 = AXIS2_PLACEMENT_3D ( 'NONE', #113, #48, #162 ) ;
#217 = LENGTH_MEASURE_WITH_UNIT ( LENGTH_MEASURE( 0.02539999999999999897 ), #11 );
#218 = EDGE_LOOP ( 'NONE', ( #165, #290 ) ) ;
#219 = CARTESIAN_POINT ( 'NONE',  ( 0.0000000000000000000, 0.0000000000000000000, 1.485000000000000764 ) ) ;
#220 = ORIENTED_EDGE ( 'NONE', *, *, #39, .T. ) ;
#221 = AXIS2_PLACEMENT_3D ( 'NONE', #219, #151, #18 ) ;
#222 = VERTEX_POINT ( 'NONE', #100 ) ;
#223 = EDGE_CURVE ( 'NONE', #143, #222, #189, .T. ) ;
#224 = CARTESIAN_POINT ( 'NONE',  ( 0.0000000000000000000, 0.0000000000000000000, 0.0000000000000000000 ) ) ;
#225 = ORIENTED_EDGE ( 'NONE', *, *, #193, .T. ) ;
#226 = ORIENTED_EDGE ( 'NONE', *, *, #116, .T. ) ;
#227 = AXIS2_PLACEMENT_3D ( 'NONE', #208, #22, #23 ) ;
#228 = DIRECTION ( 'NONE',  ( -1.000000000000000000, 0.0000000000000000000, 0.0000000000000000000 ) ) ;
#229 = EDGE_LOOP ( 'NONE', ( #89, #220, #87, #108 ) ) ;
#230 = VERTEX_POINT ( 'NONE', #194 ) ;
#231 = CIRCLE ( 'NONE', #279, 0.06250000000000000000 ) ;
#232 = LINE ( 'NONE', #186, #251 ) ;
#233 = DIMENSIONAL_EXPONENTS ( 1.000000000000000000, 0.0000000000000000000, 0.0000000000000000000, 0.0000000000000000000, 0.0000000000000000000, 0.0000000000000000000, 0.0000000000000000000 ) ;
#234 = DIRECTION ( 'NONE',  ( 0.0000000000000000000, 0.0000000000000000000, 1.000000000000000000 ) ) ;
#235 = CIRCLE ( 'NONE', #97, 0.03901095000000000257 ) ;
#236 =( LENGTH_UNIT ( ) NAMED_UNIT ( * ) SI_UNIT ( $, .METRE. ) );
#237 = CARTESIAN_POINT ( 'NONE',  ( 3.541838019396895887E-17, 0.0000000000000000000, 0.2892130222250905436 ) ) ;
#238 =( LENGTH_UNIT ( ) NAMED_UNIT ( * ) SI_UNIT ( $, .METRE. ) );
#239 = MECHANICAL_DESIGN_GEOMETRIC_PRESENTATION_REPRESENTATION (  '', ( #120 ), #109 ) ;
#240 = ADVANCED_FACE ( 'NONE', ( #280 ), #81, .T. ) ;
#241 =( CONVERSION_BASED_UNIT ( 'INCH', #217 ) LENGTH_UNIT ( ) NAMED_UNIT ( #233 ) );
#242 = ORIENTED_EDGE ( 'NONE', *, *, #14, .T. ) ;
#243 = SURFACE_SIDE_STYLE ('',( #40 ) ) ;
#244 = ORIENTED_EDGE ( 'NONE', *, *, #170, .T. ) ;
#245 = ADVANCED_FACE ( 'NONE', ( #277 ), #261, .F. ) ;
#246 = MECHANICAL_DESIGN_GEOMETRIC_PRESENTATION_REPRESENTATION (  '', ( #4 ), #80 ) ;
#247 = ORIENTED_EDGE ( 'NONE', *, *, #39, .F. ) ;
#248 = VERTEX_POINT ( 'NONE', #34 ) ;
#249 = CARTESIAN_POINT ( 'NONE',  ( 0.0000000000000000000, 0.0000000000000000000, 0.0000000000000000000 ) ) ;
#250 = EDGE_CURVE ( 'NONE', #134, #248, #55, .T. ) ;
#251 = VECTOR ( 'NONE', #111, 39.37007874015748143 ) ;
#252 = LINE ( 'NONE', #137, #3 ) ;
#253 = DIRECTION ( 'NONE',  ( 0.0000000000000000000, 0.0000000000000000000, 1.000000000000000000 ) ) ;
#254 = DIRECTION ( 'NONE',  ( -1.000000000000000000, 0.0000000000000000000, 0.0000000000000000000 ) ) ;
#255 = CARTESIAN_POINT ( 'NONE',  ( 0.06250000000000000000, 7.654042494670956004E-18, 1.500000000000000222 ) ) ;
#256 =( CONVERSION_BASED_UNIT ( 'INCH', #7 ) LENGTH_UNIT ( ) NAMED_UNIT ( #49 ) );
#257 = DIRECTION ( 'NONE',  ( 1.000000000000000000, 0.0000000000000000000, 0.0000000000000000000 ) ) ;
#258 = EDGE_CURVE ( 'NONE', #143, #266, #9, .T. ) ;
#259 = AXIS2_PLACEMENT_3D ( 'NONE', #107, #43, #201 ) ;
#260 = PRESENTATION_LAYER_ASSIGNMENT (  '', '', ( #4 ) ) ;
#261 = PLANE ( 'NONE',  #195 ) ;
#262 = LINE ( 'NONE', #119, #121 ) ;
#263 = EDGE_LOOP ( 'NONE', ( #93, #156, #161, #267 ) ) ;
#264 =( NAMED_UNIT ( * ) PLANE_ANGLE_UNIT ( ) SI_UNIT ( $, .RADIAN. ) );
#265 = CARTESIAN_POINT ( 'NONE',  ( 0.0000000000000000000, 0.0000000000000000000, 1.500000000000000222 ) ) ;
#266 = VERTEX_POINT ( 'NONE', #177 ) ;
#267 = ORIENTED_EDGE ( 'NONE', *, *, #150, .F. ) ;
#268 = PRODUCT ( 'Micro_SEM-078-02', 'Micro_SEM-078-02', '', ( #289 ) ) ;
#269 =( NAMED_UNIT ( * ) PLANE_ANGLE_UNIT ( ) SI_UNIT ( $, .RADIAN. ) );
#270 = CARTESIAN_POINT ( 'NONE',  ( 1.910449006669871395E-17, 0.0000000000000000000, 0.1559999999999999998 ) ) ;
#271 = DIRECTION ( 'NONE',  ( 1.224646799147353454E-16, 0.0000000000000000000, 1.000000000000000000 ) ) ;
#272 = VECTOR ( 'NONE', #122, 39.37007874015747433 ) ;
#273 = FACE_OUTER_BOUND ( 'NONE', #60, .T. ) ;
#274 = EDGE_CURVE ( 'NONE', #230, #211, #130, .T. ) ;
#275 = CARTESIAN_POINT ( 'NONE',  ( 1.910449006669871395E-17, 0.0000000000000000000, 0.1559999999999999998 ) ) ;
#276 = LINE ( 'NONE', #47, #64 ) ;
#277 = FACE_OUTER_BOUND ( 'NONE', #105, .T. ) ;
#278 = FILL_AREA_STYLE_COLOUR ( '', #200 ) ;
#279 = AXIS2_PLACEMENT_3D ( 'NONE', #237, #124, #213 ) ;
#280 = FACE_OUTER_BOUND ( 'NONE', #218, .T. ) ;
#281 = FILL_AREA_STYLE ('',( #278 ) ) ;
#282 = FILL_AREA_STYLE ('',( #180 ) ) ;
#283 = ORIENTED_EDGE ( 'NONE', *, *, #8, .F. ) ;
#284 = PRESENTATION_LAYER_ASSIGNMENT (  '', '', ( #120 ) ) ;
#285 = CONICAL_SURFACE ( 'NONE', #42, 0.03901095000000000257, 0.1745329251994338915 ) ;
#286 = ORIENTED_EDGE ( 'NONE', *, *, #297, .F. ) ;
#287 = PRODUCT_DEFINITION_CONTEXT ( 'detailed design', #52, 'design' ) ;
#288 = DIRECTION ( 'NONE',  ( 1.000000000000000000, 0.0000000000000000000, 0.0000000000000000000 ) ) ;
#289 = PRODUCT_CONTEXT ( 'NONE', #16, 'mechanical' ) ;
#290 = ORIENTED_EDGE ( 'NONE', *, *, #274, .T. ) ;
#291 = VERTEX_POINT ( 'NONE', #128 ) ;
#292 =( GEOMETRIC_REPRESENTATION_CONTEXT ( 3 ) GLOBAL_UNCERTAINTY_ASSIGNED_CONTEXT ( ( #30 ) ) GLOBAL_UNIT_ASSIGNED_CONTEXT ( ( #126, #264, #104 ) ) REPRESENTATION_CONTEXT ( 'NONE', 'WORKASPACE' ) );
#293 = DIRECTION ( 'NONE',  ( -1.224646799147353454E-16, -0.0000000000000000000, -1.000000000000000000 ) ) ;
#294 = FACE_OUTER_BOUND ( 'NONE', #160, .T. ) ;
#295 = SHAPE_DEFINITION_REPRESENTATION ( #69, #140 ) ;
#296 = ORIENTED_EDGE ( 'NONE', *, *, #14, .F. ) ;
#297 = EDGE_CURVE ( 'NONE', #248, #134, #79, .T. ) ;
#298 = CONICAL_SURFACE ( 'NONE', #101, 0.04750000000000064587, 0.7853981633974457255 ) ;
#299 = CARTESIAN_POINT ( 'NONE',  ( 0.03901095000000000257, 4.777463504919744426E-18, 0.0000000000000000000 ) ) ;
ENDSEC;
END-ISO-10303-21;
