ISO-10303-21;
HEADER;
FILE_DESCRIPTION (( 'STEP AP214' ),
    '1' );
FILE_NAME ('01407.STEP',
    '2023-06-22T14:30:41',
    ( '' ),
    ( '' ),
    'SwSTEP 2.0',
    'SolidWorks 2023',
    '' );
FILE_SCHEMA (( 'AUTOMOTIVE_DESIGN' ));
ENDSEC;

DATA;
#1 = LENGTH_MEASURE_WITH_UNIT ( LENGTH_MEASURE( 0.02539999999999999897 ), #89 );
#2 = EDGE_LOOP ( 'NONE', ( #8, #54 ) ) ;
#3 = AXIS2_PLACEMENT_3D ( 'NONE', #134, #200, #159 ) ;
#4 = VERTEX_POINT ( 'NONE', #129 ) ;
#5 = UNCERTAINTY_MEASURE_WITH_UNIT (LENGTH_MEASURE( 1.000000000000000082E-05 ), #57, 'distance_accuracy_value', 'NONE');
#6 = ADVANCED_FACE ( 'NONE', ( #248 ), #305, .T. ) ;
#7 = CARTESIAN_POINT ( 'NONE',  ( 2.296212748401287726E-17, 0.000000000000000000, 0.1875000000000000278 ) ) ;
#8 = ORIENTED_EDGE ( 'NONE', *, *, #17, .F. ) ;
#9 = FACE_OUTER_BOUND ( 'NONE', #295, .T. ) ;
#10 = VECTOR ( 'NONE', #165, 39.37007874015748143 ) ;
#11 = DIRECTION ( 'NONE',  ( -0.000000000000000000, -1.000000000000000000, -0.000000000000000000 ) ) ;
#12 = CARTESIAN_POINT ( 'NONE',  ( 0.1875000000000000278, 2.500000000000000000, 2.296212748401288650E-17 ) ) ;
#13 =( LENGTH_UNIT ( ) NAMED_UNIT ( * ) SI_UNIT ( $, .METRE. ) );
#14 = CARTESIAN_POINT ( 'NONE',  ( 0.000000000000000000, 0.000000000000000000, 0.000000000000000000 ) ) ;
#15 = DIMENSIONAL_EXPONENTS ( 1.000000000000000000, 0.000000000000000000, 0.000000000000000000, 0.000000000000000000, 0.000000000000000000, 0.000000000000000000, 0.000000000000000000 ) ;
#16 = COLOUR_RGB ( '',1.000000000000000000, 0.000000000000000000, 0.000000000000000000 ) ;
#17 = EDGE_CURVE ( 'NONE', #55, #87, #142, .T. ) ;
#18 = PRODUCT_DEFINITION_SHAPE ( 'NONE', 'NONE',  #107 ) ;
#19 = DIRECTION ( 'NONE',  ( -4.898587196589412459E-17, 1.000000000000000000, 0.000000000000000000 ) ) ;
#20 = ORIENTED_EDGE ( 'NONE', *, *, #303, .T. ) ;
#21 = APPLICATION_CONTEXT ( 'automotive_design' ) ;
#22 =( NAMED_UNIT ( * ) SI_UNIT ( $, .STERADIAN. ) SOLID_ANGLE_UNIT ( ) );
#23 =( GEOMETRIC_REPRESENTATION_CONTEXT ( 3 ) GLOBAL_UNCERTAINTY_ASSIGNED_CONTEXT ( ( #26 ) ) GLOBAL_UNIT_ASSIGNED_CONTEXT ( ( #263, #51, #22 ) ) REPRESENTATION_CONTEXT ( 'NONE', 'WORKASPACE' ) );
#24 =( NAMED_UNIT ( * ) PLANE_ANGLE_UNIT ( ) SI_UNIT ( $, .RADIAN. ) );
#25 = SURFACE_STYLE_FILL_AREA ( #246 ) ;
#26 = UNCERTAINTY_MEASURE_WITH_UNIT (LENGTH_MEASURE( 1.000000000000000082E-05 ), #263, 'distance_accuracy_value', 'NONE');
#27 = DIRECTION ( 'NONE',  ( 0.000000000000000000, -1.000000000000000000, -0.000000000000000000 ) ) ;
#28 = DIRECTION ( 'NONE',  ( -1.000000000000000000, 0.000000000000000000, 0.000000000000000000 ) ) ;
#29 = EDGE_LOOP ( 'NONE', ( #164, #110 ) ) ;
#30 = SURFACE_STYLE_FILL_AREA ( #83 ) ;
#31 = EDGE_LOOP ( 'NONE', ( #172, #20, #85, #249 ) ) ;
#32 = CARTESIAN_POINT ( 'NONE',  ( -0.1875000000000002776, 5.000000000000000000, 0.000000000000000000 ) ) ;
#33 = PRODUCT_RELATED_PRODUCT_CATEGORY ( 'part', '', ( #199 ) ) ;
#34 = PRESENTATION_LAYER_ASSIGNMENT (  '', '', ( #145 ) ) ;
#35 = LENGTH_MEASURE_WITH_UNIT ( LENGTH_MEASURE( 0.02539999999999999897 ), #163 );
#36 = DIRECTION ( 'NONE',  ( -1.000000000000000000, 0.000000000000000000, 0.000000000000000000 ) ) ;
#37 = VERTEX_POINT ( 'NONE', #137 ) ;
#38 = LENGTH_MEASURE_WITH_UNIT ( LENGTH_MEASURE( 0.02539999999999999897 ), #279 );
#39 = CARTESIAN_POINT ( 'NONE',  ( 1.516480271171051896E-32, 2.500000000000000000, 0.000000000000000000 ) ) ;
#40 = AXIS2_PLACEMENT_3D ( 'NONE', #39, #93, #186 ) ;
#41 = SURFACE_STYLE_USAGE ( .BOTH. , #255 ) ;
#42 = DIRECTION ( 'NONE',  ( 4.898587196589412459E-17, -1.000000000000000000, 0.000000000000000000 ) ) ;
#43 = DIMENSIONAL_EXPONENTS ( 1.000000000000000000, 0.000000000000000000, 0.000000000000000000, 0.000000000000000000, 0.000000000000000000, 0.000000000000000000, 0.000000000000000000 ) ;
#44 =( NAMED_UNIT ( * ) PLANE_ANGLE_UNIT ( ) SI_UNIT ( $, .RADIAN. ) );
#45 = AXIS2_PLACEMENT_3D ( 'NONE', #198, #221, #306 ) ;
#46 = DIMENSIONAL_EXPONENTS ( 1.000000000000000000, 0.000000000000000000, 0.000000000000000000, 0.000000000000000000, 0.000000000000000000, 0.000000000000000000, 0.000000000000000000 ) ;
#47 = ORIENTED_EDGE ( 'NONE', *, *, #17, .T. ) ;
#48 = SURFACE_STYLE_FILL_AREA ( #50 ) ;
#49 = MECHANICAL_DESIGN_GEOMETRIC_PRESENTATION_REPRESENTATION (  '', ( #70 ), #232 ) ;
#50 = FILL_AREA_STYLE ('',( #69 ) ) ;
#51 =( NAMED_UNIT ( * ) PLANE_ANGLE_UNIT ( ) SI_UNIT ( $, .RADIAN. ) );
#52 = ADVANCED_FACE ( 'NONE', ( #9 ), #74, .F. ) ;
#53 = AXIS2_PLACEMENT_3D ( 'NONE', #259, #42, #147 ) ;
#54 = ORIENTED_EDGE ( 'NONE', *, *, #294, .F. ) ;
#55 = VERTEX_POINT ( 'NONE', #237 ) ;
#56 = FILL_AREA_STYLE_COLOUR ( '', #82 ) ;
#57 =( CONVERSION_BASED_UNIT ( 'INCH', #1 ) LENGTH_UNIT ( ) NAMED_UNIT ( #15 ) );
#58 = EDGE_CURVE ( 'NONE', #4, #114, #257, .T. ) ;
#59 = ORIENTED_EDGE ( 'NONE', *, *, #62, .F. ) ;
#60 = COLOUR_RGB ( '',0.7921568627450980005, 0.8196078431372548767, 0.9333333333333333481 ) ;
#61 = DIRECTION ( 'NONE',  ( -0.000000000000000000, -1.000000000000000000, -0.000000000000000000 ) ) ;
#62 = EDGE_CURVE ( 'NONE', #276, #114, #204, .T. ) ;
#63 = CYLINDRICAL_SURFACE ( 'NONE', #264, 0.1875000000000000278 ) ;
#64 = AXIS2_PLACEMENT_3D ( 'NONE', #96, #123, #95 ) ;
#65 = MECHANICAL_DESIGN_GEOMETRIC_PRESENTATION_REPRESENTATION (  '', ( #145 ), #278 ) ;
#66 = LINE ( 'NONE', #302, #286 ) ;
#67 =( NAMED_UNIT ( * ) PLANE_ANGLE_UNIT ( ) SI_UNIT ( $, .RADIAN. ) );
#68 = SHAPE_DEFINITION_REPRESENTATION ( #18, #238 ) ;
#69 = FILL_AREA_STYLE_COLOUR ( '', #261 ) ;
#70 = STYLED_ITEM ( 'NONE', ( #181 ), #229 ) ;
#71 = EDGE_CURVE ( 'NONE', #143, #208, #131, .T. ) ;
#72 = DIRECTION ( 'NONE',  ( -4.898587196589412459E-17, 1.000000000000000000, -0.000000000000000000 ) ) ;
#73 = DIRECTION ( 'NONE',  ( -4.898587196589413075E-17, 1.000000000000000000, -0.000000000000000000 ) ) ;
#74 = PLANE ( 'NONE',  #53 ) ;
#75 = SURFACE_SIDE_STYLE ('',( #48 ) ) ;
#76 = APPLICATION_PROTOCOL_DEFINITION ( 'draft international standard', 'automotive_design', 1998, #21 ) ;
#77 = DIRECTION ( 'NONE',  ( 0.000000000000000000, 0.000000000000000000, -1.000000000000000000 ) ) ;
#78 = CLOSED_SHELL ( 'NONE', ( #265, #162, #6, #52 ) ) ;
#79 = AXIS2_PLACEMENT_3D ( 'NONE', #242, #19, #197 ) ;
#80 =( NAMED_UNIT ( * ) SI_UNIT ( $, .STERADIAN. ) SOLID_ANGLE_UNIT ( ) );
#81 = EDGE_CURVE ( 'NONE', #87, #143, #66, .T. ) ;
#82 = COLOUR_RGB ( '',1.000000000000000000, 0.000000000000000000, 0.000000000000000000 ) ;
#83 = FILL_AREA_STYLE ('',( #56 ) ) ;
#84 = EDGE_CURVE ( 'NONE', #208, #143, #245, .T. ) ;
#85 = ORIENTED_EDGE ( 'NONE', *, *, #62, .T. ) ;
#86 = PLANE ( 'NONE',  #202 ) ;
#87 = VERTEX_POINT ( 'NONE', #12 ) ;
#88 = UNCERTAINTY_MEASURE_WITH_UNIT (LENGTH_MEASURE( 1.000000000000000082E-05 ), #144, 'distance_accuracy_value', 'NONE');
#89 =( LENGTH_UNIT ( ) NAMED_UNIT ( * ) SI_UNIT ( $, .METRE. ) );
#90 = CYLINDRICAL_SURFACE ( 'NONE', #287, 0.1875000000000000833 ) ;
#91 = EDGE_LOOP ( 'NONE', ( #140, #239 ) ) ;
#92 = DIRECTION ( 'NONE',  ( -4.898587196589413075E-17, 1.000000000000000000, -0.000000000000000000 ) ) ;
#93 = DIRECTION ( 'NONE',  ( -4.898587196589413075E-17, 1.000000000000000000, -0.000000000000000000 ) ) ;
#94 = FACE_OUTER_BOUND ( 'NONE', #91, .T. ) ;
#95 = DIRECTION ( 'NONE',  ( -1.000000000000000000, 0.000000000000000000, 0.000000000000000000 ) ) ;
#96 = CARTESIAN_POINT ( 'NONE',  ( -1.224646799147353207E-16, 5.000000000000000000, 0.000000000000000000 ) ) ;
#97 = FILL_AREA_STYLE ('',( #117 ) ) ;
#98 = AXIS2_PLACEMENT_3D ( 'NONE', #173, #155, #77 ) ;
#99 =( LENGTH_UNIT ( ) NAMED_UNIT ( * ) SI_UNIT ( $, .METRE. ) );
#100 =( NAMED_UNIT ( * ) SI_UNIT ( $, .STERADIAN. ) SOLID_ANGLE_UNIT ( ) );
#101 = LINE ( 'NONE', #285, #211 ) ;
#102 = CARTESIAN_POINT ( 'NONE',  ( -1.224646799147353207E-16, 5.000000000000000000, 0.000000000000000000 ) ) ;
#103 = AXIS2_PLACEMENT_3D ( 'NONE', #274, #61, #166 ) ;
#104 = CARTESIAN_POINT ( 'NONE',  ( 0.000000000000000000, 0.000000000000000000, 0.000000000000000000 ) ) ;
#105 =( CONVERSION_BASED_UNIT ( 'INCH', #304 ) LENGTH_UNIT ( ) NAMED_UNIT ( #46 ) );
#106 = FACE_OUTER_BOUND ( 'NONE', #2, .T. ) ;
#107 = PRODUCT_DEFINITION ( 'UNKNOWN', '', #167, #188 ) ;
#108 = PRESENTATION_STYLE_ASSIGNMENT (( #182 ) ) ;
#109 = DIRECTION ( 'NONE',  ( -4.898587196589413075E-17, 1.000000000000000000, -0.000000000000000000 ) ) ;
#110 = ORIENTED_EDGE ( 'NONE', *, *, #58, .T. ) ;
#111 = ORIENTED_EDGE ( 'NONE', *, *, #84, .F. ) ;
#112 = COLOUR_RGB ( '',0.7921568627450980005, 0.8196078431372548767, 0.9333333333333333481 ) ;
#113 = PRESENTATION_LAYER_ASSIGNMENT (  '', '', ( #189 ) ) ;
#114 = VERTEX_POINT ( 'NONE', #148 ) ;
#115 = CARTESIAN_POINT ( 'NONE',  ( -1.224646799147353207E-16, 5.000000000000000000, 0.000000000000000000 ) ) ;
#116 = DIRECTION ( 'NONE',  ( 0.000000000000000000, 0.000000000000000000, -1.000000000000000000 ) ) ;
#117 = FILL_AREA_STYLE_COLOUR ( '', #171 ) ;
#118 = DIMENSIONAL_EXPONENTS ( 1.000000000000000000, 0.000000000000000000, 0.000000000000000000, 0.000000000000000000, 0.000000000000000000, 0.000000000000000000, 0.000000000000000000 ) ;
#119 = CARTESIAN_POINT ( 'NONE',  ( 0.000000000000000000, 0.000000000000000000, -0.1875000000000000278 ) ) ;
#120 = PRESENTATION_LAYER_ASSIGNMENT (  '', '', ( #271 ) ) ;
#121 =( NAMED_UNIT ( * ) SI_UNIT ( $, .STERADIAN. ) SOLID_ANGLE_UNIT ( ) );
#122 = SURFACE_STYLE_FILL_AREA ( #280 ) ;
#123 = DIRECTION ( 'NONE',  ( -4.898587196589413075E-17, 1.000000000000000000, -0.000000000000000000 ) ) ;
#124 = DIMENSIONAL_EXPONENTS ( 1.000000000000000000, 0.000000000000000000, 0.000000000000000000, 0.000000000000000000, 0.000000000000000000, 0.000000000000000000, 0.000000000000000000 ) ;
#125 = FILL_AREA_STYLE_COLOUR ( '', #112 ) ;
#126 = LENGTH_MEASURE_WITH_UNIT ( LENGTH_MEASURE( 0.02539999999999999897 ), #13 );
#127 = APPLICATION_PROTOCOL_DEFINITION ( 'draft international standard', 'automotive_design', 1998, #149 ) ;
#128 = MANIFOLD_SOLID_BREP ( 'Revolve - Tool Body (Straight Shanked)', #78 ) ;
#129 = CARTESIAN_POINT ( 'NONE',  ( 2.296212748401287726E-17, 0.000000000000000000, 0.1875000000000000278 ) ) ;
#130 = ADVANCED_FACE ( 'NONE', ( #94 ), #187, .T. ) ;
#131 = CIRCLE ( 'NONE', #64, 0.1875000000000001388 ) ;
#132 = AXIS2_PLACEMENT_3D ( 'NONE', #104, #284, #282 ) ;
#133 = CYLINDRICAL_SURFACE ( 'NONE', #45, 0.1875000000000000278 ) ;
#134 = CARTESIAN_POINT ( 'NONE',  ( 0.000000000000000000, 2.500000000000000000, 0.000000000000000000 ) ) ;
#135 = STYLED_ITEM ( 'NONE', ( #174 ), #130 ) ;
#136 = DIRECTION ( 'NONE',  ( 0.000000000000000000, 0.000000000000000000, -1.000000000000000000 ) ) ;
#137 = CARTESIAN_POINT ( 'NONE',  ( 2.296212748401287726E-17, 2.500000000000000000, 0.1875000000000000278 ) ) ;
#138 = ADVANCED_FACE ( 'NONE', ( #170 ), #133, .T. ) ;
#139 = ORIENTED_EDGE ( 'NONE', *, *, #168, .F. ) ;
#140 = ORIENTED_EDGE ( 'NONE', *, *, #218, .F. ) ;
#141 = UNCERTAINTY_MEASURE_WITH_UNIT (LENGTH_MEASURE( 1.000000000000000082E-05 ), #105, 'distance_accuracy_value', 'NONE');
#142 = CIRCLE ( 'NONE', #301, 0.1875000000000000278 ) ;
#143 = VERTEX_POINT ( 'NONE', #308 ) ;
#144 =( CONVERSION_BASED_UNIT ( 'INCH', #38 ) LENGTH_UNIT ( ) NAMED_UNIT ( #43 ) );
#145 = STYLED_ITEM ( 'NONE', ( #108 ), #178 ) ;
#146 = PRESENTATION_STYLE_ASSIGNMENT (( #41 ) ) ;
#147 = DIRECTION ( 'NONE',  ( 1.000000000000000000, 4.898587196589412459E-17, 0.000000000000000000 ) ) ;
#148 = CARTESIAN_POINT ( 'NONE',  ( 0.000000000000000000, 0.000000000000000000, -0.1875000000000000278 ) ) ;
#149 = APPLICATION_CONTEXT ( 'automotive_design' ) ;
#150 = PRODUCT_CONTEXT ( 'NONE', #149, 'mechanical' ) ;
#151 = CLOSED_SHELL ( 'NONE', ( #251, #130, #138, #178 ) ) ;
#152 =( GEOMETRIC_REPRESENTATION_CONTEXT ( 3 ) GLOBAL_UNCERTAINTY_ASSIGNED_CONTEXT ( ( #88 ) ) GLOBAL_UNIT_ASSIGNED_CONTEXT ( ( #144, #67, #121 ) ) REPRESENTATION_CONTEXT ( 'NONE', 'WORKASPACE' ) );
#153 = PLANE ( 'NONE',  #79 ) ;
#154 = ORIENTED_EDGE ( 'NONE', *, *, #158, .T. ) ;
#155 = DIRECTION ( 'NONE',  ( -0.000000000000000000, -1.000000000000000000, -0.000000000000000000 ) ) ;
#156 =( CONVERSION_BASED_UNIT ( 'INCH', #243 ) LENGTH_UNIT ( ) NAMED_UNIT ( #205 ) );
#157 = MECHANICAL_DESIGN_GEOMETRIC_PRESENTATION_REPRESENTATION (  '', ( #189 ), #240 ) ;
#158 = EDGE_CURVE ( 'NONE', #55, #208, #101, .T. ) ;
#159 = DIRECTION ( 'NONE',  ( 0.000000000000000000, -0.000000000000000000, 1.000000000000000000 ) ) ;
#160 = ORIENTED_EDGE ( 'NONE', *, *, #218, .T. ) ;
#161 = SURFACE_SIDE_STYLE ('',( #289 ) ) ;
#162 = ADVANCED_FACE ( 'NONE', ( #106 ), #153, .F. ) ;
#163 =( LENGTH_UNIT ( ) NAMED_UNIT ( * ) SI_UNIT ( $, .METRE. ) );
#164 = ORIENTED_EDGE ( 'NONE', *, *, #168, .T. ) ;
#165 = DIRECTION ( 'NONE',  ( -0.000000000000000000, -1.000000000000000000, -0.000000000000000000 ) ) ;
#166 = DIRECTION ( 'NONE',  ( 0.000000000000000000, 0.000000000000000000, -1.000000000000000000 ) ) ;
#167 = PRODUCT_DEFINITION_FORMATION_WITH_SPECIFIED_SOURCE ( 'ANY', '', #199, .NOT_KNOWN. ) ;
#168 = EDGE_CURVE ( 'NONE', #114, #4, #220, .T. ) ;
#169 = MECHANICAL_DESIGN_GEOMETRIC_PRESENTATION_REPRESENTATION (  '', ( #135 ), #23 ) ;
#170 = FACE_OUTER_BOUND ( 'NONE', #31, .T. ) ;
#171 = COLOUR_RGB ( '',1.000000000000000000, 0.000000000000000000, 0.000000000000000000 ) ;
#172 = ORIENTED_EDGE ( 'NONE', *, *, #272, .F. ) ;
#173 = CARTESIAN_POINT ( 'NONE',  ( 0.000000000000000000, 0.000000000000000000, 0.000000000000000000 ) ) ;
#174 = PRESENTATION_STYLE_ASSIGNMENT (( #223 ) ) ;
#175 =( LENGTH_UNIT ( ) NAMED_UNIT ( * ) SI_UNIT ( $, .METRE. ) );
#176 = VECTOR ( 'NONE', #236, 39.37007874015748143 ) ;
#177 = FACE_OUTER_BOUND ( 'NONE', #29, .T. ) ;
#178 = ADVANCED_FACE ( 'NONE', ( #177 ), #86, .T. ) ;
#179 =( NAMED_UNIT ( * ) PLANE_ANGLE_UNIT ( ) SI_UNIT ( $, .RADIAN. ) );
#180 = ORIENTED_EDGE ( 'NONE', *, *, #71, .F. ) ;
#181 = PRESENTATION_STYLE_ASSIGNMENT (( #206 ) ) ;
#182 = SURFACE_STYLE_USAGE ( .BOTH. , #250 ) ;
#183 = CARTESIAN_POINT ( 'NONE',  ( -1.224646799147353207E-16, 5.000000000000000000, 0.000000000000000000 ) ) ;
#184 = ORIENTED_EDGE ( 'NONE', *, *, #71, .T. ) ;
#185 =( NAMED_UNIT ( * ) SI_UNIT ( $, .STERADIAN. ) SOLID_ANGLE_UNIT ( ) );
#186 = DIRECTION ( 'NONE',  ( -1.000000000000000000, 0.000000000000000000, 0.000000000000000000 ) ) ;
#187 = PLANE ( 'NONE',  #3 ) ;
#188 = PRODUCT_DEFINITION_CONTEXT ( 'detailed design', #21, 'design' ) ;
#189 = STYLED_ITEM ( 'NONE', ( #288 ), #138 ) ;
#190 = SURFACE_STYLE_USAGE ( .BOTH. , #214 ) ;
#191 = DIRECTION ( 'NONE',  ( -4.898587196589412459E-17, 1.000000000000000000, -0.000000000000000000 ) ) ;
#192 =( NAMED_UNIT ( * ) PLANE_ANGLE_UNIT ( ) SI_UNIT ( $, .RADIAN. ) );
#193 =( NAMED_UNIT ( * ) SI_UNIT ( $, .STERADIAN. ) SOLID_ANGLE_UNIT ( ) );
#194 = SURFACE_STYLE_USAGE ( .BOTH. , #222 ) ;
#195 = CIRCLE ( 'NONE', #103, 0.1875000000000000278 ) ;
#196 = ORIENTED_EDGE ( 'NONE', *, *, #158, .F. ) ;
#197 = DIRECTION ( 'NONE',  ( -1.000000000000000000, -4.898587196589412459E-17, 0.000000000000000000 ) ) ;
#198 = CARTESIAN_POINT ( 'NONE',  ( 0.000000000000000000, 0.000000000000000000, 0.000000000000000000 ) ) ;
#199 = PRODUCT ( '01407', '01407', '', ( #150 ) ) ;
#200 = DIRECTION ( 'NONE',  ( 0.000000000000000000, 1.000000000000000000, 0.000000000000000000 ) ) ;
#201 = PRESENTATION_LAYER_ASSIGNMENT (  '', '', ( #217 ) ) ;
#202 = AXIS2_PLACEMENT_3D ( 'NONE', #203, #27, #227 ) ;
#203 = CARTESIAN_POINT ( 'NONE',  ( 0.000000000000000000, 0.000000000000000000, 0.000000000000000000 ) ) ;
#204 = LINE ( 'NONE', #119, #176 ) ;
#205 = DIMENSIONAL_EXPONENTS ( 1.000000000000000000, 0.000000000000000000, 0.000000000000000000, 0.000000000000000000, 0.000000000000000000, 0.000000000000000000, 0.000000000000000000 ) ;
#206 = SURFACE_STYLE_USAGE ( .BOTH. , #161 ) ;
#207 = ORIENTED_EDGE ( 'NONE', *, *, #272, .T. ) ;
#208 = VERTEX_POINT ( 'NONE', #32 ) ;
#209 = FACE_OUTER_BOUND ( 'NONE', #210, .T. ) ;
#210 = EDGE_LOOP ( 'NONE', ( #47, #226, #111, #196 ) ) ;
#211 = VECTOR ( 'NONE', #72, 39.37007874015748143 ) ;
#212 = CARTESIAN_POINT ( 'NONE',  ( 0.000000000000000000, 2.500000000000000000, -0.1875000000000000278 ) ) ;
#213 = SURFACE_STYLE_FILL_AREA ( #97 ) ;
#214 = SURFACE_SIDE_STYLE ('',( #122 ) ) ;
#215 = UNCERTAINTY_MEASURE_WITH_UNIT (LENGTH_MEASURE( 1.000000000000000082E-05 ), #256, 'distance_accuracy_value', 'NONE');
#216 =( NAMED_UNIT ( * ) PLANE_ANGLE_UNIT ( ) SI_UNIT ( $, .RADIAN. ) );
#217 = STYLED_ITEM ( 'NONE', ( #300 ), #128 ) ;
#218 = EDGE_CURVE ( 'NONE', #276, #37, #235, .T. ) ;
#219 = FILL_AREA_STYLE_COLOUR ( '', #16 ) ;
#220 = CIRCLE ( 'NONE', #98, 0.1875000000000000278 ) ;
#221 = DIRECTION ( 'NONE',  ( -0.000000000000000000, -1.000000000000000000, -0.000000000000000000 ) ) ;
#222 = SURFACE_SIDE_STYLE ('',( #25 ) ) ;
#223 = SURFACE_STYLE_USAGE ( .BOTH. , #75 ) ;
#224 = CARTESIAN_POINT ( 'NONE',  ( 1.516480271171051896E-32, 2.500000000000000000, 0.000000000000000000 ) ) ;
#225 =( GEOMETRIC_REPRESENTATION_CONTEXT ( 3 ) GLOBAL_UNCERTAINTY_ASSIGNED_CONTEXT ( ( #215 ) ) GLOBAL_UNIT_ASSIGNED_CONTEXT ( ( #256, #44, #100 ) ) REPRESENTATION_CONTEXT ( 'NONE', 'WORKASPACE' ) );
#226 = ORIENTED_EDGE ( 'NONE', *, *, #81, .T. ) ;
#227 = DIRECTION ( 'NONE',  ( 0.000000000000000000, 0.000000000000000000, -1.000000000000000000 ) ) ;
#228 = EDGE_LOOP ( 'NONE', ( #160, #207, #139, #59 ) ) ;
#229 = MANIFOLD_SOLID_BREP ( 'Revolve - Cutting Edge', #151 ) ;
#230 = ORIENTED_EDGE ( 'NONE', *, *, #84, .T. ) ;
#231 = AXIS2_PLACEMENT_3D ( 'NONE', #102, #73, #291 ) ;
#232 =( GEOMETRIC_REPRESENTATION_CONTEXT ( 3 ) GLOBAL_UNCERTAINTY_ASSIGNED_CONTEXT ( ( #5 ) ) GLOBAL_UNIT_ASSIGNED_CONTEXT ( ( #57, #216, #185 ) ) REPRESENTATION_CONTEXT ( 'NONE', 'WORKASPACE' ) );
#233 = FILL_AREA_STYLE_COLOUR ( '', #60 ) ;
#234 = LINE ( 'NONE', #7, #10 ) ;
#235 = CIRCLE ( 'NONE', #268, 0.1875000000000000278 ) ;
#236 = DIRECTION ( 'NONE',  ( -0.000000000000000000, -1.000000000000000000, -0.000000000000000000 ) ) ;
#237 = CARTESIAN_POINT ( 'NONE',  ( -0.1875000000000000278, 2.500000000000000000, 0.000000000000000000 ) ) ;
#238 = ADVANCED_BREP_SHAPE_REPRESENTATION ( '01407', ( #229, #128, #132 ), #258 ) ;
#239 = ORIENTED_EDGE ( 'NONE', *, *, #303, .F. ) ;
#240 =( GEOMETRIC_REPRESENTATION_CONTEXT ( 3 ) GLOBAL_UNCERTAINTY_ASSIGNED_CONTEXT ( ( #141 ) ) GLOBAL_UNIT_ASSIGNED_CONTEXT ( ( #105, #24, #80 ) ) REPRESENTATION_CONTEXT ( 'NONE', 'WORKASPACE' ) );
#241 = DIMENSIONAL_EXPONENTS ( 1.000000000000000000, 0.000000000000000000, 0.000000000000000000, 0.000000000000000000, 0.000000000000000000, 0.000000000000000000, 0.000000000000000000 ) ;
#242 = CARTESIAN_POINT ( 'NONE',  ( 2.249639673992786583E-34, 2.500000000000000000, 0.000000000000000000 ) ) ;
#243 = LENGTH_MEASURE_WITH_UNIT ( LENGTH_MEASURE( 0.02539999999999999897 ), #99 );
#244 = LENGTH_MEASURE_WITH_UNIT ( LENGTH_MEASURE( 0.02539999999999999897 ), #283 );
#245 = CIRCLE ( 'NONE', #277, 0.1875000000000001388 ) ;
#246 = FILL_AREA_STYLE ('',( #219 ) ) ;
#247 =( NAMED_UNIT ( * ) SI_UNIT ( $, .STERADIAN. ) SOLID_ANGLE_UNIT ( ) );
#248 = FACE_OUTER_BOUND ( 'NONE', #269, .T. ) ;
#249 = ORIENTED_EDGE ( 'NONE', *, *, #58, .F. ) ;
#250 = SURFACE_SIDE_STYLE ('',( #30 ) ) ;
#251 = ADVANCED_FACE ( 'NONE', ( #275 ), #63, .T. ) ;
#252 = ORIENTED_EDGE ( 'NONE', *, *, #294, .T. ) ;
#253 = DIRECTION ( 'NONE',  ( -4.898587196589413075E-17, 1.000000000000000000, -0.000000000000000000 ) ) ;
#254 = ORIENTED_EDGE ( 'NONE', *, *, #81, .F. ) ;
#255 = SURFACE_SIDE_STYLE ('',( #213 ) ) ;
#256 =( CONVERSION_BASED_UNIT ( 'INCH', #126 ) LENGTH_UNIT ( ) NAMED_UNIT ( #241 ) );
#257 = CIRCLE ( 'NONE', #267, 0.1875000000000000278 ) ;
#258 =( GEOMETRIC_REPRESENTATION_CONTEXT ( 3 ) GLOBAL_UNCERTAINTY_ASSIGNED_CONTEXT ( ( #299 ) ) GLOBAL_UNIT_ASSIGNED_CONTEXT ( ( #156, #192, #193 ) ) REPRESENTATION_CONTEXT ( 'NONE', 'WORKASPACE' ) );
#259 = CARTESIAN_POINT ( 'NONE',  ( 0.1875000000000000278, 5.000000000000000000, 0.000000000000000000 ) ) ;
#260 = DIRECTION ( 'NONE',  ( -1.000000000000000000, 0.000000000000000000, 0.000000000000000000 ) ) ;
#261 = COLOUR_RGB ( '',1.000000000000000000, 0.000000000000000000, 0.000000000000000000 ) ;
#262 = MECHANICAL_DESIGN_GEOMETRIC_PRESENTATION_REPRESENTATION (  '', ( #271 ), #152 ) ;
#263 =( CONVERSION_BASED_UNIT ( 'INCH', #244 ) LENGTH_UNIT ( ) NAMED_UNIT ( #118 ) );
#264 = AXIS2_PLACEMENT_3D ( 'NONE', #293, #11, #298 ) ;
#265 = ADVANCED_FACE ( 'NONE', ( #209 ), #90, .T. ) ;
#266 = DIRECTION ( 'NONE',  ( -0.000000000000000000, -1.000000000000000000, -0.000000000000000000 ) ) ;
#267 = AXIS2_PLACEMENT_3D ( 'NONE', #14, #307, #116 ) ;
#268 = AXIS2_PLACEMENT_3D ( 'NONE', #270, #266, #136 ) ;
#269 = EDGE_LOOP ( 'NONE', ( #254, #252, #154, #180 ) ) ;
#270 = CARTESIAN_POINT ( 'NONE',  ( 0.000000000000000000, 2.500000000000000000, 0.000000000000000000 ) ) ;
#271 = STYLED_ITEM ( 'NONE', ( #146 ), #251 ) ;
#272 = EDGE_CURVE ( 'NONE', #37, #4, #234, .T. ) ;
#273 = UNCERTAINTY_MEASURE_WITH_UNIT (LENGTH_MEASURE( 1.000000000000000082E-05 ), #290, 'distance_accuracy_value', 'NONE');
#274 = CARTESIAN_POINT ( 'NONE',  ( 0.000000000000000000, 2.500000000000000000, 0.000000000000000000 ) ) ;
#275 = FACE_OUTER_BOUND ( 'NONE', #228, .T. ) ;
#276 = VERTEX_POINT ( 'NONE', #212 ) ;
#277 = AXIS2_PLACEMENT_3D ( 'NONE', #115, #92, #260 ) ;
#278 =( GEOMETRIC_REPRESENTATION_CONTEXT ( 3 ) GLOBAL_UNCERTAINTY_ASSIGNED_CONTEXT ( ( #273 ) ) GLOBAL_UNIT_ASSIGNED_CONTEXT ( ( #290, #179, #247 ) ) REPRESENTATION_CONTEXT ( 'NONE', 'WORKASPACE' ) );
#279 =( LENGTH_UNIT ( ) NAMED_UNIT ( * ) SI_UNIT ( $, .METRE. ) );
#280 = FILL_AREA_STYLE ('',( #125 ) ) ;
#281 = MECHANICAL_DESIGN_GEOMETRIC_PRESENTATION_REPRESENTATION (  '', ( #217 ), #225 ) ;
#282 = DIRECTION ( 'NONE',  ( 1.000000000000000000, 0.000000000000000000, 0.000000000000000000 ) ) ;
#283 =( LENGTH_UNIT ( ) NAMED_UNIT ( * ) SI_UNIT ( $, .METRE. ) );
#284 = DIRECTION ( 'NONE',  ( 0.000000000000000000, 0.000000000000000000, 1.000000000000000000 ) ) ;
#285 = CARTESIAN_POINT ( 'NONE',  ( -0.1875000000000002220, 5.000000000000000000, 0.000000000000000000 ) ) ;
#286 = VECTOR ( 'NONE', #191, 39.37007874015748143 ) ;
#287 = AXIS2_PLACEMENT_3D ( 'NONE', #183, #253, #36 ) ;
#288 = PRESENTATION_STYLE_ASSIGNMENT (( #194 ) ) ;
#289 = SURFACE_STYLE_FILL_AREA ( #292 ) ;
#290 =( CONVERSION_BASED_UNIT ( 'INCH', #35 ) LENGTH_UNIT ( ) NAMED_UNIT ( #124 ) );
#291 = DIRECTION ( 'NONE',  ( -1.000000000000000000, 0.000000000000000000, 0.000000000000000000 ) ) ;
#292 = FILL_AREA_STYLE ('',( #233 ) ) ;
#293 = CARTESIAN_POINT ( 'NONE',  ( 0.000000000000000000, 0.000000000000000000, 0.000000000000000000 ) ) ;
#294 = EDGE_CURVE ( 'NONE', #87, #55, #309, .T. ) ;
#295 = EDGE_LOOP ( 'NONE', ( #230, #184 ) ) ;
#296 = PRESENTATION_LAYER_ASSIGNMENT (  '', '', ( #135 ) ) ;
#297 = PRESENTATION_LAYER_ASSIGNMENT (  '', '', ( #70 ) ) ;
#298 = DIRECTION ( 'NONE',  ( 0.000000000000000000, 0.000000000000000000, -1.000000000000000000 ) ) ;
#299 = UNCERTAINTY_MEASURE_WITH_UNIT (LENGTH_MEASURE( 1.000000000000000082E-05 ), #156, 'distance_accuracy_value', 'NONE');
#300 = PRESENTATION_STYLE_ASSIGNMENT (( #190 ) ) ;
#301 = AXIS2_PLACEMENT_3D ( 'NONE', #224, #109, #28 ) ;
#302 = CARTESIAN_POINT ( 'NONE',  ( 0.1874999999999999445, 5.000000000000000000, 2.296212748401288342E-17 ) ) ;
#303 = EDGE_CURVE ( 'NONE', #37, #276, #195, .T. ) ;
#304 = LENGTH_MEASURE_WITH_UNIT ( LENGTH_MEASURE( 0.02539999999999999897 ), #175 );
#305 = CYLINDRICAL_SURFACE ( 'NONE', #231, 0.1875000000000000833 ) ;
#306 = DIRECTION ( 'NONE',  ( 0.000000000000000000, 0.000000000000000000, -1.000000000000000000 ) ) ;
#307 = DIRECTION ( 'NONE',  ( -0.000000000000000000, -1.000000000000000000, -0.000000000000000000 ) ) ;
#308 = CARTESIAN_POINT ( 'NONE',  ( 0.1875000000000000278, 5.000000000000000000, 2.296212748401288650E-17 ) ) ;
#309 = CIRCLE ( 'NONE', #40, 0.1875000000000000278 ) ;
ENDSEC;
END-ISO-10303-21;
