ISO-10303-21;
HEADER;
FILE_DESCRIPTION (( 'STEP AP214' ),
    '1' );
FILE_NAME ('49031.STEP',
    '2023-06-30T21:55:27',
    ( '' ),
    ( '' ),
    'SwSTEP 2.0',
    'SolidWorks 2023',
    '' );
FILE_SCHEMA (( 'AUTOMOTIVE_DESIGN' ));
ENDSEC;

DATA;
#1 = EDGE_CURVE ( 'NONE', #304, #168, #26, .T. ) ;
#2 = MECHANICAL_DESIGN_GEOMETRIC_PRESENTATION_REPRESENTATION (  '', ( #330 ), #315 ) ;
#3 = COLOUR_RGB ( '',1.000000000000000000, 0.000000000000000000, 0.000000000000000000 ) ;
#4 = FILL_AREA_STYLE_COLOUR ( '', #21 ) ;
#5 = ADVANCED_FACE ( 'NONE', ( #192 ), #116, .T. ) ;
#6 = SURFACE_SIDE_STYLE ('',( #120 ) ) ;
#7 = FILL_AREA_STYLE ('',( #275 ) ) ;
#8 = AXIS2_PLACEMENT_3D ( 'NONE', #66, #64, #194 ) ;
#9 = ORIENTED_EDGE ( 'NONE', *, *, #185, .F. ) ;
#10 = FACE_OUTER_BOUND ( 'NONE', #261, .T. ) ;
#11 = ADVANCED_FACE ( 'NONE', ( #351 ), #57, .T. ) ;
#12 = DIMENSIONAL_EXPONENTS ( 1.000000000000000000, 0.000000000000000000, 0.000000000000000000, 0.000000000000000000, 0.000000000000000000, 0.000000000000000000, 0.000000000000000000 ) ;
#13 = PRESENTATION_STYLE_ASSIGNMENT (( #335 ) ) ;
#14 =( GEOMETRIC_REPRESENTATION_CONTEXT ( 3 ) GLOBAL_UNCERTAINTY_ASSIGNED_CONTEXT ( ( #264 ) ) GLOBAL_UNIT_ASSIGNED_CONTEXT ( ( #327, #125, #355 ) ) REPRESENTATION_CONTEXT ( 'NONE', 'WORKASPACE' ) );
#15 =( NAMED_UNIT ( * ) PLANE_ANGLE_UNIT ( ) SI_UNIT ( $, .RADIAN. ) );
#16 = DIRECTION ( 'NONE',  ( 1.219888675382006564E-16, -1.000000000000000000, 0.000000000000000000 ) ) ;
#17 = VERTEX_POINT ( 'NONE', #250 ) ;
#18 = EDGE_CURVE ( 'NONE', #168, #17, #145, .T. ) ;
#19 =( CONVERSION_BASED_UNIT ( 'INCH', #319 ) LENGTH_UNIT ( ) NAMED_UNIT ( #234 ) );
#20 = UNCERTAINTY_MEASURE_WITH_UNIT (LENGTH_MEASURE( 1.000000000000000082E-05 ), #176, 'distance_accuracy_value', 'NONE');
#21 = COLOUR_RGB ( '',1.000000000000000000, 0.000000000000000000, 0.000000000000000000 ) ;
#22 = CIRCLE ( 'NONE', #92, 0.06249999999999995143 ) ;
#23 = CARTESIAN_POINT ( 'NONE',  ( 4.286263797015735609E-16, 1.499999999999999778, 0.000000000000000000 ) ) ;
#24 = EDGE_CURVE ( 'NONE', #292, #258, #338, .T. ) ;
#25 = CARTESIAN_POINT ( 'NONE',  ( 5.811124641243243013E-16, 0.2500000000000000555, 0.000000000000000000 ) ) ;
#26 = LINE ( 'NONE', #186, #188 ) ;
#27 = EDGE_CURVE ( 'NONE', #70, #124, #157, .T. ) ;
#28 = SURFACE_STYLE_FILL_AREA ( #279 ) ;
#29 =( CONVERSION_BASED_UNIT ( 'INCH', #328 ) LENGTH_UNIT ( ) NAMED_UNIT ( #132 ) );
#30 = LENGTH_MEASURE_WITH_UNIT ( LENGTH_MEASURE( 0.02539999999999999897 ), #300 );
#31 = CIRCLE ( 'NONE', #81, 0.06249999999999936856 ) ;
#32 = FILL_AREA_STYLE_COLOUR ( '', #3 ) ;
#33 = DIRECTION ( 'NONE',  ( -0.000000000000000000, -1.000000000000000000, -0.000000000000000000 ) ) ;
#34 = VERTEX_POINT ( 'NONE', #309 ) ;
#35 = DIRECTION ( 'NONE',  ( 0.000000000000000000, 0.000000000000000000, -1.000000000000000000 ) ) ;
#36 = AXIS2_PLACEMENT_3D ( 'NONE', #190, #246, #225 ) ;
#37 =( GEOMETRIC_REPRESENTATION_CONTEXT ( 3 ) GLOBAL_UNCERTAINTY_ASSIGNED_CONTEXT ( ( #342 ) ) GLOBAL_UNIT_ASSIGNED_CONTEXT ( ( #179, #289, #103 ) ) REPRESENTATION_CONTEXT ( 'NONE', 'WORKASPACE' ) );
#38 = ORIENTED_EDGE ( 'NONE', *, *, #1, .F. ) ;
#39 = CARTESIAN_POINT ( 'NONE',  ( -0.06249999999999909100, 1.499999999999999778, 0.000000000000000000 ) ) ;
#40 = ADVANCED_FACE ( 'NONE', ( #215 ), #87, .F. ) ;
#41 = CARTESIAN_POINT ( 'NONE',  ( -0.06249999999999878569, 0.2500000000000000555, 0.000000000000000000 ) ) ;
#42 = DIRECTION ( 'NONE',  ( -1.000000000000000000, -1.219888675382006564E-16, 0.000000000000000000 ) ) ;
#43 = VERTEX_POINT ( 'NONE', #257 ) ;
#44 = DIRECTION ( 'NONE',  ( 0.000000000000000000, 0.000000000000000000, -1.000000000000000000 ) ) ;
#45 = PRESENTATION_LAYER_ASSIGNMENT (  '', '', ( #189 ) ) ;
#46 = CIRCLE ( 'NONE', #303, 0.06249999999999995143 ) ;
#47 = PRODUCT_DEFINITION_SHAPE ( 'NONE', 'NONE',  #167 ) ;
#48 = FILL_AREA_STYLE ('',( #209 ) ) ;
#49 = PRESENTATION_LAYER_ASSIGNMENT (  '', '', ( #118 ) ) ;
#50 = AXIS2_PLACEMENT_3D ( 'NONE', #340, #318, #98 ) ;
#51 = CARTESIAN_POINT ( 'NONE',  ( -7.654042494670957545E-18, 0.06250000000000001388, 0.000000000000000000 ) ) ;
#52 = ADVANCED_FACE ( 'NONE', ( #10 ), #277, .T. ) ;
#53 = CLOSED_SHELL ( 'NONE', ( #5, #203, #112, #40 ) ) ;
#54 = COLOUR_RGB ( '',1.000000000000000000, 0.000000000000000000, 0.000000000000000000 ) ;
#55 = DIRECTION ( 'NONE',  ( -1.000000000000000000, 0.000000000000000000, 0.000000000000000000 ) ) ;
#56 =( CONVERSION_BASED_UNIT ( 'INCH', #30 ) LENGTH_UNIT ( ) NAMED_UNIT ( #12 ) );
#57 = CYLINDRICAL_SURFACE ( 'NONE', #182, 0.06249999999999995143 ) ;
#58 = DIRECTION ( 'NONE',  ( -1.219888675382006564E-16, 1.000000000000000000, -0.000000000000000000 ) ) ;
#59 = CARTESIAN_POINT ( 'NONE',  ( 4.286263797015735609E-16, 1.499999999999999778, 0.000000000000000000 ) ) ;
#60 = VECTOR ( 'NONE', #58, 39.37007874015748143 ) ;
#61 = ORIENTED_EDGE ( 'NONE', *, *, #185, .T. ) ;
#62 = CARTESIAN_POINT ( 'NONE',  ( 0.000000000000000000, 0.2500000000000000555, 0.000000000000000000 ) ) ;
#63 = APPLICATION_CONTEXT ( 'automotive_design' ) ;
#64 = DIRECTION ( 'NONE',  ( -1.219888675382006564E-16, 1.000000000000000000, -0.000000000000000000 ) ) ;
#65 = SURFACE_SIDE_STYLE ('',( #334 ) ) ;
#66 = CARTESIAN_POINT ( 'NONE',  ( 4.286263797015735609E-16, 1.499999999999999778, 0.000000000000000000 ) ) ;
#67 = ORIENTED_EDGE ( 'NONE', *, *, #24, .F. ) ;
#68 = LENGTH_MEASURE_WITH_UNIT ( LENGTH_MEASURE( 0.02539999999999999897 ), #363 );
#69 = PRODUCT_DEFINITION_FORMATION_WITH_SPECIFIED_SOURCE ( 'ANY', '', #134, .NOT_KNOWN. ) ;
#70 = VERTEX_POINT ( 'NONE', #364 ) ;
#71 =( NAMED_UNIT ( * ) SI_UNIT ( $, .STERADIAN. ) SOLID_ANGLE_UNIT ( ) );
#72 = ORIENTED_EDGE ( 'NONE', *, *, #27, .T. ) ;
#73 =( LENGTH_UNIT ( ) NAMED_UNIT ( * ) SI_UNIT ( $, .METRE. ) );
#74 = SURFACE_STYLE_USAGE ( .BOTH. , #140 ) ;
#75 = APPLICATION_PROTOCOL_DEFINITION ( 'draft international standard', 'automotive_design', 1998, #306 ) ;
#76 = PRESENTATION_LAYER_ASSIGNMENT (  '', '', ( #276 ) ) ;
#77 = CARTESIAN_POINT ( 'NONE',  ( 0.000000000000000000, 0.06250000000000001388, 0.000000000000000000 ) ) ;
#78 = SURFACE_STYLE_FILL_AREA ( #177 ) ;
#79 = PRESENTATION_STYLE_ASSIGNMENT (( #269 ) ) ;
#80 = CLOSED_SHELL ( 'NONE', ( #296, #11, #270, #52, #259 ) ) ;
#81 = AXIS2_PLACEMENT_3D ( 'NONE', #284, #97, #228 ) ;
#82 = FILL_AREA_STYLE ('',( #4 ) ) ;
#83 = VECTOR ( 'NONE', #370, 39.37007874015748143 ) ;
#84 =( NAMED_UNIT ( * ) SI_UNIT ( $, .STERADIAN. ) SOLID_ANGLE_UNIT ( ) );
#85 = PRESENTATION_STYLE_ASSIGNMENT (( #212 ) ) ;
#86 =( NAMED_UNIT ( * ) PLANE_ANGLE_UNIT ( ) SI_UNIT ( $, .RADIAN. ) );
#87 = PLANE ( 'NONE',  #347 ) ;
#88 = ORIENTED_EDGE ( 'NONE', *, *, #27, .F. ) ;
#89 = DIRECTION ( 'NONE',  ( -0.000000000000000000, -1.000000000000000000, -0.000000000000000000 ) ) ;
#90 = DIRECTION ( 'NONE',  ( 0.000000000000000000, 1.000000000000000000, 0.000000000000000000 ) ) ;
#91 = DIRECTION ( 'NONE',  ( 0.000000000000000000, 0.000000000000000000, -1.000000000000000000 ) ) ;
#92 = AXIS2_PLACEMENT_3D ( 'NONE', #267, #170, #44 ) ;
#93 = PRESENTATION_LAYER_ASSIGNMENT (  '', '', ( #369 ) ) ;
#94 = EDGE_LOOP ( 'NONE', ( #248, #336 ) ) ;
#95 = CYLINDRICAL_SURFACE ( 'NONE', #8, 0.06249999999999944489 ) ;
#96 = EDGE_LOOP ( 'NONE', ( #9, #290 ) ) ;
#97 = DIRECTION ( 'NONE',  ( -1.219888675382006564E-16, 1.000000000000000000, -0.000000000000000000 ) ) ;
#98 = DIRECTION ( 'NONE',  ( 1.000000000000000000, 0.000000000000000000, -1.224646799147353454E-16 ) ) ;
#99 = SURFACE_STYLE_USAGE ( .BOTH. , #367 ) ;
#100 =( GEOMETRIC_REPRESENTATION_CONTEXT ( 3 ) GLOBAL_UNCERTAINTY_ASSIGNED_CONTEXT ( ( #20 ) ) GLOBAL_UNIT_ASSIGNED_CONTEXT ( ( #176, #130, #230 ) ) REPRESENTATION_CONTEXT ( 'NONE', 'WORKASPACE' ) );
#101 = ORIENTED_EDGE ( 'NONE', *, *, #219, .F. ) ;
#102 = DIRECTION ( 'NONE',  ( 0.000000000000000000, 0.000000000000000000, -1.000000000000000000 ) ) ;
#103 =( NAMED_UNIT ( * ) SI_UNIT ( $, .STERADIAN. ) SOLID_ANGLE_UNIT ( ) );
#104 = CARTESIAN_POINT ( 'NONE',  ( 0.000000000000000000, 0.000000000000000000, -0.06249999999999995143 ) ) ;
#105 = ORIENTED_EDGE ( 'NONE', *, *, #313, .T. ) ;
#106 = DIRECTION ( 'NONE',  ( 0.000000000000000000, 0.000000000000000000, -1.000000000000000000 ) ) ;
#107 = CARTESIAN_POINT ( 'NONE',  ( -0.06249999999999996531, 0.06250000000000001388, 7.654042494670952923E-18 ) ) ;
#108 = UNCERTAINTY_MEASURE_WITH_UNIT (LENGTH_MEASURE( 1.000000000000000082E-05 ), #266, 'distance_accuracy_value', 'NONE');
#109 = AXIS2_PLACEMENT_3D ( 'NONE', #51, #298, #115 ) ;
#110 =( GEOMETRIC_REPRESENTATION_CONTEXT ( 3 ) GLOBAL_UNCERTAINTY_ASSIGNED_CONTEXT ( ( #232 ) ) GLOBAL_UNIT_ASSIGNED_CONTEXT ( ( #56, #86, #156 ) ) REPRESENTATION_CONTEXT ( 'NONE', 'WORKASPACE' ) );
#111 =( LENGTH_UNIT ( ) NAMED_UNIT ( * ) SI_UNIT ( $, .METRE. ) );
#112 = ADVANCED_FACE ( 'NONE', ( #223 ), #95, .T. ) ;
#113 = PLANE ( 'NONE',  #181 ) ;
#114 = AXIS2_PLACEMENT_3D ( 'NONE', #214, #265, #106 ) ;
#115 = DIRECTION ( 'NONE',  ( 1.000000000000000000, 0.000000000000000000, 0.000000000000000000 ) ) ;
#116 = CYLINDRICAL_SURFACE ( 'NONE', #207, 0.06249999999999944489 ) ;
#117 =( LENGTH_UNIT ( ) NAMED_UNIT ( * ) SI_UNIT ( $, .METRE. ) );
#118 = STYLED_ITEM ( 'NONE', ( #162 ), #296 ) ;
#119 = CARTESIAN_POINT ( 'NONE',  ( 0.000000000000000000, 0.06250000000000001388, -0.06249999999999995143 ) ) ;
#120 = SURFACE_STYLE_FILL_AREA ( #82 ) ;
#121 = EDGE_CURVE ( 'NONE', #229, #292, #316, .T. ) ;
#122 = CARTESIAN_POINT ( 'NONE',  ( 0.06249999999999986816, 1.499999999999999778, 7.654042494670889752E-18 ) ) ;
#123 = LENGTH_MEASURE_WITH_UNIT ( LENGTH_MEASURE( 0.02539999999999999897 ), #155 );
#124 = VERTEX_POINT ( 'NONE', #164 ) ;
#125 =( NAMED_UNIT ( * ) PLANE_ANGLE_UNIT ( ) SI_UNIT ( $, .RADIAN. ) );
#126 = ORIENTED_EDGE ( 'NONE', *, *, #213, .F. ) ;
#127 = DIMENSIONAL_EXPONENTS ( 1.000000000000000000, 0.000000000000000000, 0.000000000000000000, 0.000000000000000000, 0.000000000000000000, 0.000000000000000000, 0.000000000000000000 ) ;
#128 = MECHANICAL_DESIGN_GEOMETRIC_PRESENTATION_REPRESENTATION (  '', ( #118 ), #110 ) ;
#129 = ORIENTED_EDGE ( 'NONE', *, *, #353, .T. ) ;
#130 =( NAMED_UNIT ( * ) PLANE_ANGLE_UNIT ( ) SI_UNIT ( $, .RADIAN. ) );
#131 = SPHERICAL_SURFACE ( 'NONE', #109, 0.06249999999999997918 ) ;
#132 = DIMENSIONAL_EXPONENTS ( 1.000000000000000000, 0.000000000000000000, 0.000000000000000000, 0.000000000000000000, 0.000000000000000000, 0.000000000000000000, 0.000000000000000000 ) ;
#133 = CARTESIAN_POINT ( 'NONE',  ( -7.654042494670957545E-18, 0.06250000000000001388, 0.000000000000000000 ) ) ;
#134 = PRODUCT ( '49031', '49031', '', ( #237 ) ) ;
#135 = PRESENTATION_STYLE_ASSIGNMENT (( #99 ) ) ;
#136 = EDGE_LOOP ( 'NONE', ( #61, #288, #273, #38 ) ) ;
#137 = DIRECTION ( 'NONE',  ( 1.000000000000000000, 0.000000000000000000, 0.000000000000000000 ) ) ;
#138 = CARTESIAN_POINT ( 'NONE',  ( -3.827021247335479543E-18, 3.414809992080329023E-17, 0.000000000000000000 ) ) ;
#139 = UNCERTAINTY_MEASURE_WITH_UNIT (LENGTH_MEASURE( 1.000000000000000082E-05 ), #19, 'distance_accuracy_value', 'NONE');
#140 = SURFACE_SIDE_STYLE ('',( #78 ) ) ;
#141 =( NAMED_UNIT ( * ) PLANE_ANGLE_UNIT ( ) SI_UNIT ( $, .RADIAN. ) );
#142 = EDGE_CURVE ( 'NONE', #43, #304, #31, .T. ) ;
#143 = AXIS2_PLACEMENT_3D ( 'NONE', #299, #206, #238 ) ;
#144 = MECHANICAL_DESIGN_GEOMETRIC_PRESENTATION_REPRESENTATION (  '', ( #369 ), #100 ) ;
#145 = CIRCLE ( 'NONE', #174, 0.06249999999999952122 ) ;
#146 = AXIS2_PLACEMENT_3D ( 'NONE', #301, #33, #360 ) ;
#147 = PRODUCT_DEFINITION_CONTEXT ( 'detailed design', #306, 'design' ) ;
#148 = SURFACE_SIDE_STYLE ('',( #28 ) ) ;
#149 = CARTESIAN_POINT ( 'NONE',  ( 0.000000000000000000, 0.000000000000000000, 0.000000000000000000 ) ) ;
#150 = DIMENSIONAL_EXPONENTS ( 1.000000000000000000, 0.000000000000000000, 0.000000000000000000, 0.000000000000000000, 0.000000000000000000, 0.000000000000000000, 0.000000000000000000 ) ;
#151 = ORIENTED_EDGE ( 'NONE', *, *, #349, .T. ) ;
#152 = MECHANICAL_DESIGN_GEOMETRIC_PRESENTATION_REPRESENTATION (  '', ( #276 ), #295 ) ;
#153 = DIRECTION ( 'NONE',  ( 0.000000000000000000, -0.000000000000000000, 1.000000000000000000 ) ) ;
#154 = CIRCLE ( 'NONE', #348, 0.06249999999999997918 ) ;
#155 =( LENGTH_UNIT ( ) NAMED_UNIT ( * ) SI_UNIT ( $, .METRE. ) );
#156 =( NAMED_UNIT ( * ) SI_UNIT ( $, .STERADIAN. ) SOLID_ANGLE_UNIT ( ) );
#157 = LINE ( 'NONE', #218, #323 ) ;
#158 = MANIFOLD_SOLID_BREP ( 'Revolve - Tool Body (Straight Shanked)', #53 ) ;
#159 = DIRECTION ( 'NONE',  ( -1.219888675382006564E-16, 1.000000000000000000, -0.000000000000000000 ) ) ;
#160 = DIRECTION ( 'NONE',  ( -1.219888675382006564E-16, 1.000000000000000000, -0.000000000000000000 ) ) ;
#161 =( NAMED_UNIT ( * ) SI_UNIT ( $, .STERADIAN. ) SOLID_ANGLE_UNIT ( ) );
#162 = PRESENTATION_STYLE_ASSIGNMENT (( #217 ) ) ;
#163 = MECHANICAL_DESIGN_GEOMETRIC_PRESENTATION_REPRESENTATION (  '', ( #352 ), #254 ) ;
#164 = CARTESIAN_POINT ( 'NONE',  ( 7.654042494670951382E-18, 0.06250000000000001388, 0.06249999999999995143 ) ) ;
#165 = SHAPE_DEFINITION_REPRESENTATION ( #47, #361 ) ;
#166 = PLANE ( 'NONE',  #302 ) ;
#167 = PRODUCT_DEFINITION ( 'UNKNOWN', '', #69, #147 ) ;
#168 = VERTEX_POINT ( 'NONE', #39 ) ;
#169 = DIRECTION ( 'NONE',  ( -1.000000000000000000, 0.000000000000000000, 0.000000000000000000 ) ) ;
#170 = DIRECTION ( 'NONE',  ( -0.000000000000000000, -1.000000000000000000, -0.000000000000000000 ) ) ;
#171 = CARTESIAN_POINT ( 'NONE',  ( 0.000000000000000000, 0.000000000000000000, 0.000000000000000000 ) ) ;
#172 = CARTESIAN_POINT ( 'NONE',  ( 0.06249999999999996531, 0.06250000000000001388, 0.000000000000000000 ) ) ;
#173 = PRESENTATION_LAYER_ASSIGNMENT (  '', '', ( #330 ) ) ;
#174 = AXIS2_PLACEMENT_3D ( 'NONE', #59, #160, #256 ) ;
#175 = ORIENTED_EDGE ( 'NONE', *, *, #353, .F. ) ;
#176 =( CONVERSION_BASED_UNIT ( 'INCH', #68 ) LENGTH_UNIT ( ) NAMED_UNIT ( #127 ) );
#177 = FILL_AREA_STYLE ('',( #260 ) ) ;
#178 = UNCERTAINTY_MEASURE_WITH_UNIT (LENGTH_MEASURE( 1.000000000000000082E-05 ), #29, 'distance_accuracy_value', 'NONE');
#179 =( CONVERSION_BASED_UNIT ( 'INCH', #198 ) LENGTH_UNIT ( ) NAMED_UNIT ( #329 ) );
#180 =( NAMED_UNIT ( * ) SI_UNIT ( $, .STERADIAN. ) SOLID_ANGLE_UNIT ( ) );
#181 = AXIS2_PLACEMENT_3D ( 'NONE', #62, #90, #153 ) ;
#182 = AXIS2_PLACEMENT_3D ( 'NONE', #226, #89, #91 ) ;
#183 = STYLED_ITEM ( 'NONE', ( #13 ), #52 ) ;
#184 =( NAMED_UNIT ( * ) PLANE_ANGLE_UNIT ( ) SI_UNIT ( $, .RADIAN. ) );
#185 = EDGE_CURVE ( 'NONE', #304, #43, #311, .T. ) ;
#186 = CARTESIAN_POINT ( 'NONE',  ( -0.06249999999999901468, 1.499999999999999778, 0.000000000000000000 ) ) ;
#187 = DIRECTION ( 'NONE',  ( -0.000000000000000000, -1.000000000000000000, -0.000000000000000000 ) ) ;
#188 = VECTOR ( 'NONE', #272, 39.37007874015748143 ) ;
#189 = STYLED_ITEM ( 'NONE', ( #135 ), #158 ) ;
#190 = CARTESIAN_POINT ( 'NONE',  ( -7.654042494670957545E-18, 0.06250000000000001388, 0.000000000000000000 ) ) ;
#191 = SURFACE_SIDE_STYLE ('',( #282 ) ) ;
#192 = FACE_OUTER_BOUND ( 'NONE', #136, .T. ) ;
#193 = FACE_OUTER_BOUND ( 'NONE', #236, .T. ) ;
#194 = DIRECTION ( 'NONE',  ( -1.000000000000000000, 0.000000000000000000, 0.000000000000000000 ) ) ;
#195 = DIRECTION ( 'NONE',  ( 1.000000000000000000, 1.219888675382006564E-16, 0.000000000000000000 ) ) ;
#196 = EDGE_LOOP ( 'NONE', ( #283, #365, #356, #233 ) ) ;
#197 = DIMENSIONAL_EXPONENTS ( 1.000000000000000000, 0.000000000000000000, 0.000000000000000000, 0.000000000000000000, 0.000000000000000000, 0.000000000000000000, 0.000000000000000000 ) ;
#198 = LENGTH_MEASURE_WITH_UNIT ( LENGTH_MEASURE( 0.02539999999999999897 ), #73 );
#199 = PRESENTATION_LAYER_ASSIGNMENT (  '', '', ( #352 ) ) ;
#200 = AXIS2_PLACEMENT_3D ( 'NONE', #77, #314, #102 ) ;
#201 = DIRECTION ( 'NONE',  ( -0.000000000000000000, -1.000000000000000000, -0.000000000000000000 ) ) ;
#202 = DIMENSIONAL_EXPONENTS ( 1.000000000000000000, 0.000000000000000000, 0.000000000000000000, 0.000000000000000000, 0.000000000000000000, 0.000000000000000000, 0.000000000000000000 ) ;
#203 = ADVANCED_FACE ( 'NONE', ( #263 ), #166, .F. ) ;
#204 = ORIENTED_EDGE ( 'NONE', *, *, #219, .T. ) ;
#205 = PRESENTATION_STYLE_ASSIGNMENT (( #74 ) ) ;
#206 = DIRECTION ( 'NONE',  ( -1.219888675382006564E-16, 1.000000000000000000, -0.000000000000000000 ) ) ;
#207 = AXIS2_PLACEMENT_3D ( 'NONE', #307, #159, #55 ) ;
#208 = CIRCLE ( 'NONE', #50, 0.06249999999999997918 ) ;
#209 = FILL_AREA_STYLE_COLOUR ( '', #54 ) ;
#210 = SURFACE_SIDE_STYLE ('',( #294 ) ) ;
#211 = PRESENTATION_LAYER_ASSIGNMENT (  '', '', ( #183 ) ) ;
#212 = SURFACE_STYLE_USAGE ( .BOTH. , #6 ) ;
#213 = EDGE_CURVE ( 'NONE', #124, #229, #22, .T. ) ;
#214 = CARTESIAN_POINT ( 'NONE',  ( 0.000000000000000000, 0.2500000000000000555, 0.000000000000000000 ) ) ;
#215 = FACE_OUTER_BOUND ( 'NONE', #278, .T. ) ;
#216 = ORIENTED_EDGE ( 'NONE', *, *, #346, .T. ) ;
#217 = SURFACE_STYLE_USAGE ( .BOTH. , #65 ) ;
#218 = CARTESIAN_POINT ( 'NONE',  ( 7.654042494670951382E-18, 0.000000000000000000, 0.06249999999999995143 ) ) ;
#219 = EDGE_CURVE ( 'NONE', #34, #292, #317, .T. ) ;
#220 = ORIENTED_EDGE ( 'NONE', *, *, #18, .T. ) ;
#221 = MECHANICAL_DESIGN_GEOMETRIC_PRESENTATION_REPRESENTATION (  '', ( #183 ), #14 ) ;
#222 = CIRCLE ( 'NONE', #200, 0.06249999999999995143 ) ;
#223 = FACE_OUTER_BOUND ( 'NONE', #196, .T. ) ;
#224 = VERTEX_POINT ( 'NONE', #138 ) ;
#225 = DIRECTION ( 'NONE',  ( 1.000000000000000000, 0.000000000000000000, 0.000000000000000000 ) ) ;
#226 = CARTESIAN_POINT ( 'NONE',  ( 0.000000000000000000, 0.000000000000000000, 0.000000000000000000 ) ) ;
#227 = ORIENTED_EDGE ( 'NONE', *, *, #121, .T. ) ;
#228 = DIRECTION ( 'NONE',  ( -1.000000000000000000, 0.000000000000000000, 0.000000000000000000 ) ) ;
#229 = VERTEX_POINT ( 'NONE', #107 ) ;
#230 =( NAMED_UNIT ( * ) SI_UNIT ( $, .STERADIAN. ) SOLID_ANGLE_UNIT ( ) );
#231 =( GEOMETRIC_REPRESENTATION_CONTEXT ( 3 ) GLOBAL_UNCERTAINTY_ASSIGNED_CONTEXT ( ( #139 ) ) GLOBAL_UNIT_ASSIGNED_CONTEXT ( ( #19, #141, #71 ) ) REPRESENTATION_CONTEXT ( 'NONE', 'WORKASPACE' ) );
#232 = UNCERTAINTY_MEASURE_WITH_UNIT (LENGTH_MEASURE( 1.000000000000000082E-05 ), #56, 'distance_accuracy_value', 'NONE');
#233 = ORIENTED_EDGE ( 'NONE', *, *, #326, .F. ) ;
#234 = DIMENSIONAL_EXPONENTS ( 1.000000000000000000, 0.000000000000000000, 0.000000000000000000, 0.000000000000000000, 0.000000000000000000, 0.000000000000000000, 0.000000000000000000 ) ;
#235 = DIRECTION ( 'NONE',  ( -1.219888675382006564E-16, 1.000000000000000000, 0.000000000000000000 ) ) ;
#236 = EDGE_LOOP ( 'NONE', ( #332, #151, #175, #216 ) ) ;
#237 = PRODUCT_CONTEXT ( 'NONE', #63, 'mechanical' ) ;
#238 = DIRECTION ( 'NONE',  ( -1.000000000000000000, 0.000000000000000000, 0.000000000000000000 ) ) ;
#239 =( NAMED_UNIT ( * ) PLANE_ANGLE_UNIT ( ) SI_UNIT ( $, .RADIAN. ) );
#240 = AXIS2_PLACEMENT_3D ( 'NONE', #149, #305, #357 ) ;
#241 = ORIENTED_EDGE ( 'NONE', *, *, #349, .F. ) ;
#242 =( CONVERSION_BASED_UNIT ( 'INCH', #350 ) LENGTH_UNIT ( ) NAMED_UNIT ( #150 ) );
#243 =( LENGTH_UNIT ( ) NAMED_UNIT ( * ) SI_UNIT ( $, .METRE. ) );
#244 = ORIENTED_EDGE ( 'NONE', *, *, #326, .T. ) ;
#245 = ORIENTED_EDGE ( 'NONE', *, *, #24, .T. ) ;
#246 = DIRECTION ( 'NONE',  ( 0.000000000000000000, 0.000000000000000000, 1.000000000000000000 ) ) ;
#247 = DIRECTION ( 'NONE',  ( -0.000000000000000000, -1.000000000000000000, -0.000000000000000000 ) ) ;
#248 = ORIENTED_EDGE ( 'NONE', *, *, #320, .F. ) ;
#249 = PRODUCT_RELATED_PRODUCT_CATEGORY ( 'part', '', ( #134 ) ) ;
#250 = CARTESIAN_POINT ( 'NONE',  ( 0.06249999999999993755, 1.499999999999999778, 7.654042494670892834E-18 ) ) ;
#251 = FILL_AREA_STYLE_COLOUR ( '', #268 ) ;
#252 = CARTESIAN_POINT ( 'NONE',  ( 0.06249999999999995143, 1.499999999999999778, 0.000000000000000000 ) ) ;
#253 = ORIENTED_EDGE ( 'NONE', *, *, #121, .F. ) ;
#254 =( GEOMETRIC_REPRESENTATION_CONTEXT ( 3 ) GLOBAL_UNCERTAINTY_ASSIGNED_CONTEXT ( ( #108 ) ) GLOBAL_UNIT_ASSIGNED_CONTEXT ( ( #266, #239, #180 ) ) REPRESENTATION_CONTEXT ( 'NONE', 'WORKASPACE' ) );
#255 = FILL_AREA_STYLE_COLOUR ( '', #291 ) ;
#256 = DIRECTION ( 'NONE',  ( -1.000000000000000000, 0.000000000000000000, 0.000000000000000000 ) ) ;
#257 = CARTESIAN_POINT ( 'NONE',  ( 0.06249999999999993755, 0.2500000000000000555, 7.654042494670892834E-18 ) ) ;
#258 = VERTEX_POINT ( 'NONE', #172 ) ;
#259 = ADVANCED_FACE ( 'NONE', ( #341 ), #131, .T. ) ;
#260 = FILL_AREA_STYLE_COLOUR ( '', #324 ) ;
#261 = EDGE_LOOP ( 'NONE', ( #88, #105, #204, #253, #126 ) ) ;
#262 = AXIS2_PLACEMENT_3D ( 'NONE', #310, #247, #35 ) ;
#263 = FACE_OUTER_BOUND ( 'NONE', #96, .T. ) ;
#264 = UNCERTAINTY_MEASURE_WITH_UNIT (LENGTH_MEASURE( 1.000000000000000082E-05 ), #327, 'distance_accuracy_value', 'NONE');
#265 = DIRECTION ( 'NONE',  ( -0.000000000000000000, -1.000000000000000000, -0.000000000000000000 ) ) ;
#266 =( CONVERSION_BASED_UNIT ( 'INCH', #293 ) LENGTH_UNIT ( ) NAMED_UNIT ( #197 ) );
#267 = CARTESIAN_POINT ( 'NONE',  ( 0.000000000000000000, 0.06250000000000001388, 0.000000000000000000 ) ) ;
#268 = COLOUR_RGB ( '',0.7921568627450980005, 0.8196078431372548767, 0.9333333333333333481 ) ;
#269 = SURFACE_STYLE_USAGE ( .BOTH. , #210 ) ;
#270 = ADVANCED_FACE ( 'NONE', ( #287 ), #113, .T. ) ;
#271 = AXIS2_PLACEMENT_3D ( 'NONE', #171, #286, #137 ) ;
#272 = DIRECTION ( 'NONE',  ( -1.219888675382006564E-16, 1.000000000000000000, -0.000000000000000000 ) ) ;
#273 = ORIENTED_EDGE ( 'NONE', *, *, #18, .F. ) ;
#274 = SURFACE_STYLE_USAGE ( .BOTH. , #148 ) ;
#275 = FILL_AREA_STYLE_COLOUR ( '', #358 ) ;
#276 = STYLED_ITEM ( 'NONE', ( #79 ), #270 ) ;
#277 = CYLINDRICAL_SURFACE ( 'NONE', #240, 0.06249999999999995143 ) ;
#278 = EDGE_LOOP ( 'NONE', ( #220, #244 ) ) ;
#279 = FILL_AREA_STYLE ('',( #251 ) ) ;
#280 = FILL_AREA_STYLE ('',( #32 ) ) ;
#281 = EDGE_LOOP ( 'NONE', ( #241, #227, #245, #129 ) ) ;
#282 = SURFACE_STYLE_FILL_AREA ( #280 ) ;
#283 = ORIENTED_EDGE ( 'NONE', *, *, #285, .F. ) ;
#284 = CARTESIAN_POINT ( 'NONE',  ( 5.811124641243243013E-16, 0.2500000000000000555, 0.000000000000000000 ) ) ;
#285 = EDGE_CURVE ( 'NONE', #43, #17, #308, .T. ) ;
#286 = DIRECTION ( 'NONE',  ( 0.000000000000000000, 0.000000000000000000, 1.000000000000000000 ) ) ;
#287 = FACE_OUTER_BOUND ( 'NONE', #94, .T. ) ;
#288 = ORIENTED_EDGE ( 'NONE', *, *, #285, .T. ) ;
#289 =( NAMED_UNIT ( * ) PLANE_ANGLE_UNIT ( ) SI_UNIT ( $, .RADIAN. ) );
#290 = ORIENTED_EDGE ( 'NONE', *, *, #142, .F. ) ;
#291 = COLOUR_RGB ( '',1.000000000000000000, 0.000000000000000000, 0.000000000000000000 ) ;
#292 = VERTEX_POINT ( 'NONE', #119 ) ;
#293 = LENGTH_MEASURE_WITH_UNIT ( LENGTH_MEASURE( 0.02539999999999999897 ), #111 );
#294 = SURFACE_STYLE_FILL_AREA ( #48 ) ;
#295 =( GEOMETRIC_REPRESENTATION_CONTEXT ( 3 ) GLOBAL_UNCERTAINTY_ASSIGNED_CONTEXT ( ( #368 ) ) GLOBAL_UNIT_ASSIGNED_CONTEXT ( ( #242, #184, #84 ) ) REPRESENTATION_CONTEXT ( 'NONE', 'WORKASPACE' ) );
#296 = ADVANCED_FACE ( 'NONE', ( #193 ), #325, .T. ) ;
#297 = MANIFOLD_SOLID_BREP ( 'Revolve - Cutting Edge', #80 ) ;
#298 = DIRECTION ( 'NONE',  ( 0.000000000000000000, 0.000000000000000000, 1.000000000000000000 ) ) ;
#299 = CARTESIAN_POINT ( 'NONE',  ( 5.811124641243243013E-16, 0.2500000000000000555, 0.000000000000000000 ) ) ;
#300 =( LENGTH_UNIT ( ) NAMED_UNIT ( * ) SI_UNIT ( $, .METRE. ) );
#301 = CARTESIAN_POINT ( 'NONE',  ( 0.000000000000000000, 0.06250000000000001388, 0.000000000000000000 ) ) ;
#302 = AXIS2_PLACEMENT_3D ( 'NONE', #25, #235, #42 ) ;
#303 = AXIS2_PLACEMENT_3D ( 'NONE', #366, #201, #339 ) ;
#304 = VERTEX_POINT ( 'NONE', #41 ) ;
#305 = DIRECTION ( 'NONE',  ( -0.000000000000000000, -1.000000000000000000, -0.000000000000000000 ) ) ;
#306 = APPLICATION_CONTEXT ( 'automotive_design' ) ;
#307 = CARTESIAN_POINT ( 'NONE',  ( 4.286263797015735609E-16, 1.499999999999999778, 0.000000000000000000 ) ) ;
#308 = LINE ( 'NONE', #122, #60 ) ;
#309 = CARTESIAN_POINT ( 'NONE',  ( 0.000000000000000000, 0.2500000000000000555, -0.06249999999999995143 ) ) ;
#310 = CARTESIAN_POINT ( 'NONE',  ( 0.000000000000000000, 0.06250000000000001388, 0.000000000000000000 ) ) ;
#311 = CIRCLE ( 'NONE', #143, 0.06249999999999936856 ) ;
#312 = APPLICATION_PROTOCOL_DEFINITION ( 'draft international standard', 'automotive_design', 1998, #63 ) ;
#313 = EDGE_CURVE ( 'NONE', #70, #34, #322, .T. ) ;
#314 = DIRECTION ( 'NONE',  ( -0.000000000000000000, -1.000000000000000000, -0.000000000000000000 ) ) ;
#315 =( GEOMETRIC_REPRESENTATION_CONTEXT ( 3 ) GLOBAL_UNCERTAINTY_ASSIGNED_CONTEXT ( ( #178 ) ) GLOBAL_UNIT_ASSIGNED_CONTEXT ( ( #29, #15, #161 ) ) REPRESENTATION_CONTEXT ( 'NONE', 'WORKASPACE' ) );
#316 = CIRCLE ( 'NONE', #262, 0.06249999999999995143 ) ;
#317 = LINE ( 'NONE', #104, #83 ) ;
#318 = DIRECTION ( 'NONE',  ( 1.224646799147353207E-16, -0.000000000000000000, 1.000000000000000000 ) ) ;
#319 = LENGTH_MEASURE_WITH_UNIT ( LENGTH_MEASURE( 0.02539999999999999897 ), #344 );
#320 = EDGE_CURVE ( 'NONE', #34, #70, #46, .T. ) ;
#321 = MECHANICAL_DESIGN_GEOMETRIC_PRESENTATION_REPRESENTATION (  '', ( #189 ), #231 ) ;
#322 = CIRCLE ( 'NONE', #114, 0.06249999999999995143 ) ;
#323 = VECTOR ( 'NONE', #187, 39.37007874015748143 ) ;
#324 = COLOUR_RGB ( '',1.000000000000000000, 0.000000000000000000, 0.000000000000000000 ) ;
#325 = SPHERICAL_SURFACE ( 'NONE', #36, 0.06249999999999997918 ) ;
#326 = EDGE_CURVE ( 'NONE', #17, #168, #331, .T. ) ;
#327 =( CONVERSION_BASED_UNIT ( 'INCH', #123 ) LENGTH_UNIT ( ) NAMED_UNIT ( #202 ) );
#328 = LENGTH_MEASURE_WITH_UNIT ( LENGTH_MEASURE( 0.02539999999999999897 ), #117 );
#329 = DIMENSIONAL_EXPONENTS ( 1.000000000000000000, 0.000000000000000000, 0.000000000000000000, 0.000000000000000000, 0.000000000000000000, 0.000000000000000000, 0.000000000000000000 ) ;
#330 = STYLED_ITEM ( 'NONE', ( #85 ), #11 ) ;
#331 = CIRCLE ( 'NONE', #372, 0.06249999999999952122 ) ;
#332 = ORIENTED_EDGE ( 'NONE', *, *, #213, .T. ) ;
#333 = ORIENTED_EDGE ( 'NONE', *, *, #346, .F. ) ;
#334 = SURFACE_STYLE_FILL_AREA ( #359 ) ;
#335 = SURFACE_STYLE_USAGE ( .BOTH. , #191 ) ;
#336 = ORIENTED_EDGE ( 'NONE', *, *, #313, .F. ) ;
#337 = DIRECTION ( 'NONE',  ( -1.000000000000000000, 0.000000000000000000, 0.000000000000000000 ) ) ;
#338 = CIRCLE ( 'NONE', #146, 0.06249999999999995143 ) ;
#339 = DIRECTION ( 'NONE',  ( 0.000000000000000000, 0.000000000000000000, -1.000000000000000000 ) ) ;
#340 = CARTESIAN_POINT ( 'NONE',  ( -7.654042494670957545E-18, 0.06250000000000001388, 0.000000000000000000 ) ) ;
#341 = FACE_OUTER_BOUND ( 'NONE', #281, .T. ) ;
#342 = UNCERTAINTY_MEASURE_WITH_UNIT (LENGTH_MEASURE( 1.000000000000000082E-05 ), #179, 'distance_accuracy_value', 'NONE');
#343 = DIRECTION ( 'NONE',  ( 0.000000000000000000, 0.000000000000000000, -1.000000000000000000 ) ) ;
#344 =( LENGTH_UNIT ( ) NAMED_UNIT ( * ) SI_UNIT ( $, .METRE. ) );
#345 = DIRECTION ( 'NONE',  ( -1.219888675382006564E-16, 1.000000000000000000, -0.000000000000000000 ) ) ;
#346 = EDGE_CURVE ( 'NONE', #258, #124, #222, .T. ) ;
#347 = AXIS2_PLACEMENT_3D ( 'NONE', #252, #16, #195 ) ;
#348 = AXIS2_PLACEMENT_3D ( 'NONE', #133, #343, #337 ) ;
#349 = EDGE_CURVE ( 'NONE', #229, #224, #208, .T. ) ;
#350 = LENGTH_MEASURE_WITH_UNIT ( LENGTH_MEASURE( 0.02539999999999999897 ), #243 );
#351 = FACE_OUTER_BOUND ( 'NONE', #362, .T. ) ;
#352 = STYLED_ITEM ( 'NONE', ( #205 ), #259 ) ;
#353 = EDGE_CURVE ( 'NONE', #258, #224, #154, .T. ) ;
#354 = PRESENTATION_STYLE_ASSIGNMENT (( #274 ) ) ;
#355 =( NAMED_UNIT ( * ) SI_UNIT ( $, .STERADIAN. ) SOLID_ANGLE_UNIT ( ) );
#356 = ORIENTED_EDGE ( 'NONE', *, *, #1, .T. ) ;
#357 = DIRECTION ( 'NONE',  ( 0.000000000000000000, 0.000000000000000000, -1.000000000000000000 ) ) ;
#358 = COLOUR_RGB ( '',0.7921568627450980005, 0.8196078431372548767, 0.9333333333333333481 ) ;
#359 = FILL_AREA_STYLE ('',( #255 ) ) ;
#360 = DIRECTION ( 'NONE',  ( 0.000000000000000000, 0.000000000000000000, -1.000000000000000000 ) ) ;
#361 = ADVANCED_BREP_SHAPE_REPRESENTATION ( '49031', ( #297, #158, #271 ), #37 ) ;
#362 = EDGE_LOOP ( 'NONE', ( #371, #72, #333, #67, #101 ) ) ;
#363 =( LENGTH_UNIT ( ) NAMED_UNIT ( * ) SI_UNIT ( $, .METRE. ) );
#364 = CARTESIAN_POINT ( 'NONE',  ( 7.654042494670951382E-18, 0.2500000000000000555, 0.06249999999999995143 ) ) ;
#365 = ORIENTED_EDGE ( 'NONE', *, *, #142, .T. ) ;
#366 = CARTESIAN_POINT ( 'NONE',  ( 0.000000000000000000, 0.2500000000000000555, 0.000000000000000000 ) ) ;
#367 = SURFACE_SIDE_STYLE ('',( #373 ) ) ;
#368 = UNCERTAINTY_MEASURE_WITH_UNIT (LENGTH_MEASURE( 1.000000000000000082E-05 ), #242, 'distance_accuracy_value', 'NONE');
#369 = STYLED_ITEM ( 'NONE', ( #354 ), #297 ) ;
#370 = DIRECTION ( 'NONE',  ( -0.000000000000000000, -1.000000000000000000, -0.000000000000000000 ) ) ;
#371 = ORIENTED_EDGE ( 'NONE', *, *, #320, .T. ) ;
#372 = AXIS2_PLACEMENT_3D ( 'NONE', #23, #345, #169 ) ;
#373 = SURFACE_STYLE_FILL_AREA ( #7 ) ;
ENDSEC;
END-ISO-10303-21;
