ISO-10303-21;
HEADER;
FILE_DESCRIPTION (( 'STEP AP214' ),
    '1' );
FILE_NAME ('59588.STEP',
    '2023-07-24T15:13:13',
    ( '' ),
    ( '' ),
    'SwSTEP 2.0',
    'SolidWorks 2023',
    '' );
FILE_SCHEMA (( 'AUTOMOTIVE_DESIGN' ));
ENDSEC;

DATA;
#1 = COLOUR_RGB ( '',1.000000000000000000, 0.000000000000000000, 0.000000000000000000 ) ;
#2 = UNCERTAINTY_MEASURE_WITH_UNIT (LENGTH_MEASURE( 1.000000000000000082E-05 ), #97, 'distance_accuracy_value', 'NONE');
#3 = ORIENTED_EDGE ( 'NONE', *, *, #24, .T. ) ;
#4 = PRESENTATION_STYLE_ASSIGNMENT (( #237 ) ) ;
#5 = DIRECTION ( 'NONE',  ( -1.000000000000000000, 0.000000000000000000, 0.000000000000000000 ) ) ;
#6 = PRESENTATION_LAYER_ASSIGNMENT (  '', '', ( #151 ) ) ;
#7 = STYLED_ITEM ( 'NONE', ( #263 ), #306 ) ;
#8 = CYLINDRICAL_SURFACE ( 'NONE', #35, 8.000000000000000000 ) ;
#9 =( LENGTH_UNIT ( ) NAMED_UNIT ( * ) SI_UNIT ( .MILLI., .METRE. ) );
#10 = FACE_OUTER_BOUND ( 'NONE', #325, .T. ) ;
#11 = CARTESIAN_POINT ( 'NONE',  ( 0.000000000000000000, 1.000000000000000000, -7.000000000000000000 ) ) ;
#12 =( LENGTH_UNIT ( ) NAMED_UNIT ( * ) SI_UNIT ( .MILLI., .METRE. ) );
#13 = DIRECTION ( 'NONE',  ( 1.000000000000000000, 0.000000000000000000, 0.000000000000000000 ) ) ;
#14 = EDGE_LOOP ( 'NONE', ( #333, #153, #137, #302 ) ) ;
#15 = DIRECTION ( 'NONE',  ( 0.000000000000000000, 1.000000000000000000, 0.000000000000000000 ) ) ;
#16 = ORIENTED_EDGE ( 'NONE', *, *, #101, .F. ) ;
#17 = FACE_OUTER_BOUND ( 'NONE', #72, .T. ) ;
#18 = DIRECTION ( 'NONE',  ( -0.000000000000000000, -1.000000000000000000, -0.000000000000000000 ) ) ;
#19 = DIRECTION ( 'NONE',  ( 0.000000000000000000, 0.000000000000000000, 1.000000000000000000 ) ) ;
#20 = CARTESIAN_POINT ( 'NONE',  ( 7.999999999999994671, 89.00000000000000000, 9.797174393178821713E-16 ) ) ;
#21 = FILL_AREA_STYLE ('',( #175 ) ) ;
#22 = MECHANICAL_DESIGN_GEOMETRIC_PRESENTATION_REPRESENTATION (  '', ( #309 ), #113 ) ;
#23 = MECHANICAL_DESIGN_GEOMETRIC_PRESENTATION_REPRESENTATION (  '', ( #7 ), #147 ) ;
#24 = EDGE_CURVE ( 'NONE', #236, #320, #321, .T. ) ;
#25 = CARTESIAN_POINT ( 'NONE',  ( 8.000000000000000000, 89.00000000000000000, 0.000000000000000000 ) ) ;
#26 = CIRCLE ( 'NONE', #290, 8.000000000000001776 ) ;
#27 = CIRCLE ( 'NONE', #348, 7.000000000000000000 ) ;
#28 = FILL_AREA_STYLE_COLOUR ( '', #1 ) ;
#29 = AXIS2_PLACEMENT_3D ( 'NONE', #210, #336, #268 ) ;
#30 = STYLED_ITEM ( 'NONE', ( #370 ), #278 ) ;
#31 = ORIENTED_EDGE ( 'NONE', *, *, #83, .T. ) ;
#32 = FILL_AREA_STYLE ('',( #235 ) ) ;
#33 = SURFACE_SIDE_STYLE ('',( #345 ) ) ;
#34 = CARTESIAN_POINT ( 'NONE',  ( 0.000000000000000000, 1.000000000000000000, -8.000000000000000000 ) ) ;
#35 = AXIS2_PLACEMENT_3D ( 'NONE', #104, #353, #332 ) ;
#36 = DIRECTION ( 'NONE',  ( 0.000000000000000000, -1.000000000000000000, -0.000000000000000000 ) ) ;
#37 = ORIENTED_EDGE ( 'NONE', *, *, #83, .F. ) ;
#38 = FILL_AREA_STYLE ('',( #28 ) ) ;
#39 = SURFACE_STYLE_FILL_AREA ( #304 ) ;
#40 = ORIENTED_EDGE ( 'NONE', *, *, #260, .F. ) ;
#41 = CARTESIAN_POINT ( 'NONE',  ( 9.797174393178825657E-16, 1.000000000000000000, 8.000000000000000000 ) ) ;
#42 = ORIENTED_EDGE ( 'NONE', *, *, #261, .F. ) ;
#43 = STYLED_ITEM ( 'NONE', ( #368 ), #250 ) ;
#44 = PRESENTATION_STYLE_ASSIGNMENT (( #299 ) ) ;
#45 = AXIS2_PLACEMENT_3D ( 'NONE', #126, #170, #76 ) ;
#46 = PRODUCT_RELATED_PRODUCT_CATEGORY ( 'part', '', ( #200 ) ) ;
#47 = ORIENTED_EDGE ( 'NONE', *, *, #181, .F. ) ;
#48 = ORIENTED_EDGE ( 'NONE', *, *, #101, .T. ) ;
#49 =( LENGTH_UNIT ( ) NAMED_UNIT ( * ) SI_UNIT ( .MILLI., .METRE. ) );
#50 = AXIS2_PLACEMENT_3D ( 'NONE', #196, #329, #103 ) ;
#51 = SURFACE_STYLE_FILL_AREA ( #367 ) ;
#52 = EDGE_CURVE ( 'NONE', #320, #189, #285, .T. ) ;
#53 = CIRCLE ( 'NONE', #50, 7.999999999999992895 ) ;
#54 = CIRCLE ( 'NONE', #322, 1.000000000000000000 ) ;
#55 = CARTESIAN_POINT ( 'NONE',  ( 9.184850993605147944E-16, 0.000000000000000000, 7.000000000000000000 ) ) ;
#56 = DIRECTION ( 'NONE',  ( -1.224646799147353454E-16, 0.000000000000000000, -1.000000000000000000 ) ) ;
#57 =( NAMED_UNIT ( * ) PLANE_ANGLE_UNIT ( ) SI_UNIT ( $, .RADIAN. ) );
#58 = EDGE_CURVE ( 'NONE', #105, #264, #305, .T. ) ;
#59 =( NAMED_UNIT ( * ) SI_UNIT ( $, .STERADIAN. ) SOLID_ANGLE_UNIT ( ) );
#60 = PRESENTATION_LAYER_ASSIGNMENT (  '', '', ( #309 ) ) ;
#61 = CARTESIAN_POINT ( 'NONE',  ( 0.000000000000000000, 0.000000000000000000, 0.000000000000000000 ) ) ;
#62 =( NAMED_UNIT ( * ) SI_UNIT ( $, .STERADIAN. ) SOLID_ANGLE_UNIT ( ) );
#63 = ORIENTED_EDGE ( 'NONE', *, *, #218, .T. ) ;
#64 = DIRECTION ( 'NONE',  ( -0.000000000000000000, -1.000000000000000000, -0.000000000000000000 ) ) ;
#65 = AXIS2_PLACEMENT_3D ( 'NONE', #219, #213, #134 ) ;
#66 = AXIS2_PLACEMENT_3D ( 'NONE', #183, #128, #296 ) ;
#67 = CARTESIAN_POINT ( 'NONE',  ( 0.000000000000000000, 0.000000000000000000, 0.000000000000000000 ) ) ;
#68 = APPLICATION_CONTEXT ( 'automotive_design' ) ;
#69 = ORIENTED_EDGE ( 'NONE', *, *, #181, .T. ) ;
#70 = ORIENTED_EDGE ( 'NONE', *, *, #369, .F. ) ;
#71 = FACE_OUTER_BOUND ( 'NONE', #351, .T. ) ;
#72 = EDGE_LOOP ( 'NONE', ( #191, #152, #40, #47 ) ) ;
#73 = AXIS2_PLACEMENT_3D ( 'NONE', #67, #36, #102 ) ;
#74 = PRODUCT_DEFINITION_FORMATION_WITH_SPECIFIED_SOURCE ( 'ANY', '', #200, .NOT_KNOWN. ) ;
#75 = DIRECTION ( 'NONE',  ( -0.000000000000000000, -1.000000000000000000, -0.000000000000000000 ) ) ;
#76 = DIRECTION ( 'NONE',  ( 0.000000000000000000, 0.000000000000000000, -1.000000000000000000 ) ) ;
#77 = FILL_AREA_STYLE_COLOUR ( '', #259 ) ;
#78 = UNCERTAINTY_MEASURE_WITH_UNIT (LENGTH_MEASURE( 1.000000000000000082E-05 ), #216, 'distance_accuracy_value', 'NONE');
#79 = DIRECTION ( 'NONE',  ( -0.000000000000000000, -1.000000000000000000, -0.000000000000000000 ) ) ;
#80 = ADVANCED_FACE ( 'NONE', ( #363 ), #159, .T. ) ;
#81 =( GEOMETRIC_REPRESENTATION_CONTEXT ( 3 ) GLOBAL_UNCERTAINTY_ASSIGNED_CONTEXT ( ( #214 ) ) GLOBAL_UNIT_ASSIGNED_CONTEXT ( ( #49, #169, #222 ) ) REPRESENTATION_CONTEXT ( 'NONE', 'WORKASPACE' ) );
#82 = PRODUCT_DEFINITION_SHAPE ( 'NONE', 'NONE',  #95 ) ;
#83 = EDGE_CURVE ( 'NONE', #168, #262, #255, .T. ) ;
#84 = CARTESIAN_POINT ( 'NONE',  ( -1.714505518806293849E-15, 89.00000000000000000, 0.000000000000000000 ) ) ;
#85 = CARTESIAN_POINT ( 'NONE',  ( 8.000000000000000000, 89.00000000000000000, 9.797174393178825657E-16 ) ) ;
#86 = STYLED_ITEM ( 'NONE', ( #167 ), #240 ) ;
#87 = AXIS2_PLACEMENT_3D ( 'NONE', #61, #207, #298 ) ;
#88 = SURFACE_STYLE_USAGE ( .BOTH. , #232 ) ;
#89 = DIRECTION ( 'NONE',  ( -1.231212018341879827E-16, 1.000000000000000000, -0.000000000000000000 ) ) ;
#90 =( NAMED_UNIT ( * ) PLANE_ANGLE_UNIT ( ) SI_UNIT ( $, .RADIAN. ) );
#91 = ORIENTED_EDGE ( 'NONE', *, *, #224, .F. ) ;
#92 = AXIS2_PLACEMENT_3D ( 'NONE', #355, #75, #192 ) ;
#93 = VECTOR ( 'NONE', #182, 1000.000000000000000 ) ;
#94 = ADVANCED_BREP_SHAPE_REPRESENTATION ( '59588', ( #278, #157, #359 ), #205 ) ;
#95 = PRODUCT_DEFINITION ( 'UNKNOWN', '', #74, #122 ) ;
#96 = DIRECTION ( 'NONE',  ( -1.231212018341879827E-16, 1.000000000000000000, -0.000000000000000000 ) ) ;
#97 =( LENGTH_UNIT ( ) NAMED_UNIT ( * ) SI_UNIT ( .MILLI., .METRE. ) );
#98 = CARTESIAN_POINT ( 'NONE',  ( -1.714505518806293652E-15, 89.00000000000000000, 0.000000000000000000 ) ) ;
#99 = CARTESIAN_POINT ( 'NONE',  ( 0.000000000000000000, 24.00000000000000000, 0.000000000000000000 ) ) ;
#100 = FACE_OUTER_BOUND ( 'NONE', #220, .T. ) ;
#101 = EDGE_CURVE ( 'NONE', #105, #272, #53, .T. ) ;
#102 = DIRECTION ( 'NONE',  ( 0.000000000000000000, 0.000000000000000000, -1.000000000000000000 ) ) ;
#103 = DIRECTION ( 'NONE',  ( -1.000000000000000000, 0.000000000000000000, 0.000000000000000000 ) ) ;
#104 = CARTESIAN_POINT ( 'NONE',  ( 0.000000000000000000, 0.000000000000000000, 0.000000000000000000 ) ) ;
#105 = VERTEX_POINT ( 'NONE', #360 ) ;
#106 = CIRCLE ( 'NONE', #267, 8.000000000000000000 ) ;
#107 = CIRCLE ( 'NONE', #87, 7.000000000000000000 ) ;
#108 = EDGE_LOOP ( 'NONE', ( #217, #270, #334, #127 ) ) ;
#109 =( NAMED_UNIT ( * ) PLANE_ANGLE_UNIT ( ) SI_UNIT ( $, .RADIAN. ) );
#110 = DIRECTION ( 'NONE',  ( 1.231212018341879827E-16, -1.000000000000000000, 0.000000000000000000 ) ) ;
#111 = CARTESIAN_POINT ( 'NONE',  ( 0.000000000000000000, 0.000000000000000000, 0.000000000000000000 ) ) ;
#112 = CLOSED_SHELL ( 'NONE', ( #203, #306, #240, #250, #330, #195 ) ) ;
#113 =( GEOMETRIC_REPRESENTATION_CONTEXT ( 3 ) GLOBAL_UNCERTAINTY_ASSIGNED_CONTEXT ( ( #144 ) ) GLOBAL_UNIT_ASSIGNED_CONTEXT ( ( #116, #57, #59 ) ) REPRESENTATION_CONTEXT ( 'NONE', 'WORKASPACE' ) );
#114 = SURFACE_SIDE_STYLE ('',( #51 ) ) ;
#115 = ADVANCED_FACE ( 'NONE', ( #100 ), #230, .F. ) ;
#116 =( LENGTH_UNIT ( ) NAMED_UNIT ( * ) SI_UNIT ( .MILLI., .METRE. ) );
#117 = CIRCLE ( 'NONE', #65, 8.000000000000001776 ) ;
#118 = MECHANICAL_DESIGN_GEOMETRIC_PRESENTATION_REPRESENTATION (  '', ( #286 ), #212 ) ;
#119 = CARTESIAN_POINT ( 'NONE',  ( 0.000000000000000000, 24.00000000000000000, 0.000000000000000000 ) ) ;
#120 = SURFACE_STYLE_FILL_AREA ( #38 ) ;
#121 = FACE_OUTER_BOUND ( 'NONE', #186, .T. ) ;
#122 = PRODUCT_DEFINITION_CONTEXT ( 'detailed design', #68, 'design' ) ;
#123 = CIRCLE ( 'NONE', #45, 8.000000000000000000 ) ;
#124 =( NAMED_UNIT ( * ) PLANE_ANGLE_UNIT ( ) SI_UNIT ( $, .RADIAN. ) );
#125 = DIRECTION ( 'NONE',  ( -0.000000000000000000, -1.000000000000000000, -0.000000000000000000 ) ) ;
#126 = CARTESIAN_POINT ( 'NONE',  ( 0.000000000000000000, 1.000000000000000000, 0.000000000000000000 ) ) ;
#127 = ORIENTED_EDGE ( 'NONE', *, *, #174, .F. ) ;
#128 = DIRECTION ( 'NONE',  ( -0.000000000000000000, -1.000000000000000000, -0.000000000000000000 ) ) ;
#129 = FILL_AREA_STYLE_COLOUR ( '', #238 ) ;
#130 = ADVANCED_FACE ( 'NONE', ( #146 ), #340, .F. ) ;
#131 = DIRECTION ( 'NONE',  ( -1.231212018341879827E-16, 1.000000000000000000, -0.000000000000000000 ) ) ;
#132 = PRESENTATION_LAYER_ASSIGNMENT (  '', '', ( #43 ) ) ;
#133 = FILL_AREA_STYLE ('',( #162 ) ) ;
#134 = DIRECTION ( 'NONE',  ( -1.000000000000000000, 0.000000000000000000, 0.000000000000000000 ) ) ;
#135 = ORIENTED_EDGE ( 'NONE', *, *, #369, .T. ) ;
#136 = CARTESIAN_POINT ( 'NONE',  ( -7.999999999999986677, 23.99999999999999289, 0.000000000000000000 ) ) ;
#137 = ORIENTED_EDGE ( 'NONE', *, *, #284, .F. ) ;
#138 = EDGE_CURVE ( 'NONE', #262, #168, #106, .T. ) ;
#139 = COLOUR_RGB ( '',1.000000000000000000, 0.000000000000000000, 0.000000000000000000 ) ;
#140 = DIRECTION ( 'NONE',  ( 1.000000000000000000, 0.000000000000000000, -1.224646799147353207E-16 ) ) ;
#141 = TOROIDAL_SURFACE ( 'NONE', #66, 7.000000000000000000, 1.000000000000000000 ) ;
#142 = SURFACE_STYLE_FILL_AREA ( #21 ) ;
#143 = DIRECTION ( 'NONE',  ( -1.231212018341879827E-16, 1.000000000000000000, -0.000000000000000000 ) ) ;
#144 = UNCERTAINTY_MEASURE_WITH_UNIT (LENGTH_MEASURE( 1.000000000000000082E-05 ), #116, 'distance_accuracy_value', 'NONE');
#145 =( GEOMETRIC_REPRESENTATION_CONTEXT ( 3 ) GLOBAL_UNCERTAINTY_ASSIGNED_CONTEXT ( ( #339 ) ) GLOBAL_UNIT_ASSIGNED_CONTEXT ( ( #171, #197, #312 ) ) REPRESENTATION_CONTEXT ( 'NONE', 'WORKASPACE' ) );
#146 = FACE_OUTER_BOUND ( 'NONE', #361, .T. ) ;
#147 =( GEOMETRIC_REPRESENTATION_CONTEXT ( 3 ) GLOBAL_UNCERTAINTY_ASSIGNED_CONTEXT ( ( #2 ) ) GLOBAL_UNIT_ASSIGNED_CONTEXT ( ( #97, #187, #356 ) ) REPRESENTATION_CONTEXT ( 'NONE', 'WORKASPACE' ) );
#148 = SURFACE_STYLE_USAGE ( .BOTH. , #114 ) ;
#149 = FACE_OUTER_BOUND ( 'NONE', #14, .T. ) ;
#150 = PRESENTATION_STYLE_ASSIGNMENT (( #318 ) ) ;
#151 = STYLED_ITEM ( 'NONE', ( #44 ), #203 ) ;
#152 = ORIENTED_EDGE ( 'NONE', *, *, #323, .T. ) ;
#153 = ORIENTED_EDGE ( 'NONE', *, *, #261, .T. ) ;
#154 = SURFACE_SIDE_STYLE ('',( #120 ) ) ;
#155 = STYLED_ITEM ( 'NONE', ( #229 ), #157 ) ;
#156 = PRESENTATION_LAYER_ASSIGNMENT (  '', '', ( #30 ) ) ;
#157 = MANIFOLD_SOLID_BREP ( 'Revolve - Tool Body (Straight Shanked)', #289 ) ;
#158 = CARTESIAN_POINT ( 'NONE',  ( -8.000000000000003553, 89.00000000000000000, 0.000000000000000000 ) ) ;
#159 = CYLINDRICAL_SURFACE ( 'NONE', #29, 7.999999999999996447 ) ;
#160 = ADVANCED_FACE ( 'NONE', ( #313 ), #280, .T. ) ;
#161 = DIRECTION ( 'NONE',  ( 0.000000000000000000, 0.000000000000000000, -1.000000000000000000 ) ) ;
#162 = FILL_AREA_STYLE_COLOUR ( '', #164 ) ;
#163 = ORIENTED_EDGE ( 'NONE', *, *, #323, .F. ) ;
#164 = COLOUR_RGB ( '',1.000000000000000000, 0.000000000000000000, 0.000000000000000000 ) ;
#165 = COLOUR_RGB ( '',1.000000000000000000, 0.000000000000000000, 0.000000000000000000 ) ;
#166 = ORIENTED_EDGE ( 'NONE', *, *, #138, .F. ) ;
#167 = PRESENTATION_STYLE_ASSIGNMENT (( #248 ) ) ;
#168 = VERTEX_POINT ( 'NONE', #198 ) ;
#169 =( NAMED_UNIT ( * ) PLANE_ANGLE_UNIT ( ) SI_UNIT ( $, .RADIAN. ) );
#170 = DIRECTION ( 'NONE',  ( -0.000000000000000000, -1.000000000000000000, -0.000000000000000000 ) ) ;
#171 =( LENGTH_UNIT ( ) NAMED_UNIT ( * ) SI_UNIT ( .MILLI., .METRE. ) );
#172 = VECTOR ( 'NONE', #131, 1000.000000000000000 ) ;
#173 = DIRECTION ( 'NONE',  ( -0.000000000000000000, -1.000000000000000000, -0.000000000000000000 ) ) ;
#174 = EDGE_CURVE ( 'NONE', #272, #242, #315, .T. ) ;
#175 = FILL_AREA_STYLE_COLOUR ( '', #310 ) ;
#176 = CYLINDRICAL_SURFACE ( 'NONE', #292, 8.000000000000000000 ) ;
#177 = FILL_AREA_STYLE ('',( #266 ) ) ;
#178 = PRESENTATION_LAYER_ASSIGNMENT (  '', '', ( #155 ) ) ;
#179 = AXIS2_PLACEMENT_3D ( 'NONE', #257, #79, #201 ) ;
#180 = CARTESIAN_POINT ( 'NONE',  ( 0.000000000000000000, 0.000000000000000000, 0.000000000000000000 ) ) ;
#181 = EDGE_CURVE ( 'NONE', #262, #320, #184, .T. ) ;
#182 = DIRECTION ( 'NONE',  ( -0.000000000000000000, -1.000000000000000000, -0.000000000000000000 ) ) ;
#183 = CARTESIAN_POINT ( 'NONE',  ( 0.000000000000000000, 1.000000000000000000, 0.000000000000000000 ) ) ;
#184 = LINE ( 'NONE', #349, #93 ) ;
#185 = PLANE ( 'NONE',  #73 ) ;
#186 = EDGE_LOOP ( 'NONE', ( #163, #31, #69, #275 ) ) ;
#187 =( NAMED_UNIT ( * ) PLANE_ANGLE_UNIT ( ) SI_UNIT ( $, .RADIAN. ) );
#188 = FILL_AREA_STYLE_COLOUR ( '', #204 ) ;
#189 = VERTEX_POINT ( 'NONE', #231 ) ;
#190 = DIRECTION ( 'NONE',  ( -1.000000000000000000, 0.000000000000000000, 0.000000000000000000 ) ) ;
#191 = ORIENTED_EDGE ( 'NONE', *, *, #138, .T. ) ;
#192 = DIRECTION ( 'NONE',  ( 0.000000000000000000, 0.000000000000000000, -1.000000000000000000 ) ) ;
#193 = VECTOR ( 'NONE', #89, 1000.000000000000000 ) ;
#194 = SURFACE_STYLE_FILL_AREA ( #244 ) ;
#195 = ADVANCED_FACE ( 'NONE', ( #297 ), #295, .T. ) ;
#196 = CARTESIAN_POINT ( 'NONE',  ( 6.288372600415925717E-15, 23.99999999999999289, 0.000000000000000000 ) ) ;
#197 =( NAMED_UNIT ( * ) PLANE_ANGLE_UNIT ( ) SI_UNIT ( $, .RADIAN. ) );
#198 = CARTESIAN_POINT ( 'NONE',  ( 9.797174393178825657E-16, 24.00000000000000000, 8.000000000000000000 ) ) ;
#199 = AXIS2_PLACEMENT_3D ( 'NONE', #119, #15, #271 ) ;
#200 = PRODUCT ( '59588', '59588', '', ( #276 ) ) ;
#201 = DIRECTION ( 'NONE',  ( 0.000000000000000000, 0.000000000000000000, -1.000000000000000000 ) ) ;
#202 = CARTESIAN_POINT ( 'NONE',  ( 0.000000000000000000, 24.00000000000000000, -8.000000000000000000 ) ) ;
#203 = ADVANCED_FACE ( 'NONE', ( #17 ), #8, .T. ) ;
#204 = COLOUR_RGB ( '',1.000000000000000000, 0.000000000000000000, 0.000000000000000000 ) ;
#205 =( GEOMETRIC_REPRESENTATION_CONTEXT ( 3 ) GLOBAL_UNCERTAINTY_ASSIGNED_CONTEXT ( ( #291 ) ) GLOBAL_UNIT_ASSIGNED_CONTEXT ( ( #9, #303, #243 ) ) REPRESENTATION_CONTEXT ( 'NONE', 'WORKASPACE' ) );
#206 = CARTESIAN_POINT ( 'NONE',  ( 6.288372600415925717E-15, 23.99999999999999289, 0.000000000000000000 ) ) ;
#207 = DIRECTION ( 'NONE',  ( -0.000000000000000000, -1.000000000000000000, -0.000000000000000000 ) ) ;
#208 = SURFACE_SIDE_STYLE ('',( #335 ) ) ;
#209 = SURFACE_SIDE_STYLE ('',( #352 ) ) ;
#210 = CARTESIAN_POINT ( 'NONE',  ( -1.714505518806293849E-15, 89.00000000000000000, 0.000000000000000000 ) ) ;
#211 =( GEOMETRIC_REPRESENTATION_CONTEXT ( 3 ) GLOBAL_UNCERTAINTY_ASSIGNED_CONTEXT ( ( #78 ) ) GLOBAL_UNIT_ASSIGNED_CONTEXT ( ( #216, #326, #62 ) ) REPRESENTATION_CONTEXT ( 'NONE', 'WORKASPACE' ) );
#212 =( GEOMETRIC_REPRESENTATION_CONTEXT ( 3 ) GLOBAL_UNCERTAINTY_ASSIGNED_CONTEXT ( ( #354 ) ) GLOBAL_UNIT_ASSIGNED_CONTEXT ( ( #12, #90, #331 ) ) REPRESENTATION_CONTEXT ( 'NONE', 'WORKASPACE' ) );
#213 = DIRECTION ( 'NONE',  ( -1.231212018341879827E-16, 1.000000000000000000, -0.000000000000000000 ) ) ;
#214 = UNCERTAINTY_MEASURE_WITH_UNIT (LENGTH_MEASURE( 1.000000000000000082E-05 ), #49, 'distance_accuracy_value', 'NONE');
#215 = ORIENTED_EDGE ( 'NONE', *, *, #284, .T. ) ;
#216 =( LENGTH_UNIT ( ) NAMED_UNIT ( * ) SI_UNIT ( .MILLI., .METRE. ) );
#217 = ORIENTED_EDGE ( 'NONE', *, *, #343, .T. ) ;
#218 = EDGE_CURVE ( 'NONE', #242, #264, #26, .T. ) ;
#219 = CARTESIAN_POINT ( 'NONE',  ( -1.714505518806293652E-15, 89.00000000000000000, 0.000000000000000000 ) ) ;
#220 = EDGE_LOOP ( 'NONE', ( #269, #16 ) ) ;
#221 = DIRECTION ( 'NONE',  ( 1.000000000000000000, 1.231212018341879827E-16, 0.000000000000000000 ) ) ;
#222 =( NAMED_UNIT ( * ) SI_UNIT ( $, .STERADIAN. ) SOLID_ANGLE_UNIT ( ) );
#223 = SHAPE_DEFINITION_REPRESENTATION ( #82, #94 ) ;
#224 = EDGE_CURVE ( 'NONE', #264, #242, #117, .T. ) ;
#225 = APPLICATION_CONTEXT ( 'automotive_design' ) ;
#226 = CARTESIAN_POINT ( 'NONE',  ( 6.288372600415925717E-15, 24.00000000000000000, 0.000000000000000000 ) ) ;
#227 = AXIS2_PLACEMENT_3D ( 'NONE', #84, #143, #258 ) ;
#228 =( GEOMETRIC_REPRESENTATION_CONTEXT ( 3 ) GLOBAL_UNCERTAINTY_ASSIGNED_CONTEXT ( ( #328 ) ) GLOBAL_UNIT_ASSIGNED_CONTEXT ( ( #319, #109, #273 ) ) REPRESENTATION_CONTEXT ( 'NONE', 'WORKASPACE' ) );
#229 = PRESENTATION_STYLE_ASSIGNMENT (( #148 ) ) ;
#230 = PLANE ( 'NONE',  #314 ) ;
#231 = CARTESIAN_POINT ( 'NONE',  ( 0.000000000000000000, 0.000000000000000000, -7.000000000000000000 ) ) ;
#232 = SURFACE_SIDE_STYLE ('',( #39 ) ) ;
#233 = MECHANICAL_DESIGN_GEOMETRIC_PRESENTATION_REPRESENTATION (  '', ( #155 ), #145 ) ;
#234 = VECTOR ( 'NONE', #125, 1000.000000000000000 ) ;
#235 = FILL_AREA_STYLE_COLOUR ( '', #165 ) ;
#236 = VERTEX_POINT ( 'NONE', #41 ) ;
#237 = SURFACE_STYLE_USAGE ( .BOTH. , #209 ) ;
#238 = COLOUR_RGB ( '',1.000000000000000000, 0.000000000000000000, 0.000000000000000000 ) ;
#239 = SURFACE_SIDE_STYLE ('',( #194 ) ) ;
#240 = ADVANCED_FACE ( 'NONE', ( #71 ), #185, .T. ) ;
#241 =( LENGTH_UNIT ( ) NAMED_UNIT ( * ) SI_UNIT ( .MILLI., .METRE. ) );
#242 = VERTEX_POINT ( 'NONE', #158 ) ;
#243 =( NAMED_UNIT ( * ) SI_UNIT ( $, .STERADIAN. ) SOLID_ANGLE_UNIT ( ) );
#244 = FILL_AREA_STYLE ('',( #129 ) ) ;
#245 = ORIENTED_EDGE ( 'NONE', *, *, #174, .T. ) ;
#246 = MECHANICAL_DESIGN_GEOMETRIC_PRESENTATION_REPRESENTATION (  '', ( #43 ), #81 ) ;
#247 = MECHANICAL_DESIGN_GEOMETRIC_PRESENTATION_REPRESENTATION (  '', ( #30 ), #228 ) ;
#248 = SURFACE_STYLE_USAGE ( .BOTH. , #208 ) ;
#249 = DIRECTION ( 'NONE',  ( -1.000000000000000000, 0.000000000000000000, 0.000000000000000000 ) ) ;
#250 = ADVANCED_FACE ( 'NONE', ( #10 ), #337, .T. ) ;
#251 = DIRECTION ( 'NONE',  ( 0.000000000000000000, 0.000000000000000000, 1.000000000000000000 ) ) ;
#252 = CARTESIAN_POINT ( 'NONE',  ( 8.572527594031473190E-16, 1.000000000000000000, 7.000000000000000000 ) ) ;
#253 = EDGE_LOOP ( 'NONE', ( #166, #37 ) ) ;
#254 = AXIS2_PLACEMENT_3D ( 'NONE', #11, #249, #251 ) ;
#255 = CIRCLE ( 'NONE', #342, 8.000000000000000000 ) ;
#256 = DIRECTION ( 'NONE',  ( -1.231212018341879827E-16, 1.000000000000000000, 0.000000000000000000 ) ) ;
#257 = CARTESIAN_POINT ( 'NONE',  ( 0.000000000000000000, 1.000000000000000000, 0.000000000000000000 ) ) ;
#258 = DIRECTION ( 'NONE',  ( -1.000000000000000000, 0.000000000000000000, 0.000000000000000000 ) ) ;
#259 = COLOUR_RGB ( '',0.7921568627450980005, 0.8196078431372548767, 0.9333333333333333481 ) ;
#260 = EDGE_CURVE ( 'NONE', #320, #236, #123, .T. ) ;
#261 = EDGE_CURVE ( 'NONE', #236, #311, #54, .T. ) ;
#262 = VERTEX_POINT ( 'NONE', #202 ) ;
#263 = PRESENTATION_STYLE_ASSIGNMENT (( #288 ) ) ;
#264 = VERTEX_POINT ( 'NONE', #85 ) ;
#265 = DIRECTION ( 'NONE',  ( 0.000000000000000000, 0.000000000000000000, -1.000000000000000000 ) ) ;
#266 = FILL_AREA_STYLE_COLOUR ( '', #139 ) ;
#267 = AXIS2_PLACEMENT_3D ( 'NONE', #344, #173, #283 ) ;
#268 = DIRECTION ( 'NONE',  ( -1.000000000000000000, 0.000000000000000000, 0.000000000000000000 ) ) ;
#269 = ORIENTED_EDGE ( 'NONE', *, *, #343, .F. ) ;
#270 = ORIENTED_EDGE ( 'NONE', *, *, #58, .T. ) ;
#271 = DIRECTION ( 'NONE',  ( 0.000000000000000000, -0.000000000000000000, 1.000000000000000000 ) ) ;
#272 = VERTEX_POINT ( 'NONE', #136 ) ;
#273 =( NAMED_UNIT ( * ) SI_UNIT ( $, .STERADIAN. ) SOLID_ANGLE_UNIT ( ) );
#274 = CARTESIAN_POINT ( 'NONE',  ( 0.000000000000000000, 0.000000000000000000, 0.000000000000000000 ) ) ;
#275 = ORIENTED_EDGE ( 'NONE', *, *, #24, .F. ) ;
#276 = PRODUCT_CONTEXT ( 'NONE', #225, 'mechanical' ) ;
#277 =( GEOMETRIC_REPRESENTATION_CONTEXT ( 3 ) GLOBAL_UNCERTAINTY_ASSIGNED_CONTEXT ( ( #281 ) ) GLOBAL_UNIT_ASSIGNED_CONTEXT ( ( #241, #124, #362 ) ) REPRESENTATION_CONTEXT ( 'NONE', 'WORKASPACE' ) );
#278 = MANIFOLD_SOLID_BREP ( 'Revolve - Cutting Edge', #112 ) ;
#279 = PRESENTATION_LAYER_ASSIGNMENT (  '', '', ( #286 ) ) ;
#280 = CYLINDRICAL_SURFACE ( 'NONE', #227, 7.999999999999996447 ) ;
#281 = UNCERTAINTY_MEASURE_WITH_UNIT (LENGTH_MEASURE( 1.000000000000000082E-05 ), #241, 'distance_accuracy_value', 'NONE');
#282 = CARTESIAN_POINT ( 'NONE',  ( -7.999999999999998224, 89.00000000000000000, 0.000000000000000000 ) ) ;
#283 = DIRECTION ( 'NONE',  ( 0.000000000000000000, 0.000000000000000000, -1.000000000000000000 ) ) ;
#284 = EDGE_CURVE ( 'NONE', #189, #311, #27, .T. ) ;
#285 = CIRCLE ( 'NONE', #254, 1.000000000000000000 ) ;
#286 = STYLED_ITEM ( 'NONE', ( #4 ), #330 ) ;
#287 = SURFACE_SIDE_STYLE ('',( #142 ) ) ;
#288 = SURFACE_STYLE_USAGE ( .BOTH. , #154 ) ;
#289 = CLOSED_SHELL ( 'NONE', ( #80, #115, #160, #130 ) ) ;
#290 = AXIS2_PLACEMENT_3D ( 'NONE', #98, #96, #190 ) ;
#291 = UNCERTAINTY_MEASURE_WITH_UNIT (LENGTH_MEASURE( 1.000000000000000082E-05 ), #9, 'distance_accuracy_value', 'NONE');
#292 = AXIS2_PLACEMENT_3D ( 'NONE', #180, #64, #265 ) ;
#293 = EDGE_LOOP ( 'NONE', ( #307, #48, #245, #91 ) ) ;
#294 = LINE ( 'NONE', #350, #234 ) ;
#295 = PLANE ( 'NONE',  #199 ) ;
#296 = DIRECTION ( 'NONE',  ( 0.000000000000000000, 0.000000000000000000, -1.000000000000000000 ) ) ;
#297 = FACE_OUTER_BOUND ( 'NONE', #253, .T. ) ;
#298 = DIRECTION ( 'NONE',  ( 0.000000000000000000, 0.000000000000000000, -1.000000000000000000 ) ) ;
#299 = SURFACE_STYLE_USAGE ( .BOTH. , #239 ) ;
#300 = PRESENTATION_LAYER_ASSIGNMENT (  '', '', ( #86 ) ) ;
#301 = PRESENTATION_LAYER_ASSIGNMENT (  '', '', ( #7 ) ) ;
#302 = ORIENTED_EDGE ( 'NONE', *, *, #52, .F. ) ;
#303 =( NAMED_UNIT ( * ) PLANE_ANGLE_UNIT ( ) SI_UNIT ( $, .RADIAN. ) );
#304 = FILL_AREA_STYLE ('',( #188 ) ) ;
#305 = LINE ( 'NONE', #20, #172 ) ;
#306 = ADVANCED_FACE ( 'NONE', ( #149 ), #141, .T. ) ;
#307 = ORIENTED_EDGE ( 'NONE', *, *, #58, .F. ) ;
#308 = ORIENTED_EDGE ( 'NONE', *, *, #52, .T. ) ;
#309 = STYLED_ITEM ( 'NONE', ( #150 ), #195 ) ;
#310 = COLOUR_RGB ( '',0.7921568627450980005, 0.8196078431372548767, 0.9333333333333333481 ) ;
#311 = VERTEX_POINT ( 'NONE', #55 ) ;
#312 =( NAMED_UNIT ( * ) SI_UNIT ( $, .STERADIAN. ) SOLID_ANGLE_UNIT ( ) );
#313 = FACE_OUTER_BOUND ( 'NONE', #293, .T. ) ;
#314 = AXIS2_PLACEMENT_3D ( 'NONE', #226, #256, #316 ) ;
#315 = LINE ( 'NONE', #282, #193 ) ;
#316 = DIRECTION ( 'NONE',  ( -1.000000000000000000, -1.231212018341879827E-16, 0.000000000000000000 ) ) ;
#317 = DIRECTION ( 'NONE',  ( 0.000000000000000000, 0.000000000000000000, -1.000000000000000000 ) ) ;
#318 = SURFACE_STYLE_USAGE ( .BOTH. , #33 ) ;
#319 =( LENGTH_UNIT ( ) NAMED_UNIT ( * ) SI_UNIT ( .MILLI., .METRE. ) );
#320 = VERTEX_POINT ( 'NONE', #34 ) ;
#321 = CIRCLE ( 'NONE', #92, 8.000000000000000000 ) ;
#322 = AXIS2_PLACEMENT_3D ( 'NONE', #252, #140, #56 ) ;
#323 = EDGE_CURVE ( 'NONE', #168, #236, #294, .T. ) ;
#324 = DIRECTION ( 'NONE',  ( -1.231212018341879827E-16, 1.000000000000000000, -0.000000000000000000 ) ) ;
#325 = EDGE_LOOP ( 'NONE', ( #42, #3, #308, #70 ) ) ;
#326 =( NAMED_UNIT ( * ) PLANE_ANGLE_UNIT ( ) SI_UNIT ( $, .RADIAN. ) );
#327 = AXIS2_PLACEMENT_3D ( 'NONE', #206, #324, #5 ) ;
#328 = UNCERTAINTY_MEASURE_WITH_UNIT (LENGTH_MEASURE( 1.000000000000000082E-05 ), #319, 'distance_accuracy_value', 'NONE');
#329 = DIRECTION ( 'NONE',  ( -1.231212018341879827E-16, 1.000000000000000000, -0.000000000000000000 ) ) ;
#330 = ADVANCED_FACE ( 'NONE', ( #121 ), #176, .T. ) ;
#331 =( NAMED_UNIT ( * ) SI_UNIT ( $, .STERADIAN. ) SOLID_ANGLE_UNIT ( ) );
#332 = DIRECTION ( 'NONE',  ( 0.000000000000000000, 0.000000000000000000, -1.000000000000000000 ) ) ;
#333 = ORIENTED_EDGE ( 'NONE', *, *, #260, .T. ) ;
#334 = ORIENTED_EDGE ( 'NONE', *, *, #218, .F. ) ;
#335 = SURFACE_STYLE_FILL_AREA ( #133 ) ;
#336 = DIRECTION ( 'NONE',  ( -1.231212018341879827E-16, 1.000000000000000000, -0.000000000000000000 ) ) ;
#337 = TOROIDAL_SURFACE ( 'NONE', #179, 7.000000000000000000, 1.000000000000000000 ) ;
#338 = CIRCLE ( 'NONE', #327, 7.999999999999992895 ) ;
#339 = UNCERTAINTY_MEASURE_WITH_UNIT (LENGTH_MEASURE( 1.000000000000000082E-05 ), #171, 'distance_accuracy_value', 'NONE');
#340 = PLANE ( 'NONE',  #341 ) ;
#341 = AXIS2_PLACEMENT_3D ( 'NONE', #25, #110, #221 ) ;
#342 = AXIS2_PLACEMENT_3D ( 'NONE', #99, #18, #161 ) ;
#343 = EDGE_CURVE ( 'NONE', #272, #105, #338, .T. ) ;
#344 = CARTESIAN_POINT ( 'NONE',  ( 0.000000000000000000, 24.00000000000000000, 0.000000000000000000 ) ) ;
#345 = SURFACE_STYLE_FILL_AREA ( #177 ) ;
#346 = SURFACE_STYLE_USAGE ( .BOTH. , #287 ) ;
#347 = MECHANICAL_DESIGN_GEOMETRIC_PRESENTATION_REPRESENTATION (  '', ( #86 ), #211 ) ;
#348 = AXIS2_PLACEMENT_3D ( 'NONE', #111, #364, #317 ) ;
#349 = CARTESIAN_POINT ( 'NONE',  ( 0.000000000000000000, 0.000000000000000000, -8.000000000000000000 ) ) ;
#350 = CARTESIAN_POINT ( 'NONE',  ( 9.797174393178825657E-16, 0.000000000000000000, 8.000000000000000000 ) ) ;
#351 = EDGE_LOOP ( 'NONE', ( #215, #135 ) ) ;
#352 = SURFACE_STYLE_FILL_AREA ( #32 ) ;
#353 = DIRECTION ( 'NONE',  ( -0.000000000000000000, -1.000000000000000000, -0.000000000000000000 ) ) ;
#354 = UNCERTAINTY_MEASURE_WITH_UNIT (LENGTH_MEASURE( 1.000000000000000082E-05 ), #12, 'distance_accuracy_value', 'NONE');
#355 = CARTESIAN_POINT ( 'NONE',  ( 0.000000000000000000, 1.000000000000000000, 0.000000000000000000 ) ) ;
#356 =( NAMED_UNIT ( * ) SI_UNIT ( $, .STERADIAN. ) SOLID_ANGLE_UNIT ( ) );
#357 = MECHANICAL_DESIGN_GEOMETRIC_PRESENTATION_REPRESENTATION (  '', ( #151 ), #277 ) ;
#358 = APPLICATION_PROTOCOL_DEFINITION ( 'draft international standard', 'automotive_design', 1998, #225 ) ;
#359 = AXIS2_PLACEMENT_3D ( 'NONE', #274, #19, #13 ) ;
#360 = CARTESIAN_POINT ( 'NONE',  ( 8.000000000000000000, 23.99999999999999289, 9.797174393178825657E-16 ) ) ;
#361 = EDGE_LOOP ( 'NONE', ( #63, #365 ) ) ;
#362 =( NAMED_UNIT ( * ) SI_UNIT ( $, .STERADIAN. ) SOLID_ANGLE_UNIT ( ) );
#363 = FACE_OUTER_BOUND ( 'NONE', #108, .T. ) ;
#364 = DIRECTION ( 'NONE',  ( -0.000000000000000000, -1.000000000000000000, -0.000000000000000000 ) ) ;
#365 = ORIENTED_EDGE ( 'NONE', *, *, #224, .T. ) ;
#366 = APPLICATION_PROTOCOL_DEFINITION ( 'draft international standard', 'automotive_design', 1998, #68 ) ;
#367 = FILL_AREA_STYLE ('',( #77 ) ) ;
#368 = PRESENTATION_STYLE_ASSIGNMENT (( #88 ) ) ;
#369 = EDGE_CURVE ( 'NONE', #311, #189, #107, .T. ) ;
#370 = PRESENTATION_STYLE_ASSIGNMENT (( #346 ) ) ;
ENDSEC;
END-ISO-10303-21;
