ISO-10303-21;
HEADER;
FILE_DESCRIPTION (( 'STEP AP214' ),
    '1' );
FILE_NAME ('59266.STEP',
    '2023-06-22T22:32:50',
    ( '' ),
    ( '' ),
    'SwSTEP 2.0',
    'SolidWorks 2023',
    '' );
FILE_SCHEMA (( 'AUTOMOTIVE_DESIGN' ));
ENDSEC;

DATA;
#1 = DIRECTION ( 'NONE',  ( -1.000000000000000000, 0.000000000000000000, 0.000000000000000000 ) ) ;
#2 = CLOSED_SHELL ( 'NONE', ( #164, #225, #68, #113 ) ) ;
#3 = CARTESIAN_POINT ( 'NONE',  ( 0.2500000000000000555, 4.000000000000000000, 3.061616997868384251E-17 ) ) ;
#4 = ORIENTED_EDGE ( 'NONE', *, *, #219, .F. ) ;
#5 = PRODUCT_DEFINITION_CONTEXT ( 'detailed design', #107, 'design' ) ;
#6 = EDGE_CURVE ( 'NONE', #13, #232, #259, .T. ) ;
#7 =( GEOMETRIC_REPRESENTATION_CONTEXT ( 3 ) GLOBAL_UNCERTAINTY_ASSIGNED_CONTEXT ( ( #185 ) ) GLOBAL_UNIT_ASSIGNED_CONTEXT ( ( #128, #195, #288 ) ) REPRESENTATION_CONTEXT ( 'NONE', 'WORKASPACE' ) );
#8 =( LENGTH_UNIT ( ) NAMED_UNIT ( * ) SI_UNIT ( $, .METRE. ) );
#9 = CARTESIAN_POINT ( 'NONE',  ( -1.224646799147352714E-16, 4.000000000000000000, 0.000000000000000000 ) ) ;
#10 = SURFACE_SIDE_STYLE ('',( #152 ) ) ;
#11 = COLOUR_RGB ( '',1.000000000000000000, 0.000000000000000000, 0.000000000000000000 ) ;
#12 = DIRECTION ( 'NONE',  ( -0.000000000000000000, -1.000000000000000000, -0.000000000000000000 ) ) ;
#13 = VERTEX_POINT ( 'NONE', #21 ) ;
#14 = CIRCLE ( 'NONE', #197, 0.2499999999999999722 ) ;
#15 = MECHANICAL_DESIGN_GEOMETRIC_PRESENTATION_REPRESENTATION (  '', ( #62 ), #26 ) ;
#16 = EDGE_CURVE ( 'NONE', #65, #229, #221, .T. ) ;
#17 = CARTESIAN_POINT ( 'NONE',  ( 0.000000000000000000, 0.000000000000000000, -0.2500000000000000000 ) ) ;
#18 = MANIFOLD_SOLID_BREP ( 'Revolve - Cutting Edge', #262 ) ;
#19 = APPLICATION_PROTOCOL_DEFINITION ( 'draft international standard', 'automotive_design', 1998, #37 ) ;
#20 = AXIS2_PLACEMENT_3D ( 'NONE', #279, #307, #145 ) ;
#21 = CARTESIAN_POINT ( 'NONE',  ( 0.000000000000000000, 2.000000000000000000, -0.2499999999999999722 ) ) ;
#22 = ORIENTED_EDGE ( 'NONE', *, *, #53, .T. ) ;
#23 = AXIS2_PLACEMENT_3D ( 'NONE', #87, #167, #194 ) ;
#24 = CIRCLE ( 'NONE', #216, 0.2500000000000001665 ) ;
#25 = CARTESIAN_POINT ( 'NONE',  ( 0.000000000000000000, 2.000000000000000000, 0.000000000000000000 ) ) ;
#26 =( GEOMETRIC_REPRESENTATION_CONTEXT ( 3 ) GLOBAL_UNCERTAINTY_ASSIGNED_CONTEXT ( ( #275 ) ) GLOBAL_UNIT_ASSIGNED_CONTEXT ( ( #144, #41, #141 ) ) REPRESENTATION_CONTEXT ( 'NONE', 'WORKASPACE' ) );
#27 = CARTESIAN_POINT ( 'NONE',  ( -0.2499999999999999722, 2.000000000000000000, 0.000000000000000000 ) ) ;
#28 = DIRECTION ( 'NONE',  ( -6.123233995736763571E-17, 1.000000000000000000, -0.000000000000000000 ) ) ;
#29 = DIRECTION ( 'NONE',  ( -0.000000000000000000, -1.000000000000000000, -0.000000000000000000 ) ) ;
#30 = PRESENTATION_STYLE_ASSIGNMENT (( #209 ) ) ;
#31 =( NAMED_UNIT ( * ) SI_UNIT ( $, .STERADIAN. ) SOLID_ANGLE_UNIT ( ) );
#32 = STYLED_ITEM ( 'NONE', ( #247 ), #105 ) ;
#33 = MECHANICAL_DESIGN_GEOMETRIC_PRESENTATION_REPRESENTATION (  '', ( #148 ), #74 ) ;
#34 = AXIS2_PLACEMENT_3D ( 'NONE', #79, #101, #156 ) ;
#35 = FILL_AREA_STYLE ('',( #58 ) ) ;
#36 = FILL_AREA_STYLE ('',( #177 ) ) ;
#37 = APPLICATION_CONTEXT ( 'automotive_design' ) ;
#38 = UNCERTAINTY_MEASURE_WITH_UNIT (LENGTH_MEASURE( 1.000000000000000082E-05 ), #242, 'distance_accuracy_value', 'NONE');
#39 = STYLED_ITEM ( 'NONE', ( #196 ), #246 ) ;
#40 = ORIENTED_EDGE ( 'NONE', *, *, #208, .F. ) ;
#41 =( NAMED_UNIT ( * ) PLANE_ANGLE_UNIT ( ) SI_UNIT ( $, .RADIAN. ) );
#42 = ORIENTED_EDGE ( 'NONE', *, *, #83, .F. ) ;
#43 = VECTOR ( 'NONE', #12, 39.37007874015748143 ) ;
#44 = CIRCLE ( 'NONE', #95, 0.2500000000000000000 ) ;
#45 = SURFACE_STYLE_USAGE ( .BOTH. , #143 ) ;
#46 = SURFACE_STYLE_USAGE ( .BOTH. , #168 ) ;
#47 = FILL_AREA_STYLE_COLOUR ( '', #55 ) ;
#48 = LENGTH_MEASURE_WITH_UNIT ( LENGTH_MEASURE( 0.02539999999999999897 ), #169 );
#49 = DIRECTION ( 'NONE',  ( -1.000000000000000000, -6.123233995736763571E-17, 0.000000000000000000 ) ) ;
#50 = FILL_AREA_STYLE ('',( #223 ) ) ;
#51 = FILL_AREA_STYLE_COLOUR ( '', #214 ) ;
#52 = DIRECTION ( 'NONE',  ( 0.000000000000000000, 0.000000000000000000, -1.000000000000000000 ) ) ;
#53 = EDGE_CURVE ( 'NONE', #81, #239, #14, .T. ) ;
#54 = ORIENTED_EDGE ( 'NONE', *, *, #277, .F. ) ;
#55 = COLOUR_RGB ( '',0.7921568627450980005, 0.8196078431372548767, 0.9333333333333333481 ) ;
#56 = CYLINDRICAL_SURFACE ( 'NONE', #192, 0.2500000000000000000 ) ;
#57 = COLOUR_RGB ( '',1.000000000000000000, 0.000000000000000000, 0.000000000000000000 ) ;
#58 = FILL_AREA_STYLE_COLOUR ( '', #121 ) ;
#59 = ORIENTED_EDGE ( 'NONE', *, *, #233, .F. ) ;
#60 = EDGE_LOOP ( 'NONE', ( #40, #270 ) ) ;
#61 = DIRECTION ( 'NONE',  ( -6.123233995736763571E-17, 1.000000000000000000, -0.000000000000000000 ) ) ;
#62 = STYLED_ITEM ( 'NONE', ( #226 ), #302 ) ;
#63 = PRESENTATION_STYLE_ASSIGNMENT (( #45 ) ) ;
#64 = DIRECTION ( 'NONE',  ( -6.123233995736763571E-17, 1.000000000000000000, -0.000000000000000000 ) ) ;
#65 = VERTEX_POINT ( 'NONE', #3 ) ;
#66 = PRODUCT_CONTEXT ( 'NONE', #37, 'mechanical' ) ;
#67 = PRODUCT_DEFINITION_FORMATION_WITH_SPECIFIED_SOURCE ( 'ANY', '', #90, .NOT_KNOWN. ) ;
#68 = ADVANCED_FACE ( 'NONE', ( #147 ), #278, .T. ) ;
#69 = PRODUCT_DEFINITION_SHAPE ( 'NONE', 'NONE',  #309 ) ;
#70 = LENGTH_MEASURE_WITH_UNIT ( LENGTH_MEASURE( 0.02539999999999999897 ), #283 );
#71 = AXIS2_PLACEMENT_3D ( 'NONE', #273, #231, #298 ) ;
#72 = MECHANICAL_DESIGN_GEOMETRIC_PRESENTATION_REPRESENTATION (  '', ( #39 ), #86 ) ;
#73 = DIRECTION ( 'NONE',  ( -1.000000000000000000, 0.000000000000000000, 0.000000000000000000 ) ) ;
#74 =( GEOMETRIC_REPRESENTATION_CONTEXT ( 3 ) GLOBAL_UNCERTAINTY_ASSIGNED_CONTEXT ( ( #38 ) ) GLOBAL_UNIT_ASSIGNED_CONTEXT ( ( #242, #132, #227 ) ) REPRESENTATION_CONTEXT ( 'NONE', 'WORKASPACE' ) );
#75 = CIRCLE ( 'NONE', #100, 0.2499999999999999722 ) ;
#76 = CARTESIAN_POINT ( 'NONE',  ( 0.000000000000000000, 0.000000000000000000, 0.000000000000000000 ) ) ;
#77 = SURFACE_SIDE_STYLE ('',( #98 ) ) ;
#78 = ADVANCED_FACE ( 'NONE', ( #217 ), #140, .T. ) ;
#79 = CARTESIAN_POINT ( 'NONE',  ( 0.000000000000000000, 2.000000000000000000, 0.000000000000000000 ) ) ;
#80 =( LENGTH_UNIT ( ) NAMED_UNIT ( * ) SI_UNIT ( $, .METRE. ) );
#81 = VERTEX_POINT ( 'NONE', #204 ) ;
#82 = PRESENTATION_LAYER_ASSIGNMENT (  '', '', ( #32 ) ) ;
#83 = EDGE_CURVE ( 'NONE', #236, #111, #250, .T. ) ;
#84 = CARTESIAN_POINT ( 'NONE',  ( 0.000000000000000000, 0.000000000000000000, 0.000000000000000000 ) ) ;
#85 = UNCERTAINTY_MEASURE_WITH_UNIT (LENGTH_MEASURE( 1.000000000000000082E-05 ), #237, 'distance_accuracy_value', 'NONE');
#86 =( GEOMETRIC_REPRESENTATION_CONTEXT ( 3 ) GLOBAL_UNCERTAINTY_ASSIGNED_CONTEXT ( ( #117 ) ) GLOBAL_UNIT_ASSIGNED_CONTEXT ( ( #96, #149, #31 ) ) REPRESENTATION_CONTEXT ( 'NONE', 'WORKASPACE' ) );
#87 = CARTESIAN_POINT ( 'NONE',  ( -1.224646799147352714E-16, 4.000000000000000000, 0.000000000000000000 ) ) ;
#88 = FILL_AREA_STYLE ('',( #308 ) ) ;
#89 = CARTESIAN_POINT ( 'NONE',  ( -1.224646799147352714E-16, 4.000000000000000000, 0.000000000000000000 ) ) ;
#90 = PRODUCT ( '59266', '59266', '', ( #66 ) ) ;
#91 = DIRECTION ( 'NONE',  ( -0.000000000000000000, -1.000000000000000000, -0.000000000000000000 ) ) ;
#92 = DIRECTION ( 'NONE',  ( -0.000000000000000000, -1.000000000000000000, -0.000000000000000000 ) ) ;
#93 = CARTESIAN_POINT ( 'NONE',  ( 0.000000000000000000, 0.000000000000000000, -0.2500000000000000000 ) ) ;
#94 =( GEOMETRIC_REPRESENTATION_CONTEXT ( 3 ) GLOBAL_UNCERTAINTY_ASSIGNED_CONTEXT ( ( #85 ) ) GLOBAL_UNIT_ASSIGNED_CONTEXT ( ( #237, #193, #280 ) ) REPRESENTATION_CONTEXT ( 'NONE', 'WORKASPACE' ) );
#95 = AXIS2_PLACEMENT_3D ( 'NONE', #76, #29, #120 ) ;
#96 =( CONVERSION_BASED_UNIT ( 'INCH', #200 ) LENGTH_UNIT ( ) NAMED_UNIT ( #228 ) );
#97 = DIRECTION ( 'NONE',  ( -1.000000000000000000, 0.000000000000000000, 0.000000000000000000 ) ) ;
#98 = SURFACE_STYLE_FILL_AREA ( #134 ) ;
#99 = CARTESIAN_POINT ( 'NONE',  ( 0.000000000000000000, 0.000000000000000000, 0.000000000000000000 ) ) ;
#100 = AXIS2_PLACEMENT_3D ( 'NONE', #212, #207, #161 ) ;
#101 = DIRECTION ( 'NONE',  ( -0.000000000000000000, -1.000000000000000000, -0.000000000000000000 ) ) ;
#102 = DIRECTION ( 'NONE',  ( 0.000000000000000000, 0.000000000000000000, -1.000000000000000000 ) ) ;
#103 = ORIENTED_EDGE ( 'NONE', *, *, #243, .T. ) ;
#104 = SURFACE_STYLE_USAGE ( .BOTH. , #77 ) ;
#105 = MANIFOLD_SOLID_BREP ( 'Revolve - Tool Body (Straight Shanked)', #2 ) ;
#106 = EDGE_LOOP ( 'NONE', ( #186, #162, #59, #292 ) ) ;
#107 = APPLICATION_CONTEXT ( 'automotive_design' ) ;
#108 =( NAMED_UNIT ( * ) PLANE_ANGLE_UNIT ( ) SI_UNIT ( $, .RADIAN. ) );
#109 = ORIENTED_EDGE ( 'NONE', *, *, #208, .T. ) ;
#110 =( GEOMETRIC_REPRESENTATION_CONTEXT ( 3 ) GLOBAL_UNCERTAINTY_ASSIGNED_CONTEXT ( ( #241 ) ) GLOBAL_UNIT_ASSIGNED_CONTEXT ( ( #201, #125, #263 ) ) REPRESENTATION_CONTEXT ( 'NONE', 'WORKASPACE' ) );
#111 = VERTEX_POINT ( 'NONE', #245 ) ;
#112 = FILL_AREA_STYLE ('',( #47 ) ) ;
#113 = ADVANCED_FACE ( 'NONE', ( #178 ), #118, .F. ) ;
#114 = PRESENTATION_STYLE_ASSIGNMENT (( #46 ) ) ;
#115 = AXIS2_PLACEMENT_3D ( 'NONE', #174, #265, #230 ) ;
#116 = AXIS2_PLACEMENT_3D ( 'NONE', #124, #151, #73 ) ;
#117 = UNCERTAINTY_MEASURE_WITH_UNIT (LENGTH_MEASURE( 1.000000000000000082E-05 ), #96, 'distance_accuracy_value', 'NONE');
#118 = PLANE ( 'NONE',  #115 ) ;
#119 = SURFACE_SIDE_STYLE ('',( #244 ) ) ;
#120 = DIRECTION ( 'NONE',  ( 0.000000000000000000, 0.000000000000000000, -1.000000000000000000 ) ) ;
#121 = COLOUR_RGB ( '',1.000000000000000000, 0.000000000000000000, 0.000000000000000000 ) ;
#122 = CIRCLE ( 'NONE', #130, 0.2500000000000000000 ) ;
#123 = CARTESIAN_POINT ( 'NONE',  ( 0.2499999999999999167, 4.000000000000000000, 3.061616997868383634E-17 ) ) ;
#124 = CARTESIAN_POINT ( 'NONE',  ( 1.516480271171051896E-32, 2.000000000000000000, 0.000000000000000000 ) ) ;
#125 =( NAMED_UNIT ( * ) PLANE_ANGLE_UNIT ( ) SI_UNIT ( $, .RADIAN. ) );
#126 = DIMENSIONAL_EXPONENTS ( 1.000000000000000000, 0.000000000000000000, 0.000000000000000000, 0.000000000000000000, 0.000000000000000000, 0.000000000000000000, 0.000000000000000000 ) ;
#127 = DIRECTION ( 'NONE',  ( 0.000000000000000000, -1.000000000000000000, -0.000000000000000000 ) ) ;
#128 =( CONVERSION_BASED_UNIT ( 'INCH', #70 ) LENGTH_UNIT ( ) NAMED_UNIT ( #299 ) );
#129 = VECTOR ( 'NONE', #91, 39.37007874015748143 ) ;
#130 = AXIS2_PLACEMENT_3D ( 'NONE', #84, #182, #159 ) ;
#131 = SURFACE_STYLE_USAGE ( .BOTH. , #276 ) ;
#132 =( NAMED_UNIT ( * ) PLANE_ANGLE_UNIT ( ) SI_UNIT ( $, .RADIAN. ) );
#133 = ORIENTED_EDGE ( 'NONE', *, *, #272, .T. ) ;
#134 = FILL_AREA_STYLE ('',( #51 ) ) ;
#135 = CARTESIAN_POINT ( 'NONE',  ( -0.2500000000000002220, 4.000000000000000000, 0.000000000000000000 ) ) ;
#136 = PRESENTATION_LAYER_ASSIGNMENT (  '', '', ( #296 ) ) ;
#137 = ORIENTED_EDGE ( 'NONE', *, *, #233, .T. ) ;
#138 = FACE_OUTER_BOUND ( 'NONE', #253, .T. ) ;
#139 = ADVANCED_FACE ( 'NONE', ( #155 ), #175, .T. ) ;
#140 = PLANE ( 'NONE',  #238 ) ;
#141 =( NAMED_UNIT ( * ) SI_UNIT ( $, .STERADIAN. ) SOLID_ANGLE_UNIT ( ) );
#142 = APPLICATION_PROTOCOL_DEFINITION ( 'draft international standard', 'automotive_design', 1998, #107 ) ;
#143 = SURFACE_SIDE_STYLE ('',( #257 ) ) ;
#144 =( CONVERSION_BASED_UNIT ( 'INCH', #255 ) LENGTH_UNIT ( ) NAMED_UNIT ( #268 ) );
#145 = DIRECTION ( 'NONE',  ( 1.000000000000000000, 0.000000000000000000, 0.000000000000000000 ) ) ;
#146 = EDGE_CURVE ( 'NONE', #236, #13, #163, .T. ) ;
#147 = FACE_OUTER_BOUND ( 'NONE', #274, .T. ) ;
#148 = STYLED_ITEM ( 'NONE', ( #114 ), #78 ) ;
#149 =( NAMED_UNIT ( * ) PLANE_ANGLE_UNIT ( ) SI_UNIT ( $, .RADIAN. ) );
#150 = PRESENTATION_LAYER_ASSIGNMENT (  '', '', ( #305 ) ) ;
#151 = DIRECTION ( 'NONE',  ( -6.123233995736763571E-17, 1.000000000000000000, -0.000000000000000000 ) ) ;
#152 = SURFACE_STYLE_FILL_AREA ( #35 ) ;
#153 = DIMENSIONAL_EXPONENTS ( 1.000000000000000000, 0.000000000000000000, 0.000000000000000000, 0.000000000000000000, 0.000000000000000000, 0.000000000000000000, 0.000000000000000000 ) ;
#154 = DIRECTION ( 'NONE',  ( 0.000000000000000000, -0.000000000000000000, 1.000000000000000000 ) ) ;
#155 = FACE_OUTER_BOUND ( 'NONE', #106, .T. ) ;
#156 = DIRECTION ( 'NONE',  ( 0.000000000000000000, 0.000000000000000000, -1.000000000000000000 ) ) ;
#157 = DIRECTION ( 'NONE',  ( 0.000000000000000000, 1.000000000000000000, 0.000000000000000000 ) ) ;
#158 = ORIENTED_EDGE ( 'NONE', *, *, #219, .T. ) ;
#159 = DIRECTION ( 'NONE',  ( 0.000000000000000000, 0.000000000000000000, -1.000000000000000000 ) ) ;
#160 = ORIENTED_EDGE ( 'NONE', *, *, #146, .T. ) ;
#161 = DIRECTION ( 'NONE',  ( 0.000000000000000000, 0.000000000000000000, -1.000000000000000000 ) ) ;
#162 = ORIENTED_EDGE ( 'NONE', *, *, #83, .T. ) ;
#163 = CIRCLE ( 'NONE', #34, 0.2499999999999999722 ) ;
#164 = ADVANCED_FACE ( 'NONE', ( #294 ), #251, .T. ) ;
#165 =( LENGTH_UNIT ( ) NAMED_UNIT ( * ) SI_UNIT ( $, .METRE. ) );
#166 = ORIENTED_EDGE ( 'NONE', *, *, #16, .F. ) ;
#167 = DIRECTION ( 'NONE',  ( -6.123233995736763571E-17, 1.000000000000000000, -0.000000000000000000 ) ) ;
#168 = SURFACE_SIDE_STYLE ('',( #188 ) ) ;
#169 =( LENGTH_UNIT ( ) NAMED_UNIT ( * ) SI_UNIT ( $, .METRE. ) );
#170 = EDGE_CURVE ( 'NONE', #111, #232, #122, .T. ) ;
#171 = MECHANICAL_DESIGN_GEOMETRIC_PRESENTATION_REPRESENTATION (  '', ( #305 ), #94 ) ;
#172 = DIRECTION ( 'NONE',  ( 0.000000000000000000, 0.000000000000000000, -1.000000000000000000 ) ) ;
#173 = FACE_OUTER_BOUND ( 'NONE', #60, .T. ) ;
#174 = CARTESIAN_POINT ( 'NONE',  ( 0.2500000000000000555, 4.000000000000000000, 0.000000000000000000 ) ) ;
#175 = CYLINDRICAL_SURFACE ( 'NONE', #260, 0.2500000000000000000 ) ;
#176 = DIRECTION ( 'NONE',  ( -6.123233995736763571E-17, 1.000000000000000000, -0.000000000000000000 ) ) ;
#177 = FILL_AREA_STYLE_COLOUR ( '', #57 ) ;
#178 = FACE_OUTER_BOUND ( 'NONE', #300, .T. ) ;
#179 = PRESENTATION_LAYER_ASSIGNMENT (  '', '', ( #148 ) ) ;
#180 = CIRCLE ( 'NONE', #116, 0.2499999999999999722 ) ;
#181 = LINE ( 'NONE', #135, #271 ) ;
#182 = DIRECTION ( 'NONE',  ( -0.000000000000000000, -1.000000000000000000, -0.000000000000000000 ) ) ;
#183 = EDGE_LOOP ( 'NONE', ( #54, #295 ) ) ;
#184 = DIMENSIONAL_EXPONENTS ( 1.000000000000000000, 0.000000000000000000, 0.000000000000000000, 0.000000000000000000, 0.000000000000000000, 0.000000000000000000, 0.000000000000000000 ) ;
#185 = UNCERTAINTY_MEASURE_WITH_UNIT (LENGTH_MEASURE( 1.000000000000000082E-05 ), #128, 'distance_accuracy_value', 'NONE');
#186 = ORIENTED_EDGE ( 'NONE', *, *, #277, .T. ) ;
#187 = CARTESIAN_POINT ( 'NONE',  ( 1.516480271171051896E-32, 2.000000000000000000, 0.000000000000000000 ) ) ;
#188 = SURFACE_STYLE_FILL_AREA ( #88 ) ;
#189 =( LENGTH_UNIT ( ) NAMED_UNIT ( * ) SI_UNIT ( $, .METRE. ) );
#190 = ORIENTED_EDGE ( 'NONE', *, *, #170, .F. ) ;
#191 = AXIS2_PLACEMENT_3D ( 'NONE', #89, #64, #281 ) ;
#192 = AXIS2_PLACEMENT_3D ( 'NONE', #99, #92, #102 ) ;
#193 =( NAMED_UNIT ( * ) PLANE_ANGLE_UNIT ( ) SI_UNIT ( $, .RADIAN. ) );
#194 = DIRECTION ( 'NONE',  ( -1.000000000000000000, 0.000000000000000000, 0.000000000000000000 ) ) ;
#195 =( NAMED_UNIT ( * ) PLANE_ANGLE_UNIT ( ) SI_UNIT ( $, .RADIAN. ) );
#196 = PRESENTATION_STYLE_ASSIGNMENT (( #285 ) ) ;
#197 = AXIS2_PLACEMENT_3D ( 'NONE', #187, #240, #1 ) ;
#198 = PLANE ( 'NONE',  #248 ) ;
#199 = PLANE ( 'NONE',  #297 ) ;
#200 = LENGTH_MEASURE_WITH_UNIT ( LENGTH_MEASURE( 0.02539999999999999897 ), #8 );
#201 =( CONVERSION_BASED_UNIT ( 'INCH', #48 ) LENGTH_UNIT ( ) NAMED_UNIT ( #153 ) );
#202 = VECTOR ( 'NONE', #176, 39.37007874015748143 ) ;
#203 = LINE ( 'NONE', #123, #202 ) ;
#204 = CARTESIAN_POINT ( 'NONE',  ( 0.2500000000000000000, 2.000000000000000000, 3.061616997868384251E-17 ) ) ;
#205 = UNCERTAINTY_MEASURE_WITH_UNIT (LENGTH_MEASURE( 1.000000000000000082E-05 ), #301, 'distance_accuracy_value', 'NONE');
#206 = ORIENTED_EDGE ( 'NONE', *, *, #170, .T. ) ;
#207 = DIRECTION ( 'NONE',  ( -0.000000000000000000, -1.000000000000000000, -0.000000000000000000 ) ) ;
#208 = EDGE_CURVE ( 'NONE', #239, #81, #180, .T. ) ;
#209 = SURFACE_STYLE_USAGE ( .BOTH. , #10 ) ;
#210 = DIRECTION ( 'NONE',  ( -0.000000000000000000, -1.000000000000000000, -0.000000000000000000 ) ) ;
#211 =( GEOMETRIC_REPRESENTATION_CONTEXT ( 3 ) GLOBAL_UNCERTAINTY_ASSIGNED_CONTEXT ( ( #205 ) ) GLOBAL_UNIT_ASSIGNED_CONTEXT ( ( #301, #108, #304 ) ) REPRESENTATION_CONTEXT ( 'NONE', 'WORKASPACE' ) );
#212 = CARTESIAN_POINT ( 'NONE',  ( 0.000000000000000000, 2.000000000000000000, 0.000000000000000000 ) ) ;
#213 = LENGTH_MEASURE_WITH_UNIT ( LENGTH_MEASURE( 0.02539999999999999897 ), #189 );
#214 = COLOUR_RGB ( '',0.7921568627450980005, 0.8196078431372548767, 0.9333333333333333481 ) ;
#215 = SHAPE_DEFINITION_REPRESENTATION ( #69, #289 ) ;
#216 = AXIS2_PLACEMENT_3D ( 'NONE', #9, #28, #97 ) ;
#217 = FACE_OUTER_BOUND ( 'NONE', #183, .T. ) ;
#218 = COLOUR_RGB ( '',1.000000000000000000, 0.000000000000000000, 0.000000000000000000 ) ;
#219 = EDGE_CURVE ( 'NONE', #229, #65, #24, .T. ) ;
#220 = ORIENTED_EDGE ( 'NONE', *, *, #16, .T. ) ;
#221 = CIRCLE ( 'NONE', #23, 0.2500000000000001665 ) ;
#222 = PRESENTATION_LAYER_ASSIGNMENT (  '', '', ( #39 ) ) ;
#223 = FILL_AREA_STYLE_COLOUR ( '', #218 ) ;
#224 = CARTESIAN_POINT ( 'NONE',  ( 3.061616997868382402E-17, 2.000000000000000000, 0.2499999999999999722 ) ) ;
#225 = ADVANCED_FACE ( 'NONE', ( #173 ), #199, .F. ) ;
#226 = PRESENTATION_STYLE_ASSIGNMENT (( #131 ) ) ;
#227 =( NAMED_UNIT ( * ) SI_UNIT ( $, .STERADIAN. ) SOLID_ANGLE_UNIT ( ) );
#228 = DIMENSIONAL_EXPONENTS ( 1.000000000000000000, 0.000000000000000000, 0.000000000000000000, 0.000000000000000000, 0.000000000000000000, 0.000000000000000000, 0.000000000000000000 ) ;
#229 = VERTEX_POINT ( 'NONE', #235 ) ;
#230 = DIRECTION ( 'NONE',  ( 1.000000000000000000, 6.123233995736763571E-17, 0.000000000000000000 ) ) ;
#231 = DIRECTION ( 'NONE',  ( -6.123233995736763571E-17, 1.000000000000000000, -0.000000000000000000 ) ) ;
#232 = VERTEX_POINT ( 'NONE', #93 ) ;
#233 = EDGE_CURVE ( 'NONE', #232, #111, #44, .T. ) ;
#234 = ORIENTED_EDGE ( 'NONE', *, *, #243, .F. ) ;
#235 = CARTESIAN_POINT ( 'NONE',  ( -0.2500000000000002776, 4.000000000000000000, 0.000000000000000000 ) ) ;
#236 = VERTEX_POINT ( 'NONE', #224 ) ;
#237 =( CONVERSION_BASED_UNIT ( 'INCH', #254 ) LENGTH_UNIT ( ) NAMED_UNIT ( #126 ) );
#238 = AXIS2_PLACEMENT_3D ( 'NONE', #25, #157, #154 ) ;
#239 = VERTEX_POINT ( 'NONE', #27 ) ;
#240 = DIRECTION ( 'NONE',  ( -6.123233995736763571E-17, 1.000000000000000000, -0.000000000000000000 ) ) ;
#241 = UNCERTAINTY_MEASURE_WITH_UNIT (LENGTH_MEASURE( 1.000000000000000082E-05 ), #201, 'distance_accuracy_value', 'NONE');
#242 =( CONVERSION_BASED_UNIT ( 'INCH', #266 ) LENGTH_UNIT ( ) NAMED_UNIT ( #184 ) );
#243 = EDGE_CURVE ( 'NONE', #81, #65, #203, .T. ) ;
#244 = SURFACE_STYLE_FILL_AREA ( #50 ) ;
#245 = CARTESIAN_POINT ( 'NONE',  ( 3.061616997868383018E-17, 0.000000000000000000, 0.2500000000000000000 ) ) ;
#246 = ADVANCED_FACE ( 'NONE', ( #269 ), #198, .T. ) ;
#247 = PRESENTATION_STYLE_ASSIGNMENT (( #104 ) ) ;
#248 = AXIS2_PLACEMENT_3D ( 'NONE', #286, #127, #172 ) ;
#249 = EDGE_LOOP ( 'NONE', ( #137, #206 ) ) ;
#250 = LINE ( 'NONE', #291, #43 ) ;
#251 = CYLINDRICAL_SURFACE ( 'NONE', #71, 0.2500000000000000555 ) ;
#252 = ORIENTED_EDGE ( 'NONE', *, *, #6, .T. ) ;
#253 = EDGE_LOOP ( 'NONE', ( #42, #160, #252, #190 ) ) ;
#254 = LENGTH_MEASURE_WITH_UNIT ( LENGTH_MEASURE( 0.02539999999999999897 ), #165 );
#255 = LENGTH_MEASURE_WITH_UNIT ( LENGTH_MEASURE( 0.02539999999999999897 ), #80 );
#256 = PRODUCT_RELATED_PRODUCT_CATEGORY ( 'part', '', ( #90 ) ) ;
#257 = SURFACE_STYLE_FILL_AREA ( #112 ) ;
#258 = MECHANICAL_DESIGN_GEOMETRIC_PRESENTATION_REPRESENTATION (  '', ( #32 ), #7 ) ;
#259 = LINE ( 'NONE', #17, #129 ) ;
#260 = AXIS2_PLACEMENT_3D ( 'NONE', #267, #210, #52 ) ;
#261 = ORIENTED_EDGE ( 'NONE', *, *, #272, .F. ) ;
#262 = CLOSED_SHELL ( 'NONE', ( #139, #78, #302, #246 ) ) ;
#263 =( NAMED_UNIT ( * ) SI_UNIT ( $, .STERADIAN. ) SOLID_ANGLE_UNIT ( ) );
#264 = DIRECTION ( 'NONE',  ( -6.123233995736763571E-17, 1.000000000000000000, 0.000000000000000000 ) ) ;
#265 = DIRECTION ( 'NONE',  ( 6.123233995736763571E-17, -1.000000000000000000, 0.000000000000000000 ) ) ;
#266 = LENGTH_MEASURE_WITH_UNIT ( LENGTH_MEASURE( 0.02539999999999999897 ), #282 );
#267 = CARTESIAN_POINT ( 'NONE',  ( 0.000000000000000000, 0.000000000000000000, 0.000000000000000000 ) ) ;
#268 = DIMENSIONAL_EXPONENTS ( 1.000000000000000000, 0.000000000000000000, 0.000000000000000000, 0.000000000000000000, 0.000000000000000000, 0.000000000000000000, 0.000000000000000000 ) ;
#269 = FACE_OUTER_BOUND ( 'NONE', #249, .T. ) ;
#270 = ORIENTED_EDGE ( 'NONE', *, *, #53, .F. ) ;
#271 = VECTOR ( 'NONE', #61, 39.37007874015748143 ) ;
#272 = EDGE_CURVE ( 'NONE', #239, #229, #181, .T. ) ;
#273 = CARTESIAN_POINT ( 'NONE',  ( -1.224646799147352714E-16, 4.000000000000000000, 0.000000000000000000 ) ) ;
#274 = EDGE_LOOP ( 'NONE', ( #234, #22, #133, #166 ) ) ;
#275 = UNCERTAINTY_MEASURE_WITH_UNIT (LENGTH_MEASURE( 1.000000000000000082E-05 ), #144, 'distance_accuracy_value', 'NONE');
#276 = SURFACE_SIDE_STYLE ('',( #303 ) ) ;
#277 = EDGE_CURVE ( 'NONE', #13, #236, #75, .T. ) ;
#278 = CYLINDRICAL_SURFACE ( 'NONE', #191, 0.2500000000000000555 ) ;
#279 = CARTESIAN_POINT ( 'NONE',  ( 0.000000000000000000, 0.000000000000000000, 0.000000000000000000 ) ) ;
#280 =( NAMED_UNIT ( * ) SI_UNIT ( $, .STERADIAN. ) SOLID_ANGLE_UNIT ( ) );
#281 = DIRECTION ( 'NONE',  ( -1.000000000000000000, 0.000000000000000000, 0.000000000000000000 ) ) ;
#282 =( LENGTH_UNIT ( ) NAMED_UNIT ( * ) SI_UNIT ( $, .METRE. ) );
#283 =( LENGTH_UNIT ( ) NAMED_UNIT ( * ) SI_UNIT ( $, .METRE. ) );
#284 = PRESENTATION_LAYER_ASSIGNMENT (  '', '', ( #62 ) ) ;
#285 = SURFACE_STYLE_USAGE ( .BOTH. , #119 ) ;
#286 = CARTESIAN_POINT ( 'NONE',  ( 0.000000000000000000, 0.000000000000000000, 0.000000000000000000 ) ) ;
#287 = CARTESIAN_POINT ( 'NONE',  ( 4.686749320818300748E-34, 2.000000000000000000, 0.000000000000000000 ) ) ;
#288 =( NAMED_UNIT ( * ) SI_UNIT ( $, .STERADIAN. ) SOLID_ANGLE_UNIT ( ) );
#289 = ADVANCED_BREP_SHAPE_REPRESENTATION ( '59266', ( #18, #105, #20 ), #211 ) ;
#290 = MECHANICAL_DESIGN_GEOMETRIC_PRESENTATION_REPRESENTATION (  '', ( #296 ), #110 ) ;
#291 = CARTESIAN_POINT ( 'NONE',  ( 3.061616997868383018E-17, 0.000000000000000000, 0.2500000000000000000 ) ) ;
#292 = ORIENTED_EDGE ( 'NONE', *, *, #6, .F. ) ;
#293 = DIMENSIONAL_EXPONENTS ( 1.000000000000000000, 0.000000000000000000, 0.000000000000000000, 0.000000000000000000, 0.000000000000000000, 0.000000000000000000, 0.000000000000000000 ) ;
#294 = FACE_OUTER_BOUND ( 'NONE', #306, .T. ) ;
#295 = ORIENTED_EDGE ( 'NONE', *, *, #146, .F. ) ;
#296 = STYLED_ITEM ( 'NONE', ( #30 ), #139 ) ;
#297 = AXIS2_PLACEMENT_3D ( 'NONE', #287, #264, #49 ) ;
#298 = DIRECTION ( 'NONE',  ( -1.000000000000000000, 0.000000000000000000, 0.000000000000000000 ) ) ;
#299 = DIMENSIONAL_EXPONENTS ( 1.000000000000000000, 0.000000000000000000, 0.000000000000000000, 0.000000000000000000, 0.000000000000000000, 0.000000000000000000, 0.000000000000000000 ) ;
#300 = EDGE_LOOP ( 'NONE', ( #158, #220 ) ) ;
#301 =( CONVERSION_BASED_UNIT ( 'INCH', #213 ) LENGTH_UNIT ( ) NAMED_UNIT ( #293 ) );
#302 = ADVANCED_FACE ( 'NONE', ( #138 ), #56, .T. ) ;
#303 = SURFACE_STYLE_FILL_AREA ( #36 ) ;
#304 =( NAMED_UNIT ( * ) SI_UNIT ( $, .STERADIAN. ) SOLID_ANGLE_UNIT ( ) );
#305 = STYLED_ITEM ( 'NONE', ( #63 ), #18 ) ;
#306 = EDGE_LOOP ( 'NONE', ( #109, #103, #4, #261 ) ) ;
#307 = DIRECTION ( 'NONE',  ( 0.000000000000000000, 0.000000000000000000, 1.000000000000000000 ) ) ;
#308 = FILL_AREA_STYLE_COLOUR ( '', #11 ) ;
#309 = PRODUCT_DEFINITION ( 'UNKNOWN', '', #67, #5 ) ;
ENDSEC;
END-ISO-10303-21;
