ISO-10303-21;
HEADER;
FILE_DESCRIPTION (( 'STEP AP214' ),
    '1' );
FILE_NAME ('Micro_GEM-203-2.STEP',
    '2021-09-01T20:06:54',
    ( '' ),
    ( '' ),
    'SwSTEP 2.0',
    'SolidWorks 2020',
    '' );
FILE_SCHEMA (( 'AUTOMOTIVE_DESIGN' ));
ENDSEC;

DATA;
#1 = LINE ( 'NONE', #6, #166 ) ;
#2 = ORIENTED_EDGE ( 'NONE', *, *, #269, .T. ) ;
#3 = AXIS2_PLACEMENT_3D ( 'NONE', #200, #138, #83 ) ;
#4 = APPLICATION_PROTOCOL_DEFINITION ( 'draft international standard', 'automotive_design', 1998, #193 ) ;
#5 = VERTEX_POINT ( 'NONE', #259 ) ;
#6 = CARTESIAN_POINT ( 'NONE',  ( 0.1100000000000001948, 1.347111479062090784E-17, 2.500000000000000000 ) ) ;
#7 = FILL_AREA_STYLE ('',( #122 ) ) ;
#8 = CIRCLE ( 'NONE', #296, 0.1250000000000000000 ) ;
#9 = DIRECTION ( 'NONE',  ( 1.000000000000000000, 0.0000000000000000000, 0.0000000000000000000 ) ) ;
#10 = CARTESIAN_POINT ( 'NONE',  ( 7.654042494670957853E-17, 0.0000000000000000000, 0.6250000000000000000 ) ) ;
#11 = CARTESIAN_POINT ( 'NONE',  ( -0.1014484499999999262, 1.386596847321897422E-17, 0.6250000000000000000 ) ) ;
#12 = DIMENSIONAL_EXPONENTS ( 1.000000000000000000, 0.0000000000000000000, 0.0000000000000000000, 0.0000000000000000000, 0.0000000000000000000, 0.0000000000000000000, 0.0000000000000000000 ) ;
#13 = AXIS2_PLACEMENT_3D ( 'NONE', #65, #45, #182 ) ;
#14 = EDGE_LOOP ( 'NONE', ( #216, #140 ) ) ;
#15 = ORIENTED_EDGE ( 'NONE', *, *, #284, .F. ) ;
#16 = CIRCLE ( 'NONE', #272, 0.1014484499999999956 ) ;
#17 = CONICAL_SURFACE ( 'NONE', #243, 0.1014484499999999956, 0.1745329251994339192 ) ;
#18 = DIMENSIONAL_EXPONENTS ( 1.000000000000000000, 0.0000000000000000000, 0.0000000000000000000, 0.0000000000000000000, 0.0000000000000000000, 0.0000000000000000000, 0.0000000000000000000 ) ;
#19 = DIRECTION ( 'NONE',  ( -1.224646799147353207E-16, -0.0000000000000000000, -1.000000000000000000 ) ) ;
#20 = DIRECTION ( 'NONE',  ( -0.0000000000000000000, -0.0000000000000000000, -1.000000000000000000 ) ) ;
#21 = CYLINDRICAL_SURFACE ( 'NONE', #129, 0.1014484499999999956 ) ;
#22 = EDGE_LOOP ( 'NONE', ( #69, #27, #246, #15 ) ) ;
#23 = CIRCLE ( 'NONE', #13, 0.1250000000000000000 ) ;
#24 = DIRECTION ( 'NONE',  ( 0.0000000000000000000, 0.0000000000000000000, 1.000000000000000000 ) ) ;
#25 = ORIENTED_EDGE ( 'NONE', *, *, #147, .F. ) ;
#26 = LINE ( 'NONE', #179, #37 ) ;
#27 = ORIENTED_EDGE ( 'NONE', *, *, #218, .T. ) ;
#28 = EDGE_CURVE ( 'NONE', #233, #57, #8, .T. ) ;
#29 = CIRCLE ( 'NONE', #142, 0.1014484499999999956 ) ;
#30 = ORIENTED_EDGE ( 'NONE', *, *, #53, .T. ) ;
#31 = DIRECTION ( 'NONE',  ( 0.7071067811865499042, 8.659560562354961208E-17, -0.7071067811865451302 ) ) ;
#32 = ADVANCED_FACE ( 'NONE', ( #98 ), #289, .T. ) ;
#33 = CARTESIAN_POINT ( 'NONE',  ( -0.1100000000000001948, 0.0000000000000000000, 2.500000000000000000 ) ) ;
#34 = DIRECTION ( 'NONE',  ( 0.0000000000000000000, 0.0000000000000000000, -1.000000000000000000 ) ) ;
#35 = CARTESIAN_POINT ( 'NONE',  ( 0.0000000000000000000, 0.0000000000000000000, 0.0000000000000000000 ) ) ;
#36 = CONICAL_SURFACE ( 'NONE', #249, 0.1100000000000001948, 0.7853981633974517207 ) ;
#37 = VECTOR ( 'NONE', #108, 39.37007874015748143 ) ;
#38 = DIRECTION ( 'NONE',  ( -1.000000000000000000, 0.0000000000000000000, 0.0000000000000000000 ) ) ;
#39 = PLANE ( 'NONE',  #74 ) ;
#40 =( GEOMETRIC_REPRESENTATION_CONTEXT ( 3 ) GLOBAL_UNCERTAINTY_ASSIGNED_CONTEXT ( ( #50 ) ) GLOBAL_UNIT_ASSIGNED_CONTEXT ( ( #282, #229, #253 ) ) REPRESENTATION_CONTEXT ( 'NONE', 'WORKASPACE' ) );
#41 = DIRECTION ( 'NONE',  ( -1.000000000000000000, 0.0000000000000000000, 0.0000000000000000000 ) ) ;
#42 = DIRECTION ( 'NONE',  ( 1.000000000000000000, 0.0000000000000000000, 0.0000000000000000000 ) ) ;
#43 = DIRECTION ( 'NONE',  ( -1.224646799147353207E-16, -0.0000000000000000000, -1.000000000000000000 ) ) ;
#44 = AXIS2_PLACEMENT_3D ( 'NONE', #224, #24, #113 ) ;
#45 = DIRECTION ( 'NONE',  ( 0.0000000000000000000, 0.0000000000000000000, -1.000000000000000000 ) ) ;
#46 = VERTEX_POINT ( 'NONE', #33 ) ;
#47 = LENGTH_MEASURE_WITH_UNIT ( LENGTH_MEASURE( 0.02539999999999999897 ), #91 );
#48 = FACE_OUTER_BOUND ( 'NONE', #208, .T. ) ;
#49 = ORIENTED_EDGE ( 'NONE', *, *, #28, .T. ) ;
#50 = UNCERTAINTY_MEASURE_WITH_UNIT (LENGTH_MEASURE( 1.000000000000000082E-05 ), #282, 'distance_accuracy_value', 'NONE');
#51 = PRODUCT_DEFINITION_FORMATION_WITH_SPECIFIED_SOURCE ( 'ANY', '', #82, .NOT_KNOWN. ) ;
#52 = CARTESIAN_POINT ( 'NONE',  ( 0.0000000000000000000, 0.0000000000000000000, 2.500000000000000000 ) ) ;
#53 = EDGE_CURVE ( 'NONE', #112, #87, #16, .T. ) ;
#54 = ORIENTED_EDGE ( 'NONE', *, *, #88, .F. ) ;
#55 = PRESENTATION_STYLE_ASSIGNMENT (( #189 ) ) ;
#56 =( CONVERSION_BASED_UNIT ( 'INCH', #167 ) LENGTH_UNIT ( ) NAMED_UNIT ( #12 ) );
#57 = VERTEX_POINT ( 'NONE', #150 ) ;
#58 = ADVANCED_FACE ( 'NONE', ( #75 ), #36, .T. ) ;
#59 = DIRECTION ( 'NONE',  ( 1.000000000000000000, 0.0000000000000000000, 0.0000000000000000000 ) ) ;
#60 = PRESENTATION_LAYER_ASSIGNMENT (  '', '', ( #280 ) ) ;
#61 = CARTESIAN_POINT ( 'NONE',  ( 7.654042494670957853E-17, 0.0000000000000000000, 0.6250000000000000000 ) ) ;
#62 = DIRECTION ( 'NONE',  ( -1.000000000000000000, 0.0000000000000000000, 1.224646799147353207E-16 ) ) ;
#63 = CARTESIAN_POINT ( 'NONE',  ( 0.0000000000000000000, 0.0000000000000000000, 2.500000000000000000 ) ) ;
#64 = AXIS2_PLACEMENT_3D ( 'NONE', #63, #270, #41 ) ;
#65 = CARTESIAN_POINT ( 'NONE',  ( 0.0000000000000000000, 0.0000000000000000000, 2.485000000000000320 ) ) ;
#66 = CARTESIAN_POINT ( 'NONE',  ( 0.0000000000000000000, 0.0000000000000000000, 0.0000000000000000000 ) ) ;
#67 = DIRECTION ( 'NONE',  ( -1.000000000000000000, 0.0000000000000000000, 1.224646799147353207E-16 ) ) ;
#68 = DIRECTION ( 'NONE',  ( -0.0000000000000000000, -0.0000000000000000000, -1.000000000000000000 ) ) ;
#69 = ORIENTED_EDGE ( 'NONE', *, *, #76, .F. ) ;
#70 = EDGE_LOOP ( 'NONE', ( #96, #274 ) ) ;
#71 = PRODUCT_DEFINITION ( 'UNKNOWN', '', #51, #117 ) ;
#72 = LINE ( 'NONE', #118, #209 ) ;
#73 = ORIENTED_EDGE ( 'NONE', *, *, #170, .F. ) ;
#74 = AXIS2_PLACEMENT_3D ( 'NONE', #221, #84, #176 ) ;
#75 = FACE_OUTER_BOUND ( 'NONE', #205, .T. ) ;
#76 = EDGE_CURVE ( 'NONE', #87, #112, #125, .T. ) ;
#77 = AXIS2_PLACEMENT_3D ( 'NONE', #109, #265, #42 ) ;
#78 = MANIFOLD_SOLID_BREP ( 'Cut-Revolve1', #276 ) ;
#79 = SHAPE_DEFINITION_REPRESENTATION ( #171, #220 ) ;
#80 = DIRECTION ( 'NONE',  ( 1.000000000000000000, 0.0000000000000000000, 0.0000000000000000000 ) ) ;
#81 = CARTESIAN_POINT ( 'NONE',  ( 7.654042494670957853E-17, 0.0000000000000000000, 0.6250000000000000000 ) ) ;
#82 = PRODUCT ( 'Micro_GEM-203-2', 'Micro_GEM-203-2', '', ( #240 ) ) ;
#83 = DIRECTION ( 'NONE',  ( 1.000000000000000000, 0.0000000000000000000, 0.0000000000000000000 ) ) ;
#84 = DIRECTION ( 'NONE',  ( 0.0000000000000000000, 0.0000000000000000000, 1.000000000000000000 ) ) ;
#85 = CARTESIAN_POINT ( 'NONE',  ( 1.521483053233823417E-33, 0.0000000000000000000, 1.242385195709603026E-17 ) ) ;
#86 = LINE ( 'NONE', #157, #152 ) ;
#87 = VERTEX_POINT ( 'NONE', #11 ) ;
#88 = EDGE_CURVE ( 'NONE', #90, #46, #219, .T. ) ;
#89 = CARTESIAN_POINT ( 'NONE',  ( 0.0000000000000000000, 0.0000000000000000000, 2.500000000000000000 ) ) ;
#90 = VERTEX_POINT ( 'NONE', #288 ) ;
#91 =( LENGTH_UNIT ( ) NAMED_UNIT ( * ) SI_UNIT ( $, .METRE. ) );
#92 = ORIENTED_EDGE ( 'NONE', *, *, #170, .T. ) ;
#93 = CIRCLE ( 'NONE', #44, 0.1100000000000001948 ) ;
#94 = ADVANCED_FACE ( 'NONE', ( #106 ), #165, .T. ) ;
#95 = ORIENTED_EDGE ( 'NONE', *, *, #28, .F. ) ;
#96 = ORIENTED_EDGE ( 'NONE', *, *, #238, .T. ) ;
#97 = SURFACE_SIDE_STYLE ('',( #169 ) ) ;
#98 = FACE_OUTER_BOUND ( 'NONE', #22, .T. ) ;
#99 = MECHANICAL_DESIGN_GEOMETRIC_PRESENTATION_REPRESENTATION (  '', ( #280 ), #231 ) ;
#100 = DIRECTION ( 'NONE',  ( 0.1736481776669314137, 0.0000000000000000000, 0.9848077530122077983 ) ) ;
#101 = FILL_AREA_STYLE_COLOUR ( '', #184 ) ;
#102 = ADVANCED_FACE ( 'NONE', ( #198 ), #225, .T. ) ;
#103 = CARTESIAN_POINT ( 'NONE',  ( 0.0000000000000000000, 0.0000000000000000000, 2.500000000000000000 ) ) ;
#104 = AXIS2_PLACEMENT_3D ( 'NONE', #52, #68, #164 ) ;
#105 = LENGTH_MEASURE_WITH_UNIT ( LENGTH_MEASURE( 0.02539999999999999897 ), #194 );
#106 = FACE_OUTER_BOUND ( 'NONE', #232, .T. ) ;
#107 = EDGE_CURVE ( 'NONE', #278, #258, #133, .T. ) ;
#108 = DIRECTION ( 'NONE',  ( -1.224646799147353207E-16, -0.0000000000000000000, -1.000000000000000000 ) ) ;
#109 = CARTESIAN_POINT ( 'NONE',  ( 9.289772330602642653E-17, 0.0000000000000000000, 0.7585674773388166869 ) ) ;
#110 = DIRECTION ( 'NONE',  ( 0.0000000000000000000, 0.0000000000000000000, 1.000000000000000000 ) ) ;
#111 = PRESENTATION_LAYER_ASSIGNMENT (  '', '', ( #201 ) ) ;
#112 = VERTEX_POINT ( 'NONE', #271 ) ;
#113 = DIRECTION ( 'NONE',  ( 1.000000000000000000, 0.0000000000000000000, 0.0000000000000000000 ) ) ;
#114 = ORIENTED_EDGE ( 'NONE', *, *, #76, .T. ) ;
#115 = LINE ( 'NONE', #155, #202 ) ;
#116 = ORIENTED_EDGE ( 'NONE', *, *, #294, .F. ) ;
#117 = PRODUCT_DEFINITION_CONTEXT ( 'detailed design', #144, 'design' ) ;
#118 = CARTESIAN_POINT ( 'NONE',  ( 0.1014484500000000650, 0.0000000000000000000, 0.6250000000000000000 ) ) ;
#119 = AXIS2_PLACEMENT_3D ( 'NONE', #89, #20, #298 ) ;
#120 = ORIENTED_EDGE ( 'NONE', *, *, #127, .T. ) ;
#121 = UNCERTAINTY_MEASURE_WITH_UNIT (LENGTH_MEASURE( 1.000000000000000082E-05 ), #130, 'distance_accuracy_value', 'NONE');
#122 = FILL_AREA_STYLE_COLOUR ( '', #126 ) ;
#123 = DIRECTION ( 'NONE',  ( -1.000000000000000000, 0.0000000000000000000, 0.0000000000000000000 ) ) ;
#124 =( NAMED_UNIT ( * ) SI_UNIT ( $, .STERADIAN. ) SOLID_ANGLE_UNIT ( ) );
#125 = CIRCLE ( 'NONE', #132, 0.1014484499999999956 ) ;
#126 = COLOUR_RGB ( '',0.7921568627450980005, 0.8196078431372548767, 0.9333333333333333481 ) ;
#127 = EDGE_CURVE ( 'NONE', #46, #233, #86, .T. ) ;
#128 = APPLICATION_PROTOCOL_DEFINITION ( 'draft international standard', 'automotive_design', 1998, #144 ) ;
#129 = AXIS2_PLACEMENT_3D ( 'NONE', #66, #43, #137 ) ;
#130 =( CONVERSION_BASED_UNIT ( 'INCH', #105 ) LENGTH_UNIT ( ) NAMED_UNIT ( #287 ) );
#131 = ORIENTED_EDGE ( 'NONE', *, *, #284, .T. ) ;
#132 = AXIS2_PLACEMENT_3D ( 'NONE', #81, #236, #148 ) ;
#133 = CIRCLE ( 'NONE', #77, 0.1250000000000000000 ) ;
#134 = DIRECTION ( 'NONE',  ( 1.000000000000000000, 0.0000000000000000000, -0.0000000000000000000 ) ) ;
#135 = DIRECTION ( 'NONE',  ( -1.000000000000000000, 0.0000000000000000000, 1.224646799147353207E-16 ) ) ;
#136 = FACE_OUTER_BOUND ( 'NONE', #211, .T. ) ;
#137 = DIRECTION ( 'NONE',  ( -1.000000000000000000, 0.0000000000000000000, 1.224646799147353207E-16 ) ) ;
#138 = DIRECTION ( 'NONE',  ( -1.224646799147353207E-16, -0.0000000000000000000, -1.000000000000000000 ) ) ;
#139 = DIRECTION ( 'NONE',  ( -1.224646799147353207E-16, -0.0000000000000000000, -1.000000000000000000 ) ) ;
#140 = ORIENTED_EDGE ( 'NONE', *, *, #147, .T. ) ;
#141 = DIRECTION ( 'NONE',  ( 1.224646799147353207E-16, 0.0000000000000000000, 1.000000000000000000 ) ) ;
#142 = AXIS2_PLACEMENT_3D ( 'NONE', #268, #156, #62 ) ;
#143 = SURFACE_SIDE_STYLE ('',( #168 ) ) ;
#144 = APPLICATION_CONTEXT ( 'automotive_design' ) ;
#145 = FILL_AREA_STYLE ('',( #101 ) ) ;
#146 = VECTOR ( 'NONE', #293, 39.37007874015748143 ) ;
#147 = EDGE_CURVE ( 'NONE', #5, #185, #29, .T. ) ;
#148 = DIRECTION ( 'NONE',  ( -1.000000000000000000, 0.0000000000000000000, 0.0000000000000000000 ) ) ;
#149 = DIRECTION ( 'NONE',  ( 0.0000000000000000000, 0.0000000000000000000, 1.000000000000000000 ) ) ;
#150 = CARTESIAN_POINT ( 'NONE',  ( 0.1250000000000000000, 1.530808498934191509E-17, 2.485000000000000320 ) ) ;
#151 = DIRECTION ( 'NONE',  ( -1.224646799147353207E-16, -0.0000000000000000000, -1.000000000000000000 ) ) ;
#152 = VECTOR ( 'NONE', #251, 39.37007874015748143 ) ;
#153 = CARTESIAN_POINT ( 'NONE',  ( -0.1014484499999999956, 0.0000000000000000000, 2.484770391419206052E-17 ) ) ;
#154 = EDGE_CURVE ( 'NONE', #57, #233, #23, .T. ) ;
#155 = CARTESIAN_POINT ( 'NONE',  ( 0.1250000000000000000, 1.530808498934191509E-17, 2.500000000000000000 ) ) ;
#156 = DIRECTION ( 'NONE',  ( -1.224646799147353207E-16, -0.0000000000000000000, -1.000000000000000000 ) ) ;
#157 = CARTESIAN_POINT ( 'NONE',  ( -0.1100000000000001948, 0.0000000000000000000, 2.500000000000000000 ) ) ;
#158 = VECTOR ( 'NONE', #297, 39.37007874015747433 ) ;
#159 = ORIENTED_EDGE ( 'NONE', *, *, #218, .F. ) ;
#160 = LINE ( 'NONE', #277, #215 ) ;
#161 = EDGE_CURVE ( 'NONE', #185, #5, #250, .T. ) ;
#162 = FACE_OUTER_BOUND ( 'NONE', #186, .T. ) ;
#163 = ORIENTED_EDGE ( 'NONE', *, *, #107, .F. ) ;
#164 = DIRECTION ( 'NONE',  ( -1.000000000000000000, 0.0000000000000000000, 0.0000000000000000000 ) ) ;
#165 = CYLINDRICAL_SURFACE ( 'NONE', #119, 0.1250000000000000000 ) ;
#166 = VECTOR ( 'NONE', #31, 39.37007874015748143 ) ;
#167 = LENGTH_MEASURE_WITH_UNIT ( LENGTH_MEASURE( 0.02539999999999999897 ), #187 );
#168 = SURFACE_STYLE_FILL_AREA ( #145 ) ;
#169 = SURFACE_STYLE_FILL_AREA ( #7 ) ;
#170 = EDGE_CURVE ( 'NONE', #112, #5, #26, .T. ) ;
#171 = PRODUCT_DEFINITION_SHAPE ( 'NONE', 'NONE',  #71 ) ;
#172 = ORIENTED_EDGE ( 'NONE', *, *, #161, .F. ) ;
#173 = CIRCLE ( 'NONE', #3, 0.1250000000000000000 ) ;
#174 = ORIENTED_EDGE ( 'NONE', *, *, #154, .F. ) ;
#175 = CARTESIAN_POINT ( 'NONE',  ( 0.0000000000000000000, 0.0000000000000000000, 0.0000000000000000000 ) ) ;
#176 = DIRECTION ( 'NONE',  ( 1.000000000000000000, 0.0000000000000000000, -0.0000000000000000000 ) ) ;
#177 = EDGE_CURVE ( 'NONE', #258, #278, #173, .T. ) ;
#178 = AXIS2_PLACEMENT_3D ( 'NONE', #207, #110, #134 ) ;
#179 = CARTESIAN_POINT ( 'NONE',  ( 0.1014484499999999956, 1.242385195709603026E-17, -1.242385195709603026E-17 ) ) ;
#180 = LINE ( 'NONE', #223, #158 ) ;
#181 = UNCERTAINTY_MEASURE_WITH_UNIT (LENGTH_MEASURE( 1.000000000000000082E-05 ), #56, 'distance_accuracy_value', 'NONE');
#182 = DIRECTION ( 'NONE',  ( 1.000000000000000000, 0.0000000000000000000, 0.0000000000000000000 ) ) ;
#183 = ORIENTED_EDGE ( 'NONE', *, *, #199, .T. ) ;
#184 = COLOUR_RGB ( '',0.7921568627450980005, 0.8196078431372548767, 0.9333333333333333481 ) ;
#185 = VERTEX_POINT ( 'NONE', #153 ) ;
#186 = EDGE_LOOP ( 'NONE', ( #234, #256, #212, #163 ) ) ;
#187 =( LENGTH_UNIT ( ) NAMED_UNIT ( * ) SI_UNIT ( $, .METRE. ) );
#188 = ORIENTED_EDGE ( 'NONE', *, *, #107, .T. ) ;
#189 = SURFACE_STYLE_USAGE ( .BOTH. , #97 ) ;
#190 = DIRECTION ( 'NONE',  ( 1.224646799147353207E-16, 0.0000000000000000000, 1.000000000000000000 ) ) ;
#191 = CONICAL_SURFACE ( 'NONE', #64, 0.1100000000000001948, 0.7853981633974517207 ) ;
#192 = CYLINDRICAL_SURFACE ( 'NONE', #104, 0.1250000000000000000 ) ;
#193 = APPLICATION_CONTEXT ( 'automotive_design' ) ;
#194 =( LENGTH_UNIT ( ) NAMED_UNIT ( * ) SI_UNIT ( $, .METRE. ) );
#195 =( NAMED_UNIT ( * ) SI_UNIT ( $, .STERADIAN. ) SOLID_ANGLE_UNIT ( ) );
#196 =( GEOMETRIC_REPRESENTATION_CONTEXT ( 3 ) GLOBAL_UNCERTAINTY_ASSIGNED_CONTEXT ( ( #121 ) ) GLOBAL_UNIT_ASSIGNED_CONTEXT ( ( #130, #241, #195 ) ) REPRESENTATION_CONTEXT ( 'NONE', 'WORKASPACE' ) );
#197 = DIRECTION ( 'NONE',  ( 0.0000000000000000000, 0.0000000000000000000, -1.000000000000000000 ) ) ;
#198 = FACE_OUTER_BOUND ( 'NONE', #299, .T. ) ;
#199 = EDGE_CURVE ( 'NONE', #57, #278, #115, .T. ) ;
#200 = CARTESIAN_POINT ( 'NONE',  ( 9.289772330602642653E-17, 0.0000000000000000000, 0.7585674773388166869 ) ) ;
#201 = STYLED_ITEM ( 'NONE', ( #291 ), #78 ) ;
#202 = VECTOR ( 'NONE', #292, 39.37007874015748143 ) ;
#203 = FACE_OUTER_BOUND ( 'NONE', #281, .T. ) ;
#204 = CARTESIAN_POINT ( 'NONE',  ( -0.1249999999999999167, 0.0000000000000000000, 0.7585674773388166869 ) ) ;
#205 = EDGE_LOOP ( 'NONE', ( #116, #228, #120, #174 ) ) ;
#206 = ADVANCED_FACE ( 'NONE', ( #244 ), #242, .T. ) ;
#207 = CARTESIAN_POINT ( 'NONE',  ( 0.0000000000000000000, 0.0000000000000000000, 2.500000000000000000 ) ) ;
#208 = EDGE_LOOP ( 'NONE', ( #159, #252, #131, #188 ) ) ;
#209 = VECTOR ( 'NONE', #100, 39.37007874015748143 ) ;
#210 = ADVANCED_FACE ( 'NONE', ( #245 ), #39, .F. ) ;
#211 = EDGE_LOOP ( 'NONE', ( #73, #30, #2, #25 ) ) ;
#212 = ORIENTED_EDGE ( 'NONE', *, *, #217, .T. ) ;
#213 = CARTESIAN_POINT ( 'NONE',  ( 7.654042494670957853E-17, 0.0000000000000000000, 0.6250000000000000000 ) ) ;
#214 = ORIENTED_EDGE ( 'NONE', *, *, #217, .F. ) ;
#215 = VECTOR ( 'NONE', #139, 39.37007874015748143 ) ;
#216 = ORIENTED_EDGE ( 'NONE', *, *, #161, .T. ) ;
#217 = EDGE_CURVE ( 'NONE', #233, #258, #247, .T. ) ;
#218 = EDGE_CURVE ( 'NONE', #87, #258, #180, .T. ) ;
#219 = CIRCLE ( 'NONE', #262, 0.1100000000000001948 ) ;
#220 = ADVANCED_BREP_SHAPE_REPRESENTATION ( 'Micro_GEM-203-2', ( #78, #235 ), #40 ) ;
#221 = CARTESIAN_POINT ( 'NONE',  ( 0.0000000000000000000, 0.0000000000000000000, 0.0000000000000000000 ) ) ;
#222 = CARTESIAN_POINT ( 'NONE',  ( -0.1250000000000000000, 0.0000000000000000000, 2.485000000000000320 ) ) ;
#223 = CARTESIAN_POINT ( 'NONE',  ( -0.1014484499999999262, 1.242385195709603026E-17, 0.6250000000000000000 ) ) ;
#224 = CARTESIAN_POINT ( 'NONE',  ( 0.0000000000000000000, 0.0000000000000000000, 2.500000000000000000 ) ) ;
#225 = CYLINDRICAL_SURFACE ( 'NONE', #267, 0.1014484499999999956 ) ;
#226 = ORIENTED_EDGE ( 'NONE', *, *, #177, .F. ) ;
#227 = DIRECTION ( 'NONE',  ( 1.000000000000000000, 0.0000000000000000000, 0.0000000000000000000 ) ) ;
#228 = ORIENTED_EDGE ( 'NONE', *, *, #238, .F. ) ;
#229 =( NAMED_UNIT ( * ) PLANE_ANGLE_UNIT ( ) SI_UNIT ( $, .RADIAN. ) );
#230 = ADVANCED_FACE ( 'NONE', ( #203 ), #191, .T. ) ;
#231 =( GEOMETRIC_REPRESENTATION_CONTEXT ( 3 ) GLOBAL_UNCERTAINTY_ASSIGNED_CONTEXT ( ( #181 ) ) GLOBAL_UNIT_ASSIGNED_CONTEXT ( ( #56, #273, #124 ) ) REPRESENTATION_CONTEXT ( 'NONE', 'WORKASPACE' ) );
#232 = EDGE_LOOP ( 'NONE', ( #49, #183, #226, #214 ) ) ;
#233 = VERTEX_POINT ( 'NONE', #222 ) ;
#234 = ORIENTED_EDGE ( 'NONE', *, *, #199, .F. ) ;
#235 = AXIS2_PLACEMENT_3D ( 'NONE', #35, #149, #285 ) ;
#236 = DIRECTION ( 'NONE',  ( -1.224646799147353207E-16, -0.0000000000000000000, -1.000000000000000000 ) ) ;
#237 = ADVANCED_FACE ( 'NONE', ( #136 ), #21, .T. ) ;
#238 = EDGE_CURVE ( 'NONE', #46, #90, #93, .T. ) ;
#239 = SURFACE_STYLE_USAGE ( .BOTH. , #143 ) ;
#240 = PRODUCT_CONTEXT ( 'NONE', #193, 'mechanical' ) ;
#241 =( NAMED_UNIT ( * ) PLANE_ANGLE_UNIT ( ) SI_UNIT ( $, .RADIAN. ) );
#242 = PLANE ( 'NONE',  #178 ) ;
#243 = AXIS2_PLACEMENT_3D ( 'NONE', #213, #141, #227 ) ;
#244 = FACE_OUTER_BOUND ( 'NONE', #70, .T. ) ;
#245 = FACE_OUTER_BOUND ( 'NONE', #14, .T. ) ;
#246 = ORIENTED_EDGE ( 'NONE', *, *, #177, .T. ) ;
#247 = LINE ( 'NONE', #266, #146 ) ;
#248 = PRODUCT_RELATED_PRODUCT_CATEGORY ( 'part', '', ( #82 ) ) ;
#249 = AXIS2_PLACEMENT_3D ( 'NONE', #283, #34, #38 ) ;
#250 = CIRCLE ( 'NONE', #257, 0.1014484499999999956 ) ;
#251 = DIRECTION ( 'NONE',  ( -0.7071067811865499042, 0.0000000000000000000, -0.7071067811865451302 ) ) ;
#252 = ORIENTED_EDGE ( 'NONE', *, *, #53, .F. ) ;
#253 =( NAMED_UNIT ( * ) SI_UNIT ( $, .STERADIAN. ) SOLID_ANGLE_UNIT ( ) );
#254 = ORIENTED_EDGE ( 'NONE', *, *, #294, .T. ) ;
#255 = CARTESIAN_POINT ( 'NONE',  ( 0.1250000000000000833, 1.530808498934192433E-17, 0.7585674773388166869 ) ) ;
#256 = ORIENTED_EDGE ( 'NONE', *, *, #154, .T. ) ;
#257 = AXIS2_PLACEMENT_3D ( 'NONE', #85, #151, #135 ) ;
#258 = VERTEX_POINT ( 'NONE', #204 ) ;
#259 = CARTESIAN_POINT ( 'NONE',  ( 0.1014484499999999956, 1.242385195709603026E-17, 0.0000000000000000000 ) ) ;
#260 = ADVANCED_FACE ( 'NONE', ( #162 ), #192, .T. ) ;
#261 = DIRECTION ( 'NONE',  ( -1.224646799147353207E-16, -0.0000000000000000000, -1.000000000000000000 ) ) ;
#262 = AXIS2_PLACEMENT_3D ( 'NONE', #103, #286, #80 ) ;
#263 = ORIENTED_EDGE ( 'NONE', *, *, #127, .F. ) ;
#264 = CARTESIAN_POINT ( 'NONE',  ( 0.0000000000000000000, 0.0000000000000000000, 2.485000000000000320 ) ) ;
#265 = DIRECTION ( 'NONE',  ( -1.224646799147353207E-16, -0.0000000000000000000, -1.000000000000000000 ) ) ;
#266 = CARTESIAN_POINT ( 'NONE',  ( -0.1250000000000000000, 0.0000000000000000000, 2.500000000000000000 ) ) ;
#267 = AXIS2_PLACEMENT_3D ( 'NONE', #175, #19, #67 ) ;
#268 = CARTESIAN_POINT ( 'NONE',  ( 1.521483053233823417E-33, 0.0000000000000000000, 1.242385195709603026E-17 ) ) ;
#269 = EDGE_CURVE ( 'NONE', #87, #185, #160, .T. ) ;
#270 = DIRECTION ( 'NONE',  ( 0.0000000000000000000, 0.0000000000000000000, -1.000000000000000000 ) ) ;
#271 = CARTESIAN_POINT ( 'NONE',  ( 0.1014484500000000650, 0.0000000000000000000, 0.6250000000000000000 ) ) ;
#272 = AXIS2_PLACEMENT_3D ( 'NONE', #61, #261, #123 ) ;
#273 =( NAMED_UNIT ( * ) PLANE_ANGLE_UNIT ( ) SI_UNIT ( $, .RADIAN. ) );
#274 = ORIENTED_EDGE ( 'NONE', *, *, #88, .T. ) ;
#275 = ORIENTED_EDGE ( 'NONE', *, *, #269, .F. ) ;
#276 = CLOSED_SHELL ( 'NONE', ( #102, #32, #230, #94, #260, #206, #58, #290, #237, #210 ) ) ;
#277 = CARTESIAN_POINT ( 'NONE',  ( -0.1014484499999999956, 0.0000000000000000000, 1.242385195709603026E-17 ) ) ;
#278 = VERTEX_POINT ( 'NONE', #255 ) ;
#279 = MECHANICAL_DESIGN_GEOMETRIC_PRESENTATION_REPRESENTATION (  '', ( #201 ), #196 ) ;
#280 = STYLED_ITEM ( 'NONE', ( #55 ), #220 ) ;
#281 = EDGE_LOOP ( 'NONE', ( #54, #254, #95, #263 ) ) ;
#282 =( CONVERSION_BASED_UNIT ( 'INCH', #47 ) LENGTH_UNIT ( ) NAMED_UNIT ( #18 ) );
#283 = CARTESIAN_POINT ( 'NONE',  ( 0.0000000000000000000, 0.0000000000000000000, 2.500000000000000000 ) ) ;
#284 = EDGE_CURVE ( 'NONE', #112, #278, #72, .T. ) ;
#285 = DIRECTION ( 'NONE',  ( 1.000000000000000000, 0.0000000000000000000, 0.0000000000000000000 ) ) ;
#286 = DIRECTION ( 'NONE',  ( 0.0000000000000000000, 0.0000000000000000000, 1.000000000000000000 ) ) ;
#287 = DIMENSIONAL_EXPONENTS ( 1.000000000000000000, 0.0000000000000000000, 0.0000000000000000000, 0.0000000000000000000, 0.0000000000000000000, 0.0000000000000000000, 0.0000000000000000000 ) ;
#288 = CARTESIAN_POINT ( 'NONE',  ( 0.1100000000000001948, 1.438959988998141146E-17, 2.500000000000000000 ) ) ;
#289 = CONICAL_SURFACE ( 'NONE', #295, 0.1014484499999999956, 0.1745329251994339192 ) ;
#290 = ADVANCED_FACE ( 'NONE', ( #48 ), #17, .T. ) ;
#291 = PRESENTATION_STYLE_ASSIGNMENT (( #239 ) ) ;
#292 = DIRECTION ( 'NONE',  ( -0.0000000000000000000, -0.0000000000000000000, -1.000000000000000000 ) ) ;
#293 = DIRECTION ( 'NONE',  ( -0.0000000000000000000, -0.0000000000000000000, -1.000000000000000000 ) ) ;
#294 = EDGE_CURVE ( 'NONE', #90, #57, #1, .T. ) ;
#295 = AXIS2_PLACEMENT_3D ( 'NONE', #10, #190, #59 ) ;
#296 = AXIS2_PLACEMENT_3D ( 'NONE', #264, #197, #9 ) ;
#297 = DIRECTION ( 'NONE',  ( -0.1736481776669312194, 2.126576849575783625E-17, 0.9848077530122080203 ) ) ;
#298 = DIRECTION ( 'NONE',  ( -1.000000000000000000, 0.0000000000000000000, 0.0000000000000000000 ) ) ;
#299 = EDGE_LOOP ( 'NONE', ( #114, #92, #172, #275 ) ) ;
ENDSEC;
END-ISO-10303-21;
