ISO-10303-21;
HEADER;
FILE_DESCRIPTION (( 'STEP AP214' ),
    '1' );
FILE_NAME ('59800.STEP',
    '2023-07-24T15:58:40',
    ( '' ),
    ( '' ),
    'SwSTEP 2.0',
    'SolidWorks 2023',
    '' );
FILE_SCHEMA (( 'AUTOMOTIVE_DESIGN' ));
ENDSEC;

DATA;
#1 =( NAMED_UNIT ( * ) PLANE_ANGLE_UNIT ( ) SI_UNIT ( $, .RADIAN. ) );
#2 = CARTESIAN_POINT ( 'NONE',  ( 4.000000000000000000, 75.00000000000000000, 4.898587196589413815E-16 ) ) ;
#3 = ADVANCED_BREP_SHAPE_REPRESENTATION ( '59800', ( #109, #196, #185 ), #104 ) ;
#4 = CLOSED_SHELL ( 'NONE', ( #68, #278, #64, #144 ) ) ;
#5 = MECHANICAL_DESIGN_GEOMETRIC_PRESENTATION_REPRESENTATION (  '', ( #206 ), #235 ) ;
#6 = EDGE_CURVE ( 'NONE', #7, #270, #245, .T. ) ;
#7 = VERTEX_POINT ( 'NONE', #213 ) ;
#8 = ORIENTED_EDGE ( 'NONE', *, *, #261, .F. ) ;
#9 = ORIENTED_EDGE ( 'NONE', *, *, #6, .F. ) ;
#10 = DIRECTION ( 'NONE',  ( -1.000000000000000000, -2.881521880346713429E-17, 0.000000000000000000 ) ) ;
#11 = PRODUCT_RELATED_PRODUCT_CATEGORY ( 'part', '', ( #163 ) ) ;
#12 =( NAMED_UNIT ( * ) SI_UNIT ( $, .STERADIAN. ) SOLID_ANGLE_UNIT ( ) );
#13 = AXIS2_PLACEMENT_3D ( 'NONE', #125, #174, #15 ) ;
#14 = CARTESIAN_POINT ( 'NONE',  ( 0.000000000000000000, 24.00000000000000000, 0.000000000000000000 ) ) ;
#15 = DIRECTION ( 'NONE',  ( 0.000000000000000000, 0.000000000000000000, -1.000000000000000000 ) ) ;
#16 = APPLICATION_PROTOCOL_DEFINITION ( 'draft international standard', 'automotive_design', 1998, #135 ) ;
#17 = SURFACE_STYLE_FILL_AREA ( #108 ) ;
#18 = CARTESIAN_POINT ( 'NONE',  ( -1.469576158976823750E-15, 75.00000000000000000, 0.000000000000000000 ) ) ;
#19 =( GEOMETRIC_REPRESENTATION_CONTEXT ( 3 ) GLOBAL_UNCERTAINTY_ASSIGNED_CONTEXT ( ( #122 ) ) GLOBAL_UNIT_ASSIGNED_CONTEXT ( ( #220, #215, #21 ) ) REPRESENTATION_CONTEXT ( 'NONE', 'WORKASPACE' ) );
#20 = FACE_OUTER_BOUND ( 'NONE', #51, .T. ) ;
#21 =( NAMED_UNIT ( * ) SI_UNIT ( $, .STERADIAN. ) SOLID_ANGLE_UNIT ( ) );
#22 = STYLED_ITEM ( 'NONE', ( #209 ), #196 ) ;
#23 = COLOUR_RGB ( '',1.000000000000000000, 0.000000000000000000, 0.000000000000000000 ) ;
#24 = DIRECTION ( 'NONE',  ( 0.000000000000000000, 0.000000000000000000, -1.000000000000000000 ) ) ;
#25 = SURFACE_STYLE_USAGE ( .BOTH. , #138 ) ;
#26 = ORIENTED_EDGE ( 'NONE', *, *, #147, .T. ) ;
#27 = UNCERTAINTY_MEASURE_WITH_UNIT (LENGTH_MEASURE( 1.000000000000000082E-05 ), #234, 'distance_accuracy_value', 'NONE');
#28 = EDGE_CURVE ( 'NONE', #32, #183, #29, .T. ) ;
#29 = CIRCLE ( 'NONE', #13, 4.000000000000000000 ) ;
#30 = VECTOR ( 'NONE', #146, 1000.000000000000000 ) ;
#31 = EDGE_LOOP ( 'NONE', ( #244, #101, #186, #74 ) ) ;
#32 = VERTEX_POINT ( 'NONE', #39 ) ;
#33 = PRODUCT_CONTEXT ( 'NONE', #135, 'mechanical' ) ;
#34 = PRESENTATION_LAYER_ASSIGNMENT (  '', '', ( #206 ) ) ;
#35 = DIRECTION ( 'NONE',  ( -0.000000000000000000, -1.000000000000000000, -0.000000000000000000 ) ) ;
#36 = FILL_AREA_STYLE_COLOUR ( '', #199 ) ;
#37 = PRESENTATION_LAYER_ASSIGNMENT (  '', '', ( #22 ) ) ;
#38 = CARTESIAN_POINT ( 'NONE',  ( 0.000000000000000000, 24.00000000000000000, 0.000000000000000000 ) ) ;
#39 = CARTESIAN_POINT ( 'NONE',  ( 4.898587196589412829E-16, 0.000000000000000000, 4.000000000000000000 ) ) ;
#40 = DIRECTION ( 'NONE',  ( -1.000000000000000000, 0.000000000000000000, 0.000000000000000000 ) ) ;
#41 =( NAMED_UNIT ( * ) PLANE_ANGLE_UNIT ( ) SI_UNIT ( $, .RADIAN. ) );
#42 = VECTOR ( 'NONE', #75, 1000.000000000000000 ) ;
#43 = FILL_AREA_STYLE ('',( #254 ) ) ;
#44 = SURFACE_STYLE_FILL_AREA ( #136 ) ;
#45 = FILL_AREA_STYLE_COLOUR ( '', #208 ) ;
#46 =( GEOMETRIC_REPRESENTATION_CONTEXT ( 3 ) GLOBAL_UNCERTAINTY_ASSIGNED_CONTEXT ( ( #95 ) ) GLOBAL_UNIT_ASSIGNED_CONTEXT ( ( #47, #1, #287 ) ) REPRESENTATION_CONTEXT ( 'NONE', 'WORKASPACE' ) );
#47 =( LENGTH_UNIT ( ) NAMED_UNIT ( * ) SI_UNIT ( .MILLI., .METRE. ) );
#48 = CARTESIAN_POINT ( 'NONE',  ( 0.000000000000000000, 24.00000000000000000, 0.000000000000000000 ) ) ;
#49 = VERTEX_POINT ( 'NONE', #258 ) ;
#50 = SURFACE_SIDE_STYLE ('',( #140 ) ) ;
#51 = EDGE_LOOP ( 'NONE', ( #139, #203, #141, #225 ) ) ;
#52 = FILL_AREA_STYLE ('',( #100 ) ) ;
#53 = LINE ( 'NONE', #161, #216 ) ;
#54 = ORIENTED_EDGE ( 'NONE', *, *, #193, .T. ) ;
#55 = CLOSED_SHELL ( 'NONE', ( #271, #73, #127, #88 ) ) ;
#56 = MECHANICAL_DESIGN_GEOMETRIC_PRESENTATION_REPRESENTATION (  '', ( #22 ), #184 ) ;
#57 = SURFACE_STYLE_FILL_AREA ( #106 ) ;
#58 = EDGE_CURVE ( 'NONE', #166, #277, #177, .T. ) ;
#59 = CARTESIAN_POINT ( 'NONE',  ( 0.000000000000000000, 0.000000000000000000, 0.000000000000000000 ) ) ;
#60 =( LENGTH_UNIT ( ) NAMED_UNIT ( * ) SI_UNIT ( .MILLI., .METRE. ) );
#61 = PRESENTATION_STYLE_ASSIGNMENT (( #286 ) ) ;
#62 = STYLED_ITEM ( 'NONE', ( #195 ), #127 ) ;
#63 = FACE_OUTER_BOUND ( 'NONE', #221, .T. ) ;
#64 = ADVANCED_FACE ( 'NONE', ( #20 ), #131, .T. ) ;
#65 = DIRECTION ( 'NONE',  ( -2.881521880346713429E-17, 1.000000000000000000, -0.000000000000000000 ) ) ;
#66 = DIRECTION ( 'NONE',  ( 0.000000000000000000, 1.000000000000000000, 0.000000000000000000 ) ) ;
#67 = AXIS2_PLACEMENT_3D ( 'NONE', #14, #66, #151 ) ;
#68 = ADVANCED_FACE ( 'NONE', ( #194 ), #282, .T. ) ;
#69 = PRESENTATION_STYLE_ASSIGNMENT (( #134 ) ) ;
#70 = DIRECTION ( 'NONE',  ( 2.881521880346713429E-17, -1.000000000000000000, 0.000000000000000000 ) ) ;
#71 = MECHANICAL_DESIGN_GEOMETRIC_PRESENTATION_REPRESENTATION (  '', ( #188 ), #19 ) ;
#72 = CARTESIAN_POINT ( 'NONE',  ( 0.000000000000000000, 24.00000000000000000, -4.000000000000000000 ) ) ;
#73 = ADVANCED_FACE ( 'NONE', ( #63 ), #149, .T. ) ;
#74 = ORIENTED_EDGE ( 'NONE', *, *, #239, .F. ) ;
#75 = DIRECTION ( 'NONE',  ( -0.000000000000000000, -1.000000000000000000, -0.000000000000000000 ) ) ;
#76 = APPLICATION_CONTEXT ( 'automotive_design' ) ;
#77 = CARTESIAN_POINT ( 'NONE',  ( 0.000000000000000000, 0.000000000000000000, -4.000000000000000000 ) ) ;
#78 = EDGE_LOOP ( 'NONE', ( #9, #241 ) ) ;
#79 = UNCERTAINTY_MEASURE_WITH_UNIT (LENGTH_MEASURE( 1.000000000000000082E-05 ), #60, 'distance_accuracy_value', 'NONE');
#80 = AXIS2_PLACEMENT_3D ( 'NONE', #107, #211, #176 ) ;
#81 =( NAMED_UNIT ( * ) SI_UNIT ( $, .STERADIAN. ) SOLID_ANGLE_UNIT ( ) );
#82 =( NAMED_UNIT ( * ) PLANE_ANGLE_UNIT ( ) SI_UNIT ( $, .RADIAN. ) );
#83 = AXIS2_PLACEMENT_3D ( 'NONE', #18, #129, #112 ) ;
#84 = DIRECTION ( 'NONE',  ( -2.881521880346713429E-17, 1.000000000000000000, -0.000000000000000000 ) ) ;
#85 =( GEOMETRIC_REPRESENTATION_CONTEXT ( 3 ) GLOBAL_UNCERTAINTY_ASSIGNED_CONTEXT ( ( #272 ) ) GLOBAL_UNIT_ASSIGNED_CONTEXT ( ( #187, #281, #81 ) ) REPRESENTATION_CONTEXT ( 'NONE', 'WORKASPACE' ) );
#86 = SURFACE_SIDE_STYLE ('',( #17 ) ) ;
#87 = FACE_OUTER_BOUND ( 'NONE', #179, .T. ) ;
#88 = ADVANCED_FACE ( 'NONE', ( #189 ), #150, .T. ) ;
#89 = AXIS2_PLACEMENT_3D ( 'NONE', #217, #92, #24 ) ;
#90 = CARTESIAN_POINT ( 'NONE',  ( 4.000000000000000000, 75.00000000000000000, 0.000000000000000000 ) ) ;
#91 = EDGE_CURVE ( 'NONE', #270, #7, #156, .T. ) ;
#92 = DIRECTION ( 'NONE',  ( -0.000000000000000000, -1.000000000000000000, -0.000000000000000000 ) ) ;
#93 = CIRCLE ( 'NONE', #276, 4.000000000000001776 ) ;
#94 = DIRECTION ( 'NONE',  ( -1.000000000000000000, 0.000000000000000000, 0.000000000000000000 ) ) ;
#95 = UNCERTAINTY_MEASURE_WITH_UNIT (LENGTH_MEASURE( 1.000000000000000082E-05 ), #47, 'distance_accuracy_value', 'NONE');
#96 = EDGE_LOOP ( 'NONE', ( #249, #247 ) ) ;
#97 = CARTESIAN_POINT ( 'NONE',  ( 1.660633669383371668E-33, 24.00000000000000000, 0.000000000000000000 ) ) ;
#98 = EDGE_LOOP ( 'NONE', ( #268, #26, #120, #201 ) ) ;
#99 = VECTOR ( 'NONE', #260, 1000.000000000000000 ) ;
#100 = FILL_AREA_STYLE_COLOUR ( '', #23 ) ;
#101 = ORIENTED_EDGE ( 'NONE', *, *, #261, .T. ) ;
#102 = EDGE_CURVE ( 'NONE', #49, #143, #133, .T. ) ;
#103 = DIRECTION ( 'NONE',  ( 0.000000000000000000, -1.000000000000000000, -0.000000000000000000 ) ) ;
#104 =( GEOMETRIC_REPRESENTATION_CONTEXT ( 3 ) GLOBAL_UNCERTAINTY_ASSIGNED_CONTEXT ( ( #252 ) ) GLOBAL_UNIT_ASSIGNED_CONTEXT ( ( #285, #240, #218 ) ) REPRESENTATION_CONTEXT ( 'NONE', 'WORKASPACE' ) );
#105 = FACE_OUTER_BOUND ( 'NONE', #31, .T. ) ;
#106 = FILL_AREA_STYLE ('',( #212 ) ) ;
#107 = CARTESIAN_POINT ( 'NONE',  ( 0.000000000000000000, 24.00000000000000000, 0.000000000000000000 ) ) ;
#108 = FILL_AREA_STYLE ('',( #36 ) ) ;
#109 = MANIFOLD_SOLID_BREP ( 'Revolve - Cutting Edge', #55 ) ;
#110 = DIRECTION ( 'NONE',  ( -1.000000000000000000, 0.000000000000000000, 0.000000000000000000 ) ) ;
#111 = MECHANICAL_DESIGN_GEOMETRIC_PRESENTATION_REPRESENTATION (  '', ( #62 ), #46 ) ;
#112 = DIRECTION ( 'NONE',  ( -1.000000000000000000, 0.000000000000000000, 0.000000000000000000 ) ) ;
#113 = AXIS2_PLACEMENT_3D ( 'NONE', #97, #228, #10 ) ;
#114 = DIRECTION ( 'NONE',  ( -0.000000000000000000, -1.000000000000000000, -0.000000000000000000 ) ) ;
#115 = ORIENTED_EDGE ( 'NONE', *, *, #193, .F. ) ;
#116 = EDGE_CURVE ( 'NONE', #183, #32, #251, .T. ) ;
#117 = DIRECTION ( 'NONE',  ( -0.000000000000000000, -1.000000000000000000, -0.000000000000000000 ) ) ;
#118 = ORIENTED_EDGE ( 'NONE', *, *, #239, .T. ) ;
#119 = CARTESIAN_POINT ( 'NONE',  ( 0.000000000000000000, 0.000000000000000000, 0.000000000000000000 ) ) ;
#120 = ORIENTED_EDGE ( 'NONE', *, *, #102, .F. ) ;
#121 = FILL_AREA_STYLE ('',( #165 ) ) ;
#122 = UNCERTAINTY_MEASURE_WITH_UNIT (LENGTH_MEASURE( 1.000000000000000082E-05 ), #220, 'distance_accuracy_value', 'NONE');
#123 = COLOUR_RGB ( '',1.000000000000000000, 0.000000000000000000, 0.000000000000000000 ) ;
#124 = MECHANICAL_DESIGN_GEOMETRIC_PRESENTATION_REPRESENTATION (  '', ( #154 ), #85 ) ;
#125 = CARTESIAN_POINT ( 'NONE',  ( 0.000000000000000000, 0.000000000000000000, 0.000000000000000000 ) ) ;
#126 = AXIS2_PLACEMENT_3D ( 'NONE', #207, #84, #233 ) ;
#127 = ADVANCED_FACE ( 'NONE', ( #238 ), #198, .T. ) ;
#128 = CARTESIAN_POINT ( 'NONE',  ( -1.469576158976823750E-15, 75.00000000000000000, 0.000000000000000000 ) ) ;
#129 = DIRECTION ( 'NONE',  ( -2.881521880346713429E-17, 1.000000000000000000, -0.000000000000000000 ) ) ;
#130 = SURFACE_STYLE_USAGE ( .BOTH. , #191 ) ;
#131 = CYLINDRICAL_SURFACE ( 'NONE', #83, 4.000000000000000888 ) ;
#132 = DIRECTION ( 'NONE',  ( -2.881521880346713429E-17, 1.000000000000000000, -0.000000000000000000 ) ) ;
#133 = CIRCLE ( 'NONE', #262, 4.000000000000001776 ) ;
#134 = SURFACE_STYLE_USAGE ( .BOTH. , #237 ) ;
#135 = APPLICATION_CONTEXT ( 'automotive_design' ) ;
#136 = FILL_AREA_STYLE ('',( #45 ) ) ;
#137 = PRESENTATION_LAYER_ASSIGNMENT (  '', '', ( #188 ) ) ;
#138 = SURFACE_SIDE_STYLE ('',( #44 ) ) ;
#139 = ORIENTED_EDGE ( 'NONE', *, *, #147, .F. ) ;
#140 = SURFACE_STYLE_FILL_AREA ( #121 ) ;
#141 = ORIENTED_EDGE ( 'NONE', *, *, #214, .T. ) ;
#142 = DIRECTION ( 'NONE',  ( -2.881521880346713429E-17, 1.000000000000000000, -0.000000000000000000 ) ) ;
#143 = VERTEX_POINT ( 'NONE', #2 ) ;
#144 = ADVANCED_FACE ( 'NONE', ( #87 ), #264, .F. ) ;
#145 = AXIS2_PLACEMENT_3D ( 'NONE', #59, #103, #148 ) ;
#146 = DIRECTION ( 'NONE',  ( -0.000000000000000000, -1.000000000000000000, -0.000000000000000000 ) ) ;
#147 = EDGE_CURVE ( 'NONE', #270, #143, #178, .T. ) ;
#148 = DIRECTION ( 'NONE',  ( 0.000000000000000000, 0.000000000000000000, -1.000000000000000000 ) ) ;
#149 = PLANE ( 'NONE',  #67 ) ;
#150 = PLANE ( 'NONE',  #145 ) ;
#151 = DIRECTION ( 'NONE',  ( 0.000000000000000000, -0.000000000000000000, 1.000000000000000000 ) ) ;
#152 = SURFACE_STYLE_FILL_AREA ( #43 ) ;
#153 = COLOUR_RGB ( '',0.7921568627450980005, 0.8196078431372548767, 0.9333333333333333481 ) ;
#154 = STYLED_ITEM ( 'NONE', ( #190 ), #271 ) ;
#155 = PRODUCT_DEFINITION_SHAPE ( 'NONE', 'NONE',  #197 ) ;
#156 = CIRCLE ( 'NONE', #288, 4.000000000000000000 ) ;
#157 = CARTESIAN_POINT ( 'NONE',  ( 0.000000000000000000, 0.000000000000000000, -4.000000000000000000 ) ) ;
#158 = ORIENTED_EDGE ( 'NONE', *, *, #250, .T. ) ;
#159 =( NAMED_UNIT ( * ) PLANE_ANGLE_UNIT ( ) SI_UNIT ( $, .RADIAN. ) );
#160 = ORIENTED_EDGE ( 'NONE', *, *, #58, .F. ) ;
#161 = CARTESIAN_POINT ( 'NONE',  ( -4.000000000000002665, 75.00000000000000000, 0.000000000000000000 ) ) ;
#162 = ORIENTED_EDGE ( 'NONE', *, *, #28, .F. ) ;
#163 = PRODUCT ( '59800', '59800', '', ( #33 ) ) ;
#164 = CIRCLE ( 'NONE', #172, 4.000000000000000000 ) ;
#165 = FILL_AREA_STYLE_COLOUR ( '', #266 ) ;
#166 = VERTEX_POINT ( 'NONE', #72 ) ;
#167 = PRODUCT_DEFINITION_CONTEXT ( 'detailed design', #76, 'design' ) ;
#168 = AXIS2_PLACEMENT_3D ( 'NONE', #90, #70, #219 ) ;
#169 = DIRECTION ( 'NONE',  ( -1.000000000000000000, 0.000000000000000000, 0.000000000000000000 ) ) ;
#170 = SURFACE_STYLE_USAGE ( .BOTH. , #50 ) ;
#171 = CARTESIAN_POINT ( 'NONE',  ( -1.469576158976823750E-15, 75.00000000000000000, 0.000000000000000000 ) ) ;
#172 = AXIS2_PLACEMENT_3D ( 'NONE', #48, #117, #182 ) ;
#173 = AXIS2_PLACEMENT_3D ( 'NONE', #119, #35, #274 ) ;
#174 = DIRECTION ( 'NONE',  ( -0.000000000000000000, -1.000000000000000000, -0.000000000000000000 ) ) ;
#175 = CARTESIAN_POINT ( 'NONE',  ( 0.000000000000000000, 0.000000000000000000, 0.000000000000000000 ) ) ;
#176 = DIRECTION ( 'NONE',  ( 0.000000000000000000, 0.000000000000000000, -1.000000000000000000 ) ) ;
#177 = CIRCLE ( 'NONE', #80, 4.000000000000000000 ) ;
#178 = LINE ( 'NONE', #267, #99 ) ;
#179 = EDGE_LOOP ( 'NONE', ( #205, #158 ) ) ;
#180 = LINE ( 'NONE', #246, #30 ) ;
#181 = FACE_OUTER_BOUND ( 'NONE', #78, .T. ) ;
#182 = DIRECTION ( 'NONE',  ( 0.000000000000000000, 0.000000000000000000, -1.000000000000000000 ) ) ;
#183 = VERTEX_POINT ( 'NONE', #157 ) ;
#184 =( GEOMETRIC_REPRESENTATION_CONTEXT ( 3 ) GLOBAL_UNCERTAINTY_ASSIGNED_CONTEXT ( ( #79 ) ) GLOBAL_UNIT_ASSIGNED_CONTEXT ( ( #60, #159, #204 ) ) REPRESENTATION_CONTEXT ( 'NONE', 'WORKASPACE' ) );
#185 = AXIS2_PLACEMENT_3D ( 'NONE', #265, #192, #248 ) ;
#186 = ORIENTED_EDGE ( 'NONE', *, *, #116, .F. ) ;
#187 =( LENGTH_UNIT ( ) NAMED_UNIT ( * ) SI_UNIT ( .MILLI., .METRE. ) );
#188 = STYLED_ITEM ( 'NONE', ( #69 ), #109 ) ;
#189 = FACE_OUTER_BOUND ( 'NONE', #96, .T. ) ;
#190 = PRESENTATION_STYLE_ASSIGNMENT (( #226 ) ) ;
#191 = SURFACE_SIDE_STYLE ('',( #57 ) ) ;
#192 = DIRECTION ( 'NONE',  ( 0.000000000000000000, 0.000000000000000000, 1.000000000000000000 ) ) ;
#193 = EDGE_CURVE ( 'NONE', #277, #166, #164, .T. ) ;
#194 = FACE_OUTER_BOUND ( 'NONE', #98, .T. ) ;
#195 = PRESENTATION_STYLE_ASSIGNMENT (( #25 ) ) ;
#196 = MANIFOLD_SOLID_BREP ( 'Revolve - Tool Body (Straight Shanked)', #4 ) ;
#197 = PRODUCT_DEFINITION ( 'UNKNOWN', '', #280, #167 ) ;
#198 = CYLINDRICAL_SURFACE ( 'NONE', #89, 4.000000000000000000 ) ;
#199 = COLOUR_RGB ( '',1.000000000000000000, 0.000000000000000000, 0.000000000000000000 ) ;
#200 = CARTESIAN_POINT ( 'NONE',  ( 4.898587196589412829E-16, 24.00000000000000000, 4.000000000000000000 ) ) ;
#201 = ORIENTED_EDGE ( 'NONE', *, *, #214, .F. ) ;
#202 = PLANE ( 'NONE',  #113 ) ;
#203 = ORIENTED_EDGE ( 'NONE', *, *, #91, .T. ) ;
#204 =( NAMED_UNIT ( * ) SI_UNIT ( $, .STERADIAN. ) SOLID_ANGLE_UNIT ( ) );
#205 = ORIENTED_EDGE ( 'NONE', *, *, #102, .T. ) ;
#206 = STYLED_ITEM ( 'NONE', ( #61 ), #73 ) ;
#207 = CARTESIAN_POINT ( 'NONE',  ( 0.000000000000000000, 24.00000000000000000, 0.000000000000000000 ) ) ;
#208 = COLOUR_RGB ( '',1.000000000000000000, 0.000000000000000000, 0.000000000000000000 ) ;
#209 = PRESENTATION_STYLE_ASSIGNMENT (( #170 ) ) ;
#210 = PRESENTATION_STYLE_ASSIGNMENT (( #130 ) ) ;
#211 = DIRECTION ( 'NONE',  ( -0.000000000000000000, -1.000000000000000000, -0.000000000000000000 ) ) ;
#212 = FILL_AREA_STYLE_COLOUR ( '', #123 ) ;
#213 = CARTESIAN_POINT ( 'NONE',  ( -4.000000000000000000, 24.00000000000000000, 0.000000000000000000 ) ) ;
#214 = EDGE_CURVE ( 'NONE', #7, #49, #53, .T. ) ;
#215 =( NAMED_UNIT ( * ) PLANE_ANGLE_UNIT ( ) SI_UNIT ( $, .RADIAN. ) );
#216 = VECTOR ( 'NONE', #142, 1000.000000000000000 ) ;
#217 = CARTESIAN_POINT ( 'NONE',  ( 0.000000000000000000, 0.000000000000000000, 0.000000000000000000 ) ) ;
#218 =( NAMED_UNIT ( * ) SI_UNIT ( $, .STERADIAN. ) SOLID_ANGLE_UNIT ( ) );
#219 = DIRECTION ( 'NONE',  ( 1.000000000000000000, 2.881521880346713429E-17, 0.000000000000000000 ) ) ;
#220 =( LENGTH_UNIT ( ) NAMED_UNIT ( * ) SI_UNIT ( .MILLI., .METRE. ) );
#221 = EDGE_LOOP ( 'NONE', ( #160, #115 ) ) ;
#222 = APPLICATION_PROTOCOL_DEFINITION ( 'draft international standard', 'automotive_design', 1998, #76 ) ;
#223 = CYLINDRICAL_SURFACE ( 'NONE', #173, 4.000000000000000000 ) ;
#224 = STYLED_ITEM ( 'NONE', ( #210 ), #88 ) ;
#225 = ORIENTED_EDGE ( 'NONE', *, *, #250, .F. ) ;
#226 = SURFACE_STYLE_USAGE ( .BOTH. , #273 ) ;
#227 = EDGE_LOOP ( 'NONE', ( #8, #54, #118, #162 ) ) ;
#228 = DIRECTION ( 'NONE',  ( -2.881521880346713429E-17, 1.000000000000000000, 0.000000000000000000 ) ) ;
#229 = SHAPE_DEFINITION_REPRESENTATION ( #155, #3 ) ;
#230 = PRESENTATION_LAYER_ASSIGNMENT (  '', '', ( #62 ) ) ;
#231 = AXIS2_PLACEMENT_3D ( 'NONE', #171, #257, #110 ) ;
#232 =( LENGTH_UNIT ( ) NAMED_UNIT ( * ) SI_UNIT ( .MILLI., .METRE. ) );
#233 = DIRECTION ( 'NONE',  ( -1.000000000000000000, 0.000000000000000000, 0.000000000000000000 ) ) ;
#234 =( LENGTH_UNIT ( ) NAMED_UNIT ( * ) SI_UNIT ( .MILLI., .METRE. ) );
#235 =( GEOMETRIC_REPRESENTATION_CONTEXT ( 3 ) GLOBAL_UNCERTAINTY_ASSIGNED_CONTEXT ( ( #242 ) ) GLOBAL_UNIT_ASSIGNED_CONTEXT ( ( #232, #41, #259 ) ) REPRESENTATION_CONTEXT ( 'NONE', 'WORKASPACE' ) );
#236 = PRESENTATION_LAYER_ASSIGNMENT (  '', '', ( #154 ) ) ;
#237 = SURFACE_SIDE_STYLE ('',( #152 ) ) ;
#238 = FACE_OUTER_BOUND ( 'NONE', #227, .T. ) ;
#239 = EDGE_CURVE ( 'NONE', #166, #183, #243, .T. ) ;
#240 =( NAMED_UNIT ( * ) PLANE_ANGLE_UNIT ( ) SI_UNIT ( $, .RADIAN. ) );
#241 = ORIENTED_EDGE ( 'NONE', *, *, #91, .F. ) ;
#242 = UNCERTAINTY_MEASURE_WITH_UNIT (LENGTH_MEASURE( 1.000000000000000082E-05 ), #232, 'distance_accuracy_value', 'NONE');
#243 = LINE ( 'NONE', #77, #42 ) ;
#244 = ORIENTED_EDGE ( 'NONE', *, *, #58, .T. ) ;
#245 = CIRCLE ( 'NONE', #126, 4.000000000000000000 ) ;
#246 = CARTESIAN_POINT ( 'NONE',  ( 4.898587196589412829E-16, 0.000000000000000000, 4.000000000000000000 ) ) ;
#247 = ORIENTED_EDGE ( 'NONE', *, *, #28, .T. ) ;
#248 = DIRECTION ( 'NONE',  ( 1.000000000000000000, 0.000000000000000000, 0.000000000000000000 ) ) ;
#249 = ORIENTED_EDGE ( 'NONE', *, *, #116, .T. ) ;
#250 = EDGE_CURVE ( 'NONE', #143, #49, #93, .T. ) ;
#251 = CIRCLE ( 'NONE', #256, 4.000000000000000000 ) ;
#252 = UNCERTAINTY_MEASURE_WITH_UNIT (LENGTH_MEASURE( 1.000000000000000082E-05 ), #285, 'distance_accuracy_value', 'NONE');
#253 = DIRECTION ( 'NONE',  ( -2.881521880346713429E-17, 1.000000000000000000, -0.000000000000000000 ) ) ;
#254 = FILL_AREA_STYLE_COLOUR ( '', #153 ) ;
#255 = CARTESIAN_POINT ( 'NONE',  ( 4.000000000000000000, 24.00000000000000000, 4.898587196589413815E-16 ) ) ;
#256 = AXIS2_PLACEMENT_3D ( 'NONE', #175, #114, #263 ) ;
#257 = DIRECTION ( 'NONE',  ( -2.881521880346713429E-17, 1.000000000000000000, -0.000000000000000000 ) ) ;
#258 = CARTESIAN_POINT ( 'NONE',  ( -4.000000000000003553, 75.00000000000000000, 0.000000000000000000 ) ) ;
#259 =( NAMED_UNIT ( * ) SI_UNIT ( $, .STERADIAN. ) SOLID_ANGLE_UNIT ( ) );
#260 = DIRECTION ( 'NONE',  ( -2.881521880346713429E-17, 1.000000000000000000, -0.000000000000000000 ) ) ;
#261 = EDGE_CURVE ( 'NONE', #277, #32, #180, .T. ) ;
#262 = AXIS2_PLACEMENT_3D ( 'NONE', #284, #132, #169 ) ;
#263 = DIRECTION ( 'NONE',  ( 0.000000000000000000, 0.000000000000000000, -1.000000000000000000 ) ) ;
#264 = PLANE ( 'NONE',  #168 ) ;
#265 = CARTESIAN_POINT ( 'NONE',  ( 0.000000000000000000, 0.000000000000000000, 0.000000000000000000 ) ) ;
#266 = COLOUR_RGB ( '',0.7921568627450980005, 0.8196078431372548767, 0.9333333333333333481 ) ;
#267 = CARTESIAN_POINT ( 'NONE',  ( 3.999999999999999112, 75.00000000000000000, 4.898587196589413815E-16 ) ) ;
#268 = ORIENTED_EDGE ( 'NONE', *, *, #6, .T. ) ;
#269 = SURFACE_STYLE_FILL_AREA ( #52 ) ;
#270 = VERTEX_POINT ( 'NONE', #255 ) ;
#271 = ADVANCED_FACE ( 'NONE', ( #105 ), #223, .T. ) ;
#272 = UNCERTAINTY_MEASURE_WITH_UNIT (LENGTH_MEASURE( 1.000000000000000082E-05 ), #187, 'distance_accuracy_value', 'NONE');
#273 = SURFACE_SIDE_STYLE ('',( #269 ) ) ;
#274 = DIRECTION ( 'NONE',  ( 0.000000000000000000, 0.000000000000000000, -1.000000000000000000 ) ) ;
#275 = PRESENTATION_LAYER_ASSIGNMENT (  '', '', ( #224 ) ) ;
#276 = AXIS2_PLACEMENT_3D ( 'NONE', #128, #253, #94 ) ;
#277 = VERTEX_POINT ( 'NONE', #200 ) ;
#278 = ADVANCED_FACE ( 'NONE', ( #181 ), #202, .F. ) ;
#279 =( GEOMETRIC_REPRESENTATION_CONTEXT ( 3 ) GLOBAL_UNCERTAINTY_ASSIGNED_CONTEXT ( ( #27 ) ) GLOBAL_UNIT_ASSIGNED_CONTEXT ( ( #234, #82, #12 ) ) REPRESENTATION_CONTEXT ( 'NONE', 'WORKASPACE' ) );
#280 = PRODUCT_DEFINITION_FORMATION_WITH_SPECIFIED_SOURCE ( 'ANY', '', #163, .NOT_KNOWN. ) ;
#281 =( NAMED_UNIT ( * ) PLANE_ANGLE_UNIT ( ) SI_UNIT ( $, .RADIAN. ) );
#282 = CYLINDRICAL_SURFACE ( 'NONE', #231, 4.000000000000000888 ) ;
#283 = MECHANICAL_DESIGN_GEOMETRIC_PRESENTATION_REPRESENTATION (  '', ( #224 ), #279 ) ;
#284 = CARTESIAN_POINT ( 'NONE',  ( -1.469576158976823750E-15, 75.00000000000000000, 0.000000000000000000 ) ) ;
#285 =( LENGTH_UNIT ( ) NAMED_UNIT ( * ) SI_UNIT ( .MILLI., .METRE. ) );
#286 = SURFACE_STYLE_USAGE ( .BOTH. , #86 ) ;
#287 =( NAMED_UNIT ( * ) SI_UNIT ( $, .STERADIAN. ) SOLID_ANGLE_UNIT ( ) );
#288 = AXIS2_PLACEMENT_3D ( 'NONE', #38, #65, #40 ) ;
ENDSEC;
END-ISO-10303-21;
