ISO-10303-21;
HEADER;
FILE_DESCRIPTION (( 'STEP AP214' ),
    '1' );
FILE_NAME ('17017.STEP',
    '2023-06-30T21:51:46',
    ( '' ),
    ( '' ),
    'SwSTEP 2.0',
    'SolidWorks 2023',
    '' );
FILE_SCHEMA (( 'AUTOMOTIVE_DESIGN' ));
ENDSEC;

DATA;
#1 = AXIS2_PLACEMENT_3D ( 'NONE', #132, #165, #135 ) ;
#2 = DIRECTION ( 'NONE',  ( 0.000000000000000000, 1.000000000000000000, 0.000000000000000000 ) ) ;
#3 = DIMENSIONAL_EXPONENTS ( 1.000000000000000000, 0.000000000000000000, 0.000000000000000000, 0.000000000000000000, 0.000000000000000000, 0.000000000000000000, 0.000000000000000000 ) ;
#4 = UNCERTAINTY_MEASURE_WITH_UNIT (LENGTH_MEASURE( 1.000000000000000082E-05 ), #9, 'distance_accuracy_value', 'NONE');
#5 = CARTESIAN_POINT ( 'NONE',  ( 3.673940397442059375E-16, 1.500000000000000444, 0.000000000000000000 ) ) ;
#6 = CIRCLE ( 'NONE', #194, 0.06249999999999942407 ) ;
#7 = DIRECTION ( 'NONE',  ( 0.000000000000000000, 0.000000000000000000, 1.000000000000000000 ) ) ;
#8 = FACE_OUTER_BOUND ( 'NONE', #159, .T. ) ;
#9 =( CONVERSION_BASED_UNIT ( 'INCH', #172 ) LENGTH_UNIT ( ) NAMED_UNIT ( #3 ) );
#10 = ORIENTED_EDGE ( 'NONE', *, *, #367, .T. ) ;
#11 = EDGE_CURVE ( 'NONE', #184, #65, #38, .T. ) ;
#12 = LINE ( 'NONE', #240, #312 ) ;
#13 = EDGE_CURVE ( 'NONE', #152, #131, #156, .T. ) ;
#14 = ORIENTED_EDGE ( 'NONE', *, *, #166, .F. ) ;
#15 = CARTESIAN_POINT ( 'NONE',  ( 5.181141591958969140E-16, 0.2500000000000000555, 0.000000000000000000 ) ) ;
#16 =( LENGTH_UNIT ( ) NAMED_UNIT ( * ) SI_UNIT ( $, .METRE. ) );
#17 = DIRECTION ( 'NONE',  ( 0.000000000000000000, 0.000000000000000000, -1.000000000000000000 ) ) ;
#18 = EDGE_CURVE ( 'NONE', #270, #354, #243, .T. ) ;
#19 = SURFACE_STYLE_FILL_AREA ( #168 ) ;
#20 = CARTESIAN_POINT ( 'NONE',  ( 0.000000000000000000, 0.000000000000000000, 0.000000000000000000 ) ) ;
#21 = EDGE_LOOP ( 'NONE', ( #10, #115, #290, #217 ) ) ;
#22 = PRESENTATION_STYLE_ASSIGNMENT (( #134 ) ) ;
#23 = SURFACE_SIDE_STYLE ('',( #214 ) ) ;
#24 =( GEOMETRIC_REPRESENTATION_CONTEXT ( 3 ) GLOBAL_UNCERTAINTY_ASSIGNED_CONTEXT ( ( #311 ) ) GLOBAL_UNIT_ASSIGNED_CONTEXT ( ( #319, #310, #100 ) ) REPRESENTATION_CONTEXT ( 'NONE', 'WORKASPACE' ) );
#25 = PRESENTATION_STYLE_ASSIGNMENT (( #215 ) ) ;
#26 = DIRECTION ( 'NONE',  ( 1.224646799147353207E-16, -0.000000000000000000, 1.000000000000000000 ) ) ;
#27 = UNCERTAINTY_MEASURE_WITH_UNIT (LENGTH_MEASURE( 1.000000000000000082E-05 ), #275, 'distance_accuracy_value', 'NONE');
#28 = DIMENSIONAL_EXPONENTS ( 1.000000000000000000, 0.000000000000000000, 0.000000000000000000, 0.000000000000000000, 0.000000000000000000, 0.000000000000000000, 0.000000000000000000 ) ;
#29 = DIRECTION ( 'NONE',  ( 1.000000000000000000, 0.000000000000000000, 0.000000000000000000 ) ) ;
#30 = STYLED_ITEM ( 'NONE', ( #330 ), #44 ) ;
#31 = ORIENTED_EDGE ( 'NONE', *, *, #85, .T. ) ;
#32 = FACE_OUTER_BOUND ( 'NONE', #68, .T. ) ;
#33 = ORIENTED_EDGE ( 'NONE', *, *, #18, .F. ) ;
#34 = SURFACE_SIDE_STYLE ('',( #291 ) ) ;
#35 = STYLED_ITEM ( 'NONE', ( #25 ), #158 ) ;
#36 = DIRECTION ( 'NONE',  ( -1.205760955613527713E-16, 1.000000000000000000, -0.000000000000000000 ) ) ;
#37 = VERTEX_POINT ( 'NONE', #364 ) ;
#38 = CIRCLE ( 'NONE', #294, 0.06249999999999942407 ) ;
#39 = LINE ( 'NONE', #289, #150 ) ;
#40 =( CONVERSION_BASED_UNIT ( 'INCH', #302 ) LENGTH_UNIT ( ) NAMED_UNIT ( #257 ) );
#41 = APPLICATION_CONTEXT ( 'automotive_design' ) ;
#42 = ORIENTED_EDGE ( 'NONE', *, *, #13, .F. ) ;
#43 = PRESENTATION_LAYER_ASSIGNMENT (  '', '', ( #35 ) ) ;
#44 = ADVANCED_FACE ( 'NONE', ( #282 ), #138, .T. ) ;
#45 = ORIENTED_EDGE ( 'NONE', *, *, #60, .F. ) ;
#46 = MECHANICAL_DESIGN_GEOMETRIC_PRESENTATION_REPRESENTATION (  '', ( #333 ), #113 ) ;
#47 =( NAMED_UNIT ( * ) SI_UNIT ( $, .STERADIAN. ) SOLID_ANGLE_UNIT ( ) );
#48 = DIRECTION ( 'NONE',  ( 1.205760955613527713E-16, -1.000000000000000000, 0.000000000000000000 ) ) ;
#49 =( LENGTH_UNIT ( ) NAMED_UNIT ( * ) SI_UNIT ( $, .METRE. ) );
#50 = COLOUR_RGB ( '',0.7921568627450980005, 0.8196078431372548767, 0.9333333333333333481 ) ;
#51 = AXIS2_PLACEMENT_3D ( 'NONE', #329, #104, #276 ) ;
#52 = CARTESIAN_POINT ( 'NONE',  ( -7.654042494670957545E-18, 0.06250000000000001388, 0.000000000000000000 ) ) ;
#53 = EDGE_CURVE ( 'NONE', #131, #152, #162, .T. ) ;
#54 = SURFACE_STYLE_USAGE ( .BOTH. , #209 ) ;
#55 = FILL_AREA_STYLE ('',( #318 ) ) ;
#56 = UNCERTAINTY_MEASURE_WITH_UNIT (LENGTH_MEASURE( 1.000000000000000082E-05 ), #77, 'distance_accuracy_value', 'NONE');
#57 = ORIENTED_EDGE ( 'NONE', *, *, #60, .T. ) ;
#58 = LINE ( 'NONE', #153, #89 ) ;
#59 = PRODUCT_CONTEXT ( 'NONE', #269, 'mechanical' ) ;
#60 = EDGE_CURVE ( 'NONE', #130, #270, #314, .T. ) ;
#61 = DIRECTION ( 'NONE',  ( -1.205760955613527713E-16, 1.000000000000000000, -0.000000000000000000 ) ) ;
#62 = ORIENTED_EDGE ( 'NONE', *, *, #228, .T. ) ;
#63 = PLANE ( 'NONE',  #198 ) ;
#64 =( GEOMETRIC_REPRESENTATION_CONTEXT ( 3 ) GLOBAL_UNCERTAINTY_ASSIGNED_CONTEXT ( ( #262 ) ) GLOBAL_UNIT_ASSIGNED_CONTEXT ( ( #365, #125, #321 ) ) REPRESENTATION_CONTEXT ( 'NONE', 'WORKASPACE' ) );
#65 = VERTEX_POINT ( 'NONE', #70 ) ;
#66 = CARTESIAN_POINT ( 'NONE',  ( 0.000000000000000000, 0.06250000000000001388, -0.06249999999999995143 ) ) ;
#67 = LENGTH_MEASURE_WITH_UNIT ( LENGTH_MEASURE( 0.02539999999999999897 ), #188 );
#68 = EDGE_LOOP ( 'NONE', ( #157, #206, #366, #33, #273 ) ) ;
#69 = PRODUCT_DEFINITION ( 'UNKNOWN', '', #155, #226 ) ;
#70 = CARTESIAN_POINT ( 'NONE',  ( -0.06249999999999890365, 0.2500000000000000555, 0.000000000000000000 ) ) ;
#71 = DIRECTION ( 'NONE',  ( 0.000000000000000000, 0.000000000000000000, -1.000000000000000000 ) ) ;
#72 = ADVANCED_FACE ( 'NONE', ( #249 ), #368, .T. ) ;
#73 = SURFACE_STYLE_USAGE ( .BOTH. , #108 ) ;
#74 = AXIS2_PLACEMENT_3D ( 'NONE', #52, #26, #171 ) ;
#75 = ORIENTED_EDGE ( 'NONE', *, *, #18, .T. ) ;
#76 = AXIS2_PLACEMENT_3D ( 'NONE', #236, #2, #120 ) ;
#77 =( CONVERSION_BASED_UNIT ( 'INCH', #164 ) LENGTH_UNIT ( ) NAMED_UNIT ( #248 ) );
#78 = DIRECTION ( 'NONE',  ( -0.000000000000000000, -1.000000000000000000, -0.000000000000000000 ) ) ;
#79 = CARTESIAN_POINT ( 'NONE',  ( -3.827021247335479543E-18, 3.414809992080329023E-17, 0.000000000000000000 ) ) ;
#80 = DIRECTION ( 'NONE',  ( 0.000000000000000000, 0.000000000000000000, -1.000000000000000000 ) ) ;
#81 = FILL_AREA_STYLE_COLOUR ( '', #139 ) ;
#82 = STYLED_ITEM ( 'NONE', ( #360 ), #277 ) ;
#83 = APPLICATION_PROTOCOL_DEFINITION ( 'draft international standard', 'automotive_design', 1998, #269 ) ;
#84 = CARTESIAN_POINT ( 'NONE',  ( 5.181141591958969140E-16, 0.2500000000000000555, 0.000000000000000000 ) ) ;
#85 = EDGE_CURVE ( 'NONE', #97, #352, #315, .T. ) ;
#86 =( CONVERSION_BASED_UNIT ( 'INCH', #233 ) LENGTH_UNIT ( ) NAMED_UNIT ( #144 ) );
#87 = DIRECTION ( 'NONE',  ( -0.000000000000000000, -1.000000000000000000, -0.000000000000000000 ) ) ;
#88 = AXIS2_PLACEMENT_3D ( 'NONE', #234, #91, #93 ) ;
#89 = VECTOR ( 'NONE', #336, 39.37007874015748143 ) ;
#90 = DIRECTION ( 'NONE',  ( 0.000000000000000000, 0.000000000000000000, -1.000000000000000000 ) ) ;
#91 = DIRECTION ( 'NONE',  ( -1.205760955613527713E-16, 1.000000000000000000, -0.000000000000000000 ) ) ;
#92 = ADVANCED_FACE ( 'NONE', ( #169 ), #63, .F. ) ;
#93 = DIRECTION ( 'NONE',  ( -1.000000000000000000, 0.000000000000000000, 0.000000000000000000 ) ) ;
#94 = ORIENTED_EDGE ( 'NONE', *, *, #340, .F. ) ;
#95 = SURFACE_STYLE_FILL_AREA ( #242 ) ;
#96 =( NAMED_UNIT ( * ) PLANE_ANGLE_UNIT ( ) SI_UNIT ( $, .RADIAN. ) );
#97 = VERTEX_POINT ( 'NONE', #323 ) ;
#98 = CIRCLE ( 'NONE', #143, 0.06249999999999995143 ) ;
#99 = CLOSED_SHELL ( 'NONE', ( #183, #92, #102, #346 ) ) ;
#100 =( NAMED_UNIT ( * ) SI_UNIT ( $, .STERADIAN. ) SOLID_ANGLE_UNIT ( ) );
#101 = EDGE_LOOP ( 'NONE', ( #128, #274, #235, #14 ) ) ;
#102 = ADVANCED_FACE ( 'NONE', ( #343 ), #295, .T. ) ;
#103 =( NAMED_UNIT ( * ) SI_UNIT ( $, .STERADIAN. ) SOLID_ANGLE_UNIT ( ) );
#104 = DIRECTION ( 'NONE',  ( -0.000000000000000000, -1.000000000000000000, -0.000000000000000000 ) ) ;
#105 = AXIS2_PLACEMENT_3D ( 'NONE', #5, #179, #268 ) ;
#106 = EDGE_CURVE ( 'NONE', #184, #352, #58, .T. ) ;
#107 = UNCERTAINTY_MEASURE_WITH_UNIT (LENGTH_MEASURE( 1.000000000000000082E-05 ), #40, 'distance_accuracy_value', 'NONE');
#108 = SURFACE_SIDE_STYLE ('',( #246 ) ) ;
#109 =( NAMED_UNIT ( * ) PLANE_ANGLE_UNIT ( ) SI_UNIT ( $, .RADIAN. ) );
#110 = FACE_OUTER_BOUND ( 'NONE', #281, .T. ) ;
#111 = STYLED_ITEM ( 'NONE', ( #230 ), #176 ) ;
#112 = DIRECTION ( 'NONE',  ( -1.000000000000000000, 0.000000000000000000, 0.000000000000000000 ) ) ;
#113 =( GEOMETRIC_REPRESENTATION_CONTEXT ( 3 ) GLOBAL_UNCERTAINTY_ASSIGNED_CONTEXT ( ( #4 ) ) GLOBAL_UNIT_ASSIGNED_CONTEXT ( ( #9, #96, #255 ) ) REPRESENTATION_CONTEXT ( 'NONE', 'WORKASPACE' ) );
#114 = CARTESIAN_POINT ( 'NONE',  ( 0.000000000000000000, 0.06250000000000001388, 0.000000000000000000 ) ) ;
#115 = ORIENTED_EDGE ( 'NONE', *, *, #340, .T. ) ;
#116 = STYLED_ITEM ( 'NONE', ( #22 ), #298 ) ;
#117 = AXIS2_PLACEMENT_3D ( 'NONE', #20, #252, #71 ) ;
#118 = ADVANCED_FACE ( 'NONE', ( #371 ), #316, .T. ) ;
#119 = FILL_AREA_STYLE_COLOUR ( '', #373 ) ;
#120 = DIRECTION ( 'NONE',  ( 0.000000000000000000, -0.000000000000000000, 1.000000000000000000 ) ) ;
#121 = DIMENSIONAL_EXPONENTS ( 1.000000000000000000, 0.000000000000000000, 0.000000000000000000, 0.000000000000000000, 0.000000000000000000, 0.000000000000000000, 0.000000000000000000 ) ;
#122 = LINE ( 'NONE', #345, #224 ) ;
#123 = DIRECTION ( 'NONE',  ( -0.000000000000000000, -1.000000000000000000, -0.000000000000000000 ) ) ;
#124 = CIRCLE ( 'NONE', #88, 0.06249999999999958367 ) ;
#125 =( NAMED_UNIT ( * ) PLANE_ANGLE_UNIT ( ) SI_UNIT ( $, .RADIAN. ) );
#126 = ORIENTED_EDGE ( 'NONE', *, *, #211, .F. ) ;
#127 =( LENGTH_UNIT ( ) NAMED_UNIT ( * ) SI_UNIT ( $, .METRE. ) );
#128 = ORIENTED_EDGE ( 'NONE', *, *, #211, .T. ) ;
#129 = EDGE_CURVE ( 'NONE', #152, #37, #122, .T. ) ;
#130 = VERTEX_POINT ( 'NONE', #261 ) ;
#131 = VERTEX_POINT ( 'NONE', #350 ) ;
#132 = CARTESIAN_POINT ( 'NONE',  ( 0.000000000000000000, 0.2500000000000000555, 0.000000000000000000 ) ) ;
#133 = COLOUR_RGB ( '',1.000000000000000000, 0.000000000000000000, 0.000000000000000000 ) ;
#134 = SURFACE_STYLE_USAGE ( .BOTH. , #304 ) ;
#135 = DIRECTION ( 'NONE',  ( 0.000000000000000000, 0.000000000000000000, -1.000000000000000000 ) ) ;
#136 =( CONVERSION_BASED_UNIT ( 'INCH', #372 ) LENGTH_UNIT ( ) NAMED_UNIT ( #283 ) );
#137 = EDGE_CURVE ( 'NONE', #352, #97, #124, .T. ) ;
#138 = CYLINDRICAL_SURFACE ( 'NONE', #117, 0.06249999999999995143 ) ;
#139 = COLOUR_RGB ( '',1.000000000000000000, 0.000000000000000000, 0.000000000000000000 ) ;
#140 = CARTESIAN_POINT ( 'NONE',  ( 0.06249999999999996531, 0.06250000000000001388, 0.000000000000000000 ) ) ;
#141 = FILL_AREA_STYLE ('',( #81 ) ) ;
#142 =( LENGTH_UNIT ( ) NAMED_UNIT ( * ) SI_UNIT ( $, .METRE. ) );
#143 = AXIS2_PLACEMENT_3D ( 'NONE', #192, #306, #280 ) ;
#144 = DIMENSIONAL_EXPONENTS ( 1.000000000000000000, 0.000000000000000000, 0.000000000000000000, 0.000000000000000000, 0.000000000000000000, 0.000000000000000000, 0.000000000000000000 ) ;
#145 = CARTESIAN_POINT ( 'NONE',  ( -7.654042494670957545E-18, 0.06250000000000001388, 0.000000000000000000 ) ) ;
#146 = ADVANCED_BREP_SHAPE_REPRESENTATION ( '17017', ( #298, #176, #271 ), #175 ) ;
#147 = SURFACE_STYLE_FILL_AREA ( #55 ) ;
#148 = CARTESIAN_POINT ( 'NONE',  ( 7.654042494670951382E-18, 0.2500000000000000555, 0.06249999999999995143 ) ) ;
#149 = ORIENTED_EDGE ( 'NONE', *, *, #11, .F. ) ;
#150 = VECTOR ( 'NONE', #237, 39.37007874015748143 ) ;
#151 = CLOSED_SHELL ( 'NONE', ( #118, #277, #72, #44, #158 ) ) ;
#152 = VERTEX_POINT ( 'NONE', #148 ) ;
#153 = CARTESIAN_POINT ( 'NONE',  ( 0.06249999999999986816, 1.500000000000000444, 7.654042494670897456E-18 ) ) ;
#154 = ORIENTED_EDGE ( 'NONE', *, *, #367, .F. ) ;
#155 = PRODUCT_DEFINITION_FORMATION_WITH_SPECIFIED_SOURCE ( 'ANY', '', #331, .NOT_KNOWN. ) ;
#156 = CIRCLE ( 'NONE', #213, 0.06249999999999995143 ) ;
#157 = ORIENTED_EDGE ( 'NONE', *, *, #53, .T. ) ;
#158 = ADVANCED_FACE ( 'NONE', ( #8 ), #267, .T. ) ;
#159 = EDGE_LOOP ( 'NONE', ( #94, #57, #75, #62 ) ) ;
#160 = DIRECTION ( 'NONE',  ( 0.000000000000000000, 0.000000000000000000, -1.000000000000000000 ) ) ;
#161 = PRESENTATION_LAYER_ASSIGNMENT (  '', '', ( #116 ) ) ;
#162 = CIRCLE ( 'NONE', #1, 0.06249999999999995143 ) ;
#163 = EDGE_LOOP ( 'NONE', ( #322, #42 ) ) ;
#164 = LENGTH_MEASURE_WITH_UNIT ( LENGTH_MEASURE( 0.02539999999999999897 ), #334 );
#165 = DIRECTION ( 'NONE',  ( -0.000000000000000000, -1.000000000000000000, -0.000000000000000000 ) ) ;
#166 = EDGE_CURVE ( 'NONE', #65, #97, #39, .T. ) ;
#167 = ORIENTED_EDGE ( 'NONE', *, *, #106, .F. ) ;
#168 = FILL_AREA_STYLE ('',( #119 ) ) ;
#169 = FACE_OUTER_BOUND ( 'NONE', #238, .T. ) ;
#170 = PRESENTATION_LAYER_ASSIGNMENT (  '', '', ( #232 ) ) ;
#171 = DIRECTION ( 'NONE',  ( 1.000000000000000000, 0.000000000000000000, -1.224646799147353454E-16 ) ) ;
#172 = LENGTH_MEASURE_WITH_UNIT ( LENGTH_MEASURE( 0.02539999999999999897 ), #49 );
#173 = DIRECTION ( 'NONE',  ( -0.000000000000000000, -1.000000000000000000, -0.000000000000000000 ) ) ;
#174 = DIMENSIONAL_EXPONENTS ( 1.000000000000000000, 0.000000000000000000, 0.000000000000000000, 0.000000000000000000, 0.000000000000000000, 0.000000000000000000, 0.000000000000000000 ) ;
#175 =( GEOMETRIC_REPRESENTATION_CONTEXT ( 3 ) GLOBAL_UNCERTAINTY_ASSIGNED_CONTEXT ( ( #229 ) ) GLOBAL_UNIT_ASSIGNED_CONTEXT ( ( #136, #251, #195 ) ) REPRESENTATION_CONTEXT ( 'NONE', 'WORKASPACE' ) );
#176 = MANIFOLD_SOLID_BREP ( 'Revolve - Tool Body (Straight Shanked)', #99 ) ;
#177 = CARTESIAN_POINT ( 'NONE',  ( -7.654042494670957545E-18, 0.06250000000000001388, 0.000000000000000000 ) ) ;
#178 = CARTESIAN_POINT ( 'NONE',  ( 3.673940397442059375E-16, 1.500000000000000444, 0.000000000000000000 ) ) ;
#179 = DIRECTION ( 'NONE',  ( -1.205760955613527713E-16, 1.000000000000000000, -0.000000000000000000 ) ) ;
#180 = ORIENTED_EDGE ( 'NONE', *, *, #129, .F. ) ;
#181 = PRODUCT_DEFINITION_SHAPE ( 'NONE', 'NONE',  #69 ) ;
#182 = ORIENTED_EDGE ( 'NONE', *, *, #13, .T. ) ;
#183 = ADVANCED_FACE ( 'NONE', ( #296 ), #325, .T. ) ;
#184 = VERTEX_POINT ( 'NONE', #259 ) ;
#185 = CIRCLE ( 'NONE', #231, 0.06249999999999997918 ) ;
#186 = FILL_AREA_STYLE ('',( #187 ) ) ;
#187 = FILL_AREA_STYLE_COLOUR ( '', #272 ) ;
#188 =( LENGTH_UNIT ( ) NAMED_UNIT ( * ) SI_UNIT ( $, .METRE. ) );
#189 = FILL_AREA_STYLE_COLOUR ( '', #362 ) ;
#190 = PRESENTATION_STYLE_ASSIGNMENT (( #73 ) ) ;
#191 =( GEOMETRIC_REPRESENTATION_CONTEXT ( 3 ) GLOBAL_UNCERTAINTY_ASSIGNED_CONTEXT ( ( #27 ) ) GLOBAL_UNIT_ASSIGNED_CONTEXT ( ( #275, #363, #103 ) ) REPRESENTATION_CONTEXT ( 'NONE', 'WORKASPACE' ) );
#192 = CARTESIAN_POINT ( 'NONE',  ( 0.000000000000000000, 0.06250000000000001388, 0.000000000000000000 ) ) ;
#193 = DIRECTION ( 'NONE',  ( -0.000000000000000000, -1.000000000000000000, -0.000000000000000000 ) ) ;
#194 = AXIS2_PLACEMENT_3D ( 'NONE', #263, #61, #200 ) ;
#195 =( NAMED_UNIT ( * ) SI_UNIT ( $, .STERADIAN. ) SOLID_ANGLE_UNIT ( ) );
#196 = APPLICATION_PROTOCOL_DEFINITION ( 'draft international standard', 'automotive_design', 1998, #41 ) ;
#197 =( NAMED_UNIT ( * ) PLANE_ANGLE_UNIT ( ) SI_UNIT ( $, .RADIAN. ) );
#198 = AXIS2_PLACEMENT_3D ( 'NONE', #84, #338, #286 ) ;
#199 =( GEOMETRIC_REPRESENTATION_CONTEXT ( 3 ) GLOBAL_UNCERTAINTY_ASSIGNED_CONTEXT ( ( #56 ) ) GLOBAL_UNIT_ASSIGNED_CONTEXT ( ( #77, #222, #309 ) ) REPRESENTATION_CONTEXT ( 'NONE', 'WORKASPACE' ) );
#200 = DIRECTION ( 'NONE',  ( -1.000000000000000000, 0.000000000000000000, 0.000000000000000000 ) ) ;
#201 = PRESENTATION_STYLE_ASSIGNMENT (( #253 ) ) ;
#202 = ORIENTED_EDGE ( 'NONE', *, *, #205, .T. ) ;
#203 = ORIENTED_EDGE ( 'NONE', *, *, #137, .F. ) ;
#204 = CARTESIAN_POINT ( 'NONE',  ( 3.673940397442059375E-16, 1.500000000000000444, 0.000000000000000000 ) ) ;
#205 = EDGE_CURVE ( 'NONE', #131, #270, #12, .T. ) ;
#206 = ORIENTED_EDGE ( 'NONE', *, *, #129, .T. ) ;
#207 = MECHANICAL_DESIGN_GEOMETRIC_PRESENTATION_REPRESENTATION (  '', ( #116 ), #199 ) ;
#208 = PRESENTATION_LAYER_ASSIGNMENT (  '', '', ( #333 ) ) ;
#209 = SURFACE_SIDE_STYLE ('',( #353 ) ) ;
#210 = EDGE_LOOP ( 'NONE', ( #167, #326, #301, #203 ) ) ;
#211 = EDGE_CURVE ( 'NONE', #65, #184, #6, .T. ) ;
#212 = MECHANICAL_DESIGN_GEOMETRIC_PRESENTATION_REPRESENTATION (  '', ( #111 ), #284 ) ;
#213 = AXIS2_PLACEMENT_3D ( 'NONE', #244, #78, #160 ) ;
#214 = SURFACE_STYLE_FILL_AREA ( #279 ) ;
#215 = SURFACE_STYLE_USAGE ( .BOTH. , #358 ) ;
#216 =( LENGTH_UNIT ( ) NAMED_UNIT ( * ) SI_UNIT ( $, .METRE. ) );
#217 = ORIENTED_EDGE ( 'NONE', *, *, #288, .T. ) ;
#218 = SURFACE_STYLE_USAGE ( .BOTH. , #351 ) ;
#219 = FILL_AREA_STYLE_COLOUR ( '', #133 ) ;
#220 = AXIS2_PLACEMENT_3D ( 'NONE', #114, #173, #80 ) ;
#221 = CARTESIAN_POINT ( 'NONE',  ( 0.000000000000000000, 0.06250000000000001388, 0.000000000000000000 ) ) ;
#222 =( NAMED_UNIT ( * ) PLANE_ANGLE_UNIT ( ) SI_UNIT ( $, .RADIAN. ) );
#223 = PLANE ( 'NONE',  #254 ) ;
#224 = VECTOR ( 'NONE', #87, 39.37007874015748143 ) ;
#225 = PRESENTATION_LAYER_ASSIGNMENT (  '', '', ( #30 ) ) ;
#226 = PRODUCT_DEFINITION_CONTEXT ( 'detailed design', #41, 'design' ) ;
#227 = DIRECTION ( 'NONE',  ( -1.205760955613527713E-16, 1.000000000000000000, -0.000000000000000000 ) ) ;
#228 = EDGE_CURVE ( 'NONE', #354, #299, #185, .T. ) ;
#229 = UNCERTAINTY_MEASURE_WITH_UNIT (LENGTH_MEASURE( 1.000000000000000082E-05 ), #136, 'distance_accuracy_value', 'NONE');
#230 = PRESENTATION_STYLE_ASSIGNMENT (( #54 ) ) ;
#231 = AXIS2_PLACEMENT_3D ( 'NONE', #348, #90, #357 ) ;
#232 = STYLED_ITEM ( 'NONE', ( #201 ), #118 ) ;
#233 = LENGTH_MEASURE_WITH_UNIT ( LENGTH_MEASURE( 0.02539999999999999897 ), #127 );
#234 = CARTESIAN_POINT ( 'NONE',  ( 3.673940397442059375E-16, 1.500000000000000444, 0.000000000000000000 ) ) ;
#235 = ORIENTED_EDGE ( 'NONE', *, *, #85, .F. ) ;
#236 = CARTESIAN_POINT ( 'NONE',  ( 0.000000000000000000, 0.2500000000000000555, 0.000000000000000000 ) ) ;
#237 = DIRECTION ( 'NONE',  ( -1.205760955613527713E-16, 1.000000000000000000, -0.000000000000000000 ) ) ;
#238 = EDGE_LOOP ( 'NONE', ( #126, #149 ) ) ;
#239 = DIRECTION ( 'NONE',  ( 0.000000000000000000, 0.000000000000000000, 1.000000000000000000 ) ) ;
#240 = CARTESIAN_POINT ( 'NONE',  ( 0.000000000000000000, 0.000000000000000000, -0.06249999999999995143 ) ) ;
#241 = CIRCLE ( 'NONE', #220, 0.06249999999999995143 ) ;
#242 = FILL_AREA_STYLE ('',( #189 ) ) ;
#243 = CIRCLE ( 'NONE', #328, 0.06249999999999995143 ) ;
#244 = CARTESIAN_POINT ( 'NONE',  ( 0.000000000000000000, 0.2500000000000000555, 0.000000000000000000 ) ) ;
#245 = COLOUR_RGB ( '',1.000000000000000000, 0.000000000000000000, 0.000000000000000000 ) ;
#246 = SURFACE_STYLE_FILL_AREA ( #186 ) ;
#247 = DIRECTION ( 'NONE',  ( -0.000000000000000000, -1.000000000000000000, -0.000000000000000000 ) ) ;
#248 = DIMENSIONAL_EXPONENTS ( 1.000000000000000000, 0.000000000000000000, 0.000000000000000000, 0.000000000000000000, 0.000000000000000000, 0.000000000000000000, 0.000000000000000000 ) ;
#249 = FACE_OUTER_BOUND ( 'NONE', #163, .T. ) ;
#250 = CIRCLE ( 'NONE', #74, 0.06249999999999997918 ) ;
#251 =( NAMED_UNIT ( * ) PLANE_ANGLE_UNIT ( ) SI_UNIT ( $, .RADIAN. ) );
#252 = DIRECTION ( 'NONE',  ( -0.000000000000000000, -1.000000000000000000, -0.000000000000000000 ) ) ;
#253 = SURFACE_STYLE_USAGE ( .BOTH. , #34 ) ;
#254 = AXIS2_PLACEMENT_3D ( 'NONE', #285, #48, #342 ) ;
#255 =( NAMED_UNIT ( * ) SI_UNIT ( $, .STERADIAN. ) SOLID_ANGLE_UNIT ( ) );
#256 = DIRECTION ( 'NONE',  ( 1.000000000000000000, 0.000000000000000000, 0.000000000000000000 ) ) ;
#257 = DIMENSIONAL_EXPONENTS ( 1.000000000000000000, 0.000000000000000000, 0.000000000000000000, 0.000000000000000000, 0.000000000000000000, 0.000000000000000000, 0.000000000000000000 ) ;
#258 = DIRECTION ( 'NONE',  ( 1.000000000000000000, 0.000000000000000000, 0.000000000000000000 ) ) ;
#259 = CARTESIAN_POINT ( 'NONE',  ( 0.06249999999999993755, 0.2500000000000000555, 7.654042494670900537E-18 ) ) ;
#260 = LENGTH_MEASURE_WITH_UNIT ( LENGTH_MEASURE( 0.02539999999999999897 ), #142 );
#261 = CARTESIAN_POINT ( 'NONE',  ( -0.06249999999999996531, 0.06250000000000001388, 7.654042494670952923E-18 ) ) ;
#262 = UNCERTAINTY_MEASURE_WITH_UNIT (LENGTH_MEASURE( 1.000000000000000082E-05 ), #365, 'distance_accuracy_value', 'NONE');
#263 = CARTESIAN_POINT ( 'NONE',  ( 5.181141591958969140E-16, 0.2500000000000000555, 0.000000000000000000 ) ) ;
#264 = MECHANICAL_DESIGN_GEOMETRIC_PRESENTATION_REPRESENTATION (  '', ( #35 ), #64 ) ;
#265 = DIRECTION ( 'NONE',  ( 0.000000000000000000, 0.000000000000000000, 1.000000000000000000 ) ) ;
#266 = MECHANICAL_DESIGN_GEOMETRIC_PRESENTATION_REPRESENTATION (  '', ( #232 ), #24 ) ;
#267 = SPHERICAL_SURFACE ( 'NONE', #332, 0.06249999999999997918 ) ;
#268 = DIRECTION ( 'NONE',  ( -1.000000000000000000, 0.000000000000000000, 0.000000000000000000 ) ) ;
#269 = APPLICATION_CONTEXT ( 'automotive_design' ) ;
#270 = VERTEX_POINT ( 'NONE', #66 ) ;
#271 = AXIS2_PLACEMENT_3D ( 'NONE', #347, #239, #29 ) ;
#272 = COLOUR_RGB ( '',1.000000000000000000, 0.000000000000000000, 0.000000000000000000 ) ;
#273 = ORIENTED_EDGE ( 'NONE', *, *, #205, .F. ) ;
#274 = ORIENTED_EDGE ( 'NONE', *, *, #106, .T. ) ;
#275 =( CONVERSION_BASED_UNIT ( 'INCH', #67 ) LENGTH_UNIT ( ) NAMED_UNIT ( #174 ) );
#276 = DIRECTION ( 'NONE',  ( 0.000000000000000000, 0.000000000000000000, -1.000000000000000000 ) ) ;
#277 = ADVANCED_FACE ( 'NONE', ( #32 ), #297, .T. ) ;
#278 =( GEOMETRIC_REPRESENTATION_CONTEXT ( 3 ) GLOBAL_UNCERTAINTY_ASSIGNED_CONTEXT ( ( #107 ) ) GLOBAL_UNIT_ASSIGNED_CONTEXT ( ( #40, #109, #47 ) ) REPRESENTATION_CONTEXT ( 'NONE', 'WORKASPACE' ) );
#279 = FILL_AREA_STYLE ('',( #219 ) ) ;
#280 = DIRECTION ( 'NONE',  ( 0.000000000000000000, 0.000000000000000000, -1.000000000000000000 ) ) ;
#281 = EDGE_LOOP ( 'NONE', ( #31, #359 ) ) ;
#282 = FACE_OUTER_BOUND ( 'NONE', #305, .T. ) ;
#283 = DIMENSIONAL_EXPONENTS ( 1.000000000000000000, 0.000000000000000000, 0.000000000000000000, 0.000000000000000000, 0.000000000000000000, 0.000000000000000000, 0.000000000000000000 ) ;
#284 =( GEOMETRIC_REPRESENTATION_CONTEXT ( 3 ) GLOBAL_UNCERTAINTY_ASSIGNED_CONTEXT ( ( #317 ) ) GLOBAL_UNIT_ASSIGNED_CONTEXT ( ( #86, #197, #313 ) ) REPRESENTATION_CONTEXT ( 'NONE', 'WORKASPACE' ) );
#285 = CARTESIAN_POINT ( 'NONE',  ( 0.06249999999999995143, 1.500000000000000444, 0.000000000000000000 ) ) ;
#286 = DIRECTION ( 'NONE',  ( -1.000000000000000000, -1.205760955613527713E-16, 0.000000000000000000 ) ) ;
#287 = CARTESIAN_POINT ( 'NONE',  ( 0.06249999999999993755, 1.500000000000000444, 7.654042494670900537E-18 ) ) ;
#288 = EDGE_CURVE ( 'NONE', #354, #37, #241, .T. ) ;
#289 = CARTESIAN_POINT ( 'NONE',  ( -0.06249999999999913958, 1.500000000000000444, 0.000000000000000000 ) ) ;
#290 = ORIENTED_EDGE ( 'NONE', *, *, #228, .F. ) ;
#291 = SURFACE_STYLE_FILL_AREA ( #141 ) ;
#292 = FILL_AREA_STYLE ('',( #344 ) ) ;
#293 = PRESENTATION_LAYER_ASSIGNMENT (  '', '', ( #82 ) ) ;
#294 = AXIS2_PLACEMENT_3D ( 'NONE', #15, #327, #112 ) ;
#295 = CYLINDRICAL_SURFACE ( 'NONE', #300, 0.06249999999999950734 ) ;
#296 = FACE_OUTER_BOUND ( 'NONE', #101, .T. ) ;
#297 = CYLINDRICAL_SURFACE ( 'NONE', #324, 0.06249999999999995143 ) ;
#298 = MANIFOLD_SOLID_BREP ( 'Revolve - Cutting Edge', #151 ) ;
#299 = VERTEX_POINT ( 'NONE', #79 ) ;
#300 = AXIS2_PLACEMENT_3D ( 'NONE', #178, #36, #320 ) ;
#301 = ORIENTED_EDGE ( 'NONE', *, *, #166, .T. ) ;
#302 = LENGTH_MEASURE_WITH_UNIT ( LENGTH_MEASURE( 0.02539999999999999897 ), #216 );
#303 = PRESENTATION_LAYER_ASSIGNMENT (  '', '', ( #111 ) ) ;
#304 = SURFACE_SIDE_STYLE ('',( #19 ) ) ;
#305 = EDGE_LOOP ( 'NONE', ( #180, #182, #202, #45, #154 ) ) ;
#306 = DIRECTION ( 'NONE',  ( -0.000000000000000000, -1.000000000000000000, -0.000000000000000000 ) ) ;
#307 = DIRECTION ( 'NONE',  ( -1.000000000000000000, 0.000000000000000000, 0.000000000000000000 ) ) ;
#308 = AXIS2_PLACEMENT_3D ( 'NONE', #145, #265, #258 ) ;
#309 =( NAMED_UNIT ( * ) SI_UNIT ( $, .STERADIAN. ) SOLID_ANGLE_UNIT ( ) );
#310 =( NAMED_UNIT ( * ) PLANE_ANGLE_UNIT ( ) SI_UNIT ( $, .RADIAN. ) );
#311 = UNCERTAINTY_MEASURE_WITH_UNIT (LENGTH_MEASURE( 1.000000000000000082E-05 ), #319, 'distance_accuracy_value', 'NONE');
#312 = VECTOR ( 'NONE', #123, 39.37007874015748143 ) ;
#313 =( NAMED_UNIT ( * ) SI_UNIT ( $, .STERADIAN. ) SOLID_ANGLE_UNIT ( ) );
#314 = CIRCLE ( 'NONE', #51, 0.06249999999999995143 ) ;
#315 = CIRCLE ( 'NONE', #369, 0.06249999999999958367 ) ;
#316 = SPHERICAL_SURFACE ( 'NONE', #308, 0.06249999999999997918 ) ;
#317 = UNCERTAINTY_MEASURE_WITH_UNIT (LENGTH_MEASURE( 1.000000000000000082E-05 ), #86, 'distance_accuracy_value', 'NONE');
#318 = FILL_AREA_STYLE_COLOUR ( '', #245 ) ;
#319 =( CONVERSION_BASED_UNIT ( 'INCH', #260 ) LENGTH_UNIT ( ) NAMED_UNIT ( #28 ) );
#320 = DIRECTION ( 'NONE',  ( -1.000000000000000000, 0.000000000000000000, 0.000000000000000000 ) ) ;
#321 =( NAMED_UNIT ( * ) SI_UNIT ( $, .STERADIAN. ) SOLID_ANGLE_UNIT ( ) );
#322 = ORIENTED_EDGE ( 'NONE', *, *, #53, .F. ) ;
#323 = CARTESIAN_POINT ( 'NONE',  ( -0.06249999999999921590, 1.500000000000000444, 0.000000000000000000 ) ) ;
#324 = AXIS2_PLACEMENT_3D ( 'NONE', #370, #193, #335 ) ;
#325 = CYLINDRICAL_SURFACE ( 'NONE', #105, 0.06249999999999950734 ) ;
#326 = ORIENTED_EDGE ( 'NONE', *, *, #11, .T. ) ;
#327 = DIRECTION ( 'NONE',  ( -1.205760955613527713E-16, 1.000000000000000000, -0.000000000000000000 ) ) ;
#328 = AXIS2_PLACEMENT_3D ( 'NONE', #221, #247, #17 ) ;
#329 = CARTESIAN_POINT ( 'NONE',  ( 0.000000000000000000, 0.06250000000000001388, 0.000000000000000000 ) ) ;
#330 = PRESENTATION_STYLE_ASSIGNMENT (( #361 ) ) ;
#331 = PRODUCT ( '17017', '17017', '', ( #59 ) ) ;
#332 = AXIS2_PLACEMENT_3D ( 'NONE', #177, #7, #256 ) ;
#333 = STYLED_ITEM ( 'NONE', ( #190 ), #72 ) ;
#334 =( LENGTH_UNIT ( ) NAMED_UNIT ( * ) SI_UNIT ( $, .METRE. ) );
#335 = DIRECTION ( 'NONE',  ( 0.000000000000000000, 0.000000000000000000, -1.000000000000000000 ) ) ;
#336 = DIRECTION ( 'NONE',  ( -1.205760955613527713E-16, 1.000000000000000000, -0.000000000000000000 ) ) ;
#337 = LENGTH_MEASURE_WITH_UNIT ( LENGTH_MEASURE( 0.02539999999999999897 ), #16 );
#338 = DIRECTION ( 'NONE',  ( -1.205760955613527713E-16, 1.000000000000000000, 0.000000000000000000 ) ) ;
#339 = MECHANICAL_DESIGN_GEOMETRIC_PRESENTATION_REPRESENTATION (  '', ( #82 ), #191 ) ;
#340 = EDGE_CURVE ( 'NONE', #130, #299, #250, .T. ) ;
#341 =( LENGTH_UNIT ( ) NAMED_UNIT ( * ) SI_UNIT ( $, .METRE. ) );
#342 = DIRECTION ( 'NONE',  ( 1.000000000000000000, 1.205760955613527713E-16, 0.000000000000000000 ) ) ;
#343 = FACE_OUTER_BOUND ( 'NONE', #210, .T. ) ;
#344 = FILL_AREA_STYLE_COLOUR ( '', #50 ) ;
#345 = CARTESIAN_POINT ( 'NONE',  ( 7.654042494670951382E-18, 0.000000000000000000, 0.06249999999999995143 ) ) ;
#346 = ADVANCED_FACE ( 'NONE', ( #110 ), #223, .F. ) ;
#347 = CARTESIAN_POINT ( 'NONE',  ( 0.000000000000000000, 0.000000000000000000, 0.000000000000000000 ) ) ;
#348 = CARTESIAN_POINT ( 'NONE',  ( -7.654042494670957545E-18, 0.06250000000000001388, 0.000000000000000000 ) ) ;
#349 = MECHANICAL_DESIGN_GEOMETRIC_PRESENTATION_REPRESENTATION (  '', ( #30 ), #278 ) ;
#350 = CARTESIAN_POINT ( 'NONE',  ( 0.000000000000000000, 0.2500000000000000555, -0.06249999999999995143 ) ) ;
#351 = SURFACE_SIDE_STYLE ('',( #147 ) ) ;
#352 = VERTEX_POINT ( 'NONE', #287 ) ;
#353 = SURFACE_STYLE_FILL_AREA ( #292 ) ;
#354 = VERTEX_POINT ( 'NONE', #140 ) ;
#355 = SHAPE_DEFINITION_REPRESENTATION ( #181, #146 ) ;
#356 = PRODUCT_RELATED_PRODUCT_CATEGORY ( 'part', '', ( #331 ) ) ;
#357 = DIRECTION ( 'NONE',  ( -1.000000000000000000, 0.000000000000000000, 0.000000000000000000 ) ) ;
#358 = SURFACE_SIDE_STYLE ('',( #95 ) ) ;
#359 = ORIENTED_EDGE ( 'NONE', *, *, #137, .T. ) ;
#360 = PRESENTATION_STYLE_ASSIGNMENT (( #218 ) ) ;
#361 = SURFACE_STYLE_USAGE ( .BOTH. , #23 ) ;
#362 = COLOUR_RGB ( '',1.000000000000000000, 0.000000000000000000, 0.000000000000000000 ) ;
#363 =( NAMED_UNIT ( * ) PLANE_ANGLE_UNIT ( ) SI_UNIT ( $, .RADIAN. ) );
#364 = CARTESIAN_POINT ( 'NONE',  ( 7.654042494670951382E-18, 0.06250000000000001388, 0.06249999999999995143 ) ) ;
#365 =( CONVERSION_BASED_UNIT ( 'INCH', #337 ) LENGTH_UNIT ( ) NAMED_UNIT ( #121 ) );
#366 = ORIENTED_EDGE ( 'NONE', *, *, #288, .F. ) ;
#367 = EDGE_CURVE ( 'NONE', #37, #130, #98, .T. ) ;
#368 = PLANE ( 'NONE',  #76 ) ;
#369 = AXIS2_PLACEMENT_3D ( 'NONE', #204, #227, #307 ) ;
#370 = CARTESIAN_POINT ( 'NONE',  ( 0.000000000000000000, 0.000000000000000000, 0.000000000000000000 ) ) ;
#371 = FACE_OUTER_BOUND ( 'NONE', #21, .T. ) ;
#372 = LENGTH_MEASURE_WITH_UNIT ( LENGTH_MEASURE( 0.02539999999999999897 ), #341 );
#373 = COLOUR_RGB ( '',0.7921568627450980005, 0.8196078431372548767, 0.9333333333333333481 ) ;
ENDSEC;
END-ISO-10303-21;
