ISO-10303-21;
HEADER;
FILE_DESCRIPTION (( 'STEP AP214' ),
    '1' );
FILE_NAME ('Micro_SFBM-003-1.STEP',
    '2021-09-03T16:34:24',
    ( '' ),
    ( '' ),
    'SwSTEP 2.0',
    'SolidWorks 2020',
    '' );
FILE_SCHEMA (( 'AUTOMOTIVE_DESIGN' ));
ENDSEC;

DATA;
#1 = DIRECTION ( 'NONE',  ( -0.0000000000000000000, -0.0000000000000000000, -1.000000000000000000 ) ) ;
#2 = EDGE_CURVE ( 'NONE', #73, #77, #108, .T. ) ;
#3 = CARTESIAN_POINT ( 'NONE',  ( 0.0000000000000000000, 0.0000000000000000000, 2.244094000000000033 ) ) ;
#4 =( NAMED_UNIT ( * ) SI_UNIT ( $, .STERADIAN. ) SOLID_ANGLE_UNIT ( ) );
#5 = AXIS2_PLACEMENT_3D ( 'NONE', #264, #39, #153 ) ;
#6 =( CONVERSION_BASED_UNIT ( 'INCH', #46 ) LENGTH_UNIT ( ) NAMED_UNIT ( #27 ) );
#7 =( NAMED_UNIT ( * ) SI_UNIT ( $, .STERADIAN. ) SOLID_ANGLE_UNIT ( ) );
#8 = EDGE_LOOP ( 'NONE', ( #100, #205, #20, #318 ) ) ;
#9 = AXIS2_PLACEMENT_3D ( 'NONE', #287, #141, #312 ) ;
#10 = PRODUCT_DEFINITION_FORMATION_WITH_SPECIFIED_SOURCE ( 'ANY', '', #336, .NOT_KNOWN. ) ;
#11 = DIRECTION ( 'NONE',  ( -1.000000000000000000, 0.0000000000000000000, 0.0000000000000000000 ) ) ;
#12 = ORIENTED_EDGE ( 'NONE', *, *, #131, .T. ) ;
#13 = CARTESIAN_POINT ( 'NONE',  ( 0.0000000000000000000, 0.0000000000000000000, 2.244094000000000033 ) ) ;
#14 = DIRECTION ( 'NONE',  ( -0.0000000000000000000, -0.0000000000000000000, -1.000000000000000000 ) ) ;
#15 = ADVANCED_FACE ( 'NONE', ( #25 ), #245, .T. ) ;
#16 = DIRECTION ( 'NONE',  ( -0.0000000000000000000, -0.0000000000000000000, -1.000000000000000000 ) ) ;
#17 = ORIENTED_EDGE ( 'NONE', *, *, #332, .F. ) ;
#18 = VERTEX_POINT ( 'NONE', #346 ) ;
#19 = CARTESIAN_POINT ( 'NONE',  ( -0.004921500000000009201, 0.0000000000000000000, 0.02132519213502526156 ) ) ;
#20 = ORIENTED_EDGE ( 'NONE', *, *, #96, .F. ) ;
#21 = DIRECTION ( 'NONE',  ( -0.0000000000000000000, -0.0000000000000000000, -1.000000000000000000 ) ) ;
#22 = CARTESIAN_POINT ( 'NONE',  ( 0.0000000000000000000, 0.0000000000000000000, 0.01574799999999999811 ) ) ;
#23 = AXIS2_PLACEMENT_3D ( 'NONE', #347, #83, #308 ) ;
#24 = AXIS2_PLACEMENT_3D ( 'NONE', #37, #1, #11 ) ;
#25 = FACE_OUTER_BOUND ( 'NONE', #229, .T. ) ;
#26 = CARTESIAN_POINT ( 'NONE',  ( 0.1031100000000002570, 1.354581824536888722E-17, 2.244094000000000033 ) ) ;
#27 = DIMENSIONAL_EXPONENTS ( 1.000000000000000000, 0.0000000000000000000, 0.0000000000000000000, 0.0000000000000000000, 0.0000000000000000000, 0.0000000000000000000, 0.0000000000000000000 ) ;
#28 = ORIENTED_EDGE ( 'NONE', *, *, #276, .F. ) ;
#29 = EDGE_LOOP ( 'NONE', ( #165, #56, #192, #45 ) ) ;
#30 = DIRECTION ( 'NONE',  ( -1.000000000000000000, 0.0000000000000000000, 0.0000000000000000000 ) ) ;
#31 = ADVANCED_FACE ( 'NONE', ( #254 ), #55, .T. ) ;
#32 = AXIS2_PLACEMENT_3D ( 'NONE', #142, #115, #134 ) ;
#33 = DIRECTION ( 'NONE',  ( -0.0000000000000000000, -0.0000000000000000000, -1.000000000000000000 ) ) ;
#34 = PRESENTATION_LAYER_ASSIGNMENT (  '', '', ( #76 ) ) ;
#35 = CARTESIAN_POINT ( 'NONE',  ( 0.0000000000000000000, 0.0000000000000000000, 0.0000000000000000000 ) ) ;
#36 = DIRECTION ( 'NONE',  ( -1.000000000000000000, 0.0000000000000000000, 0.0000000000000000000 ) ) ;
#37 = CARTESIAN_POINT ( 'NONE',  ( 0.0000000000000000000, 0.0000000000000000000, 0.03937000000000000915 ) ) ;
#38 = CARTESIAN_POINT ( 'NONE',  ( -0.004921500000000009201, 0.0000000000000000000, 0.03937000000000000915 ) ) ;
#39 = DIRECTION ( 'NONE',  ( 0.0000000000000000000, 0.0000000000000000000, 1.000000000000000000 ) ) ;
#40 = UNCERTAINTY_MEASURE_WITH_UNIT (LENGTH_MEASURE( 1.000000000000000082E-05 ), #270, 'distance_accuracy_value', 'NONE');
#41 = PRODUCT_CONTEXT ( 'NONE', #144, 'mechanical' ) ;
#42 = AXIS2_PLACEMENT_3D ( 'NONE', #352, #107, #87 ) ;
#43 = EDGE_CURVE ( 'NONE', #225, #77, #348, .T. ) ;
#44 = SURFACE_SIDE_STYLE ('',( #300 ) ) ;
#45 = ORIENTED_EDGE ( 'NONE', *, *, #313, .F. ) ;
#46 = LENGTH_MEASURE_WITH_UNIT ( LENGTH_MEASURE( 0.02539999999999999897 ), #267 );
#47 = EDGE_LOOP ( 'NONE', ( #99, #85, #375, #171 ) ) ;
#48 = AXIS2_PLACEMENT_3D ( 'NONE', #35, #143, #236 ) ;
#49 = LINE ( 'NONE', #94, #350 ) ;
#50 = ORIENTED_EDGE ( 'NONE', *, *, #149, .T. ) ;
#51 = ORIENTED_EDGE ( 'NONE', *, *, #276, .T. ) ;
#52 = EDGE_LOOP ( 'NONE', ( #51, #363, #198, #17 ) ) ;
#53 = CIRCLE ( 'NONE', #9, 0.1181100000000000066 ) ;
#54 = EDGE_CURVE ( 'NONE', #248, #314, #292, .T. ) ;
#55 = CYLINDRICAL_SURFACE ( 'NONE', #297, 0.004921500000000009201 ) ;
#56 = ORIENTED_EDGE ( 'NONE', *, *, #149, .F. ) ;
#57 = FILL_AREA_STYLE ('',( #289 ) ) ;
#58 = ORIENTED_EDGE ( 'NONE', *, *, #195, .F. ) ;
#59 = ORIENTED_EDGE ( 'NONE', *, *, #43, .T. ) ;
#60 = DIRECTION ( 'NONE',  ( -0.0000000000000000000, -0.0000000000000000000, -1.000000000000000000 ) ) ;
#61 = EDGE_LOOP ( 'NONE', ( #282, #12, #126, #196 ) ) ;
#62 = CARTESIAN_POINT ( 'NONE',  ( 0.004921500000000009201, 6.027099222003710562E-19, 0.03937000000000000915 ) ) ;
#63 = CARTESIAN_POINT ( 'NONE',  ( 0.0000000000000000000, 0.0000000000000000000, 0.03937000000000007854 ) ) ;
#64 = ADVANCED_FACE ( 'NONE', ( #91 ), #84, .T. ) ;
#65 = CARTESIAN_POINT ( 'NONE',  ( -0.005904909450000010197, 0.0000000000000000000, 0.01574799999999999811 ) ) ;
#66 = ADVANCED_FACE ( 'NONE', ( #328 ), #148, .T. ) ;
#67 = LINE ( 'NONE', #90, #169 ) ;
#68 = CARTESIAN_POINT ( 'NONE',  ( 0.1181100000000000066, 1.446430334472939084E-17, 2.229093999999999465 ) ) ;
#69 = VECTOR ( 'NONE', #290, 39.37007874015748854 ) ;
#70 = DIRECTION ( 'NONE',  ( -0.1736481776669299426, 0.0000000000000000000, -0.9848077530122080203 ) ) ;
#71 = AXIS2_PLACEMENT_3D ( 'NONE', #63, #78, #257 ) ;
#72 = VECTOR ( 'NONE', #70, 39.37007874015748854 ) ;
#73 = VERTEX_POINT ( 'NONE', #62 ) ;
#74 = DIRECTION ( 'NONE',  ( -1.000000000000000000, 0.0000000000000000000, 0.0000000000000000000 ) ) ;
#75 = STYLED_ITEM ( 'NONE', ( #371 ), #200 ) ;
#76 = STYLED_ITEM ( 'NONE', ( #97 ), #286 ) ;
#77 = VERTEX_POINT ( 'NONE', #170 ) ;
#78 = DIRECTION ( 'NONE',  ( -0.0000000000000000000, -0.0000000000000000000, -1.000000000000000000 ) ) ;
#79 = VERTEX_POINT ( 'NONE', #204 ) ;
#80 = DIRECTION ( 'NONE',  ( -0.0000000000000000000, -0.0000000000000000000, -1.000000000000000000 ) ) ;
#81 = EDGE_CURVE ( 'NONE', #79, #316, #231, .T. ) ;
#82 = DIRECTION ( 'NONE',  ( -1.000000000000000000, 0.0000000000000000000, 0.0000000000000000000 ) ) ;
#83 = DIRECTION ( 'NONE',  ( -0.0000000000000000000, 0.0000000000000000000, -1.000000000000000000 ) ) ;
#84 = CONICAL_SURFACE ( 'NONE', #118, 0.005904909450000010197, 0.1745329251994325315 ) ;
#85 = ORIENTED_EDGE ( 'NONE', *, *, #206, .T. ) ;
#86 = DIRECTION ( 'NONE',  ( 1.000000000000000000, 0.0000000000000000000, 0.0000000000000000000 ) ) ;
#87 = DIRECTION ( 'NONE',  ( -1.000000000000000000, 0.0000000000000000000, 0.0000000000000000000 ) ) ;
#88 = DIRECTION ( 'NONE',  ( 0.0000000000000000000, 0.0000000000000000000, -1.000000000000000000 ) ) ;
#89 = COLOUR_RGB ( '',0.7921568627450980005, 0.8196078431372548767, 0.9333333333333333481 ) ;
#90 = CARTESIAN_POINT ( 'NONE',  ( 0.005904909450000010197, 7.231428457197470251E-19, 0.01574799999999999811 ) ) ;
#91 = FACE_OUTER_BOUND ( 'NONE', #130, .T. ) ;
#92 = DIRECTION ( 'NONE',  ( -1.000000000000000000, 0.0000000000000000000, 0.0000000000000000000 ) ) ;
#93 = AXIS2_PLACEMENT_3D ( 'NONE', #3, #117, #147 ) ;
#94 = CARTESIAN_POINT ( 'NONE',  ( -0.1181100000000000066, 0.0000000000000000000, 2.244094000000000033 ) ) ;
#95 = EDGE_CURVE ( 'NONE', #248, #79, #103, .T. ) ;
#96 = EDGE_CURVE ( 'NONE', #18, #124, #325, .T. ) ;
#97 = PRESENTATION_STYLE_ASSIGNMENT (( #187 ) ) ;
#98 = AXIS2_PLACEMENT_3D ( 'NONE', #145, #119, #269 ) ;
#99 = ORIENTED_EDGE ( 'NONE', *, *, #279, .F. ) ;
#100 = ORIENTED_EDGE ( 'NONE', *, *, #112, .T. ) ;
#101 = ORIENTED_EDGE ( 'NONE', *, *, #43, .F. ) ;
#102 = CARTESIAN_POINT ( 'NONE',  ( 0.0000000000000000000, 0.0000000000000000000, 2.244094000000000033 ) ) ;
#103 = CIRCLE ( 'NONE', #303, 0.1031100000000002570 ) ;
#104 = DIRECTION ( 'NONE',  ( -1.000000000000000000, 0.0000000000000000000, 0.0000000000000000000 ) ) ;
#105 = DIRECTION ( 'NONE',  ( -1.000000000000000000, 0.0000000000000000000, 0.0000000000000000000 ) ) ;
#106 = EDGE_LOOP ( 'NONE', ( #311, #367 ) ) ;
#107 = DIRECTION ( 'NONE',  ( -0.0000000000000000000, -0.0000000000000000000, -1.000000000000000000 ) ) ;
#108 = LINE ( 'NONE', #167, #110 ) ;
#109 = UNCERTAINTY_MEASURE_WITH_UNIT (LENGTH_MEASURE( 1.000000000000000082E-05 ), #139, 'distance_accuracy_value', 'NONE');
#110 = VECTOR ( 'NONE', #256, 39.37007874015748143 ) ;
#111 = AXIS2_PLACEMENT_3D ( 'NONE', #159, #14, #362 ) ;
#112 = EDGE_CURVE ( 'NONE', #280, #344, #217, .T. ) ;
#113 = EDGE_LOOP ( 'NONE', ( #285, #250 ) ) ;
#114 = FACE_OUTER_BOUND ( 'NONE', #47, .T. ) ;
#115 = DIRECTION ( 'NONE',  ( -0.0000000000000000000, -0.0000000000000000000, -1.000000000000000000 ) ) ;
#116 = PRODUCT_RELATED_PRODUCT_CATEGORY ( 'part', '', ( #336 ) ) ;
#117 = DIRECTION ( 'NONE',  ( 0.0000000000000000000, 0.0000000000000000000, 1.000000000000000000 ) ) ;
#118 = AXIS2_PLACEMENT_3D ( 'NONE', #181, #33, #36 ) ;
#119 = DIRECTION ( 'NONE',  ( 0.0000000000000000000, 0.0000000000000000000, 1.000000000000000000 ) ) ;
#120 = SHAPE_DEFINITION_REPRESENTATION ( #273, #286 ) ;
#121 = FACE_OUTER_BOUND ( 'NONE', #61, .T. ) ;
#122 = CONICAL_SURFACE ( 'NONE', #42, 0.005904909450000010197, 0.1745329251994325315 ) ;
#123 = ADVANCED_FACE ( 'NONE', ( #233 ), #353, .T. ) ;
#124 = VERTEX_POINT ( 'NONE', #178 ) ;
#125 =( NAMED_UNIT ( * ) PLANE_ANGLE_UNIT ( ) SI_UNIT ( $, .RADIAN. ) );
#126 = ORIENTED_EDGE ( 'NONE', *, *, #216, .T. ) ;
#127 = CIRCLE ( 'NONE', #71, 0.1181100000000000066 ) ;
#128 = AXIS2_PLACEMENT_3D ( 'NONE', #358, #237, #329 ) ;
#129 = ORIENTED_EDGE ( 'NONE', *, *, #54, .T. ) ;
#130 = EDGE_LOOP ( 'NONE', ( #59, #220, #340, #161 ) ) ;
#131 = EDGE_CURVE ( 'NONE', #344, #280, #263, .T. ) ;
#132 =( NAMED_UNIT ( * ) SI_UNIT ( $, .STERADIAN. ) SOLID_ANGLE_UNIT ( ) );
#133 = AXIS2_PLACEMENT_3D ( 'NONE', #321, #175, #293 ) ;
#134 = DIRECTION ( 'NONE',  ( -1.000000000000000000, 0.0000000000000000000, 0.0000000000000000000 ) ) ;
#135 = COLOUR_RGB ( '',0.7921568627450980005, 0.8196078431372548767, 0.9333333333333333481 ) ;
#136 = CARTESIAN_POINT ( 'NONE',  ( 0.0000000000000000000, 0.0000000000000000000, 2.244094000000000033 ) ) ;
#137 = FACE_BOUND ( 'NONE', #106, .T. ) ;
#138 = DIRECTION ( 'NONE',  ( 0.0000000000000000000, 0.0000000000000000000, -1.000000000000000000 ) ) ;
#139 =( CONVERSION_BASED_UNIT ( 'INCH', #281 ) LENGTH_UNIT ( ) NAMED_UNIT ( #213 ) );
#140 = ORIENTED_EDGE ( 'NONE', *, *, #191, .T. ) ;
#141 = DIRECTION ( 'NONE',  ( -0.0000000000000000000, -0.0000000000000000000, -1.000000000000000000 ) ) ;
#142 = CARTESIAN_POINT ( 'NONE',  ( 0.0000000000000000000, 0.0000000000000000000, 0.01574799999999999811 ) ) ;
#143 = DIRECTION ( 'NONE',  ( -0.0000000000000000000, -0.0000000000000000000, -1.000000000000000000 ) ) ;
#144 = APPLICATION_CONTEXT ( 'automotive_design' ) ;
#145 = CARTESIAN_POINT ( 'NONE',  ( 0.0000000000000000000, 0.0000000000000000000, 2.244094000000000033 ) ) ;
#146 = CARTESIAN_POINT ( 'NONE',  ( 0.0000000000000000000, 0.0000000000000000000, 2.229093999999999465 ) ) ;
#147 = DIRECTION ( 'NONE',  ( 1.000000000000000000, 0.0000000000000000000, 0.0000000000000000000 ) ) ;
#148 = PLANE ( 'NONE',  #98 ) ;
#149 = EDGE_CURVE ( 'NONE', #79, #248, #162, .T. ) ;
#150 = AXIS2_PLACEMENT_3D ( 'NONE', #146, #324, #211 ) ;
#151 =( GEOMETRIC_REPRESENTATION_CONTEXT ( 3 ) GLOBAL_UNCERTAINTY_ASSIGNED_CONTEXT ( ( #176 ) ) GLOBAL_UNIT_ASSIGNED_CONTEXT ( ( #6, #240, #4 ) ) REPRESENTATION_CONTEXT ( 'NONE', 'WORKASPACE' ) );
#152 = CARTESIAN_POINT ( 'NONE',  ( 0.1031100000000002570, 1.262733314600838667E-17, 2.244094000000000033 ) ) ;
#153 = DIRECTION ( 'NONE',  ( 1.000000000000000000, 0.0000000000000000000, 0.0000000000000000000 ) ) ;
#154 = FACE_OUTER_BOUND ( 'NONE', #113, .T. ) ;
#155 = DIMENSIONAL_EXPONENTS ( 1.000000000000000000, 0.0000000000000000000, 0.0000000000000000000, 0.0000000000000000000, 0.0000000000000000000, 0.0000000000000000000, 0.0000000000000000000 ) ;
#156 = VERTEX_POINT ( 'NONE', #295 ) ;
#157 = AXIS2_PLACEMENT_3D ( 'NONE', #13, #243, #364 ) ;
#158 = VERTEX_POINT ( 'NONE', #38 ) ;
#159 = CARTESIAN_POINT ( 'NONE',  ( 0.0000000000000000000, 0.0000000000000000000, 0.0000000000000000000 ) ) ;
#160 = ORIENTED_EDGE ( 'NONE', *, *, #81, .F. ) ;
#161 = ORIENTED_EDGE ( 'NONE', *, *, #323, .F. ) ;
#162 = CIRCLE ( 'NONE', #93, 0.1031100000000002570 ) ;
#163 = AXIS2_PLACEMENT_3D ( 'NONE', #262, #354, #266 ) ;
#164 = ORIENTED_EDGE ( 'NONE', *, *, #359, .F. ) ;
#165 = ORIENTED_EDGE ( 'NONE', *, *, #54, .F. ) ;
#166 = SURFACE_STYLE_USAGE ( .BOTH. , #379 ) ;
#167 = CARTESIAN_POINT ( 'NONE',  ( 0.004921500000000009201, 6.027099222003710562E-19, 0.0000000000000000000 ) ) ;
#168 = CARTESIAN_POINT ( 'NONE',  ( 0.0000000000000000000, 0.0000000000000000000, 2.244094000000000033 ) ) ;
#169 = VECTOR ( 'NONE', #296, 39.37007874015748854 ) ;
#170 = CARTESIAN_POINT ( 'NONE',  ( 0.004921500000000009201, 6.629263839600590406E-19, 0.02132519213502526156 ) ) ;
#171 = ORIENTED_EDGE ( 'NONE', *, *, #131, .F. ) ;
#172 = EDGE_CURVE ( 'NONE', #314, #349, #197, .T. ) ;
#173 = ORIENTED_EDGE ( 'NONE', *, *, #359, .T. ) ;
#174 = LINE ( 'NONE', #319, #241 ) ;
#175 = DIRECTION ( 'NONE',  ( -0.0000000000000000000, -0.0000000000000000000, -1.000000000000000000 ) ) ;
#176 = UNCERTAINTY_MEASURE_WITH_UNIT (LENGTH_MEASURE( 1.000000000000000082E-05 ), #6, 'distance_accuracy_value', 'NONE');
#177 = DIRECTION ( 'NONE',  ( 1.000000000000000000, 0.0000000000000000000, 0.0000000000000000000 ) ) ;
#178 = CARTESIAN_POINT ( 'NONE',  ( 0.005904909450000010197, 7.231428457197470251E-19, 0.0000000000000000000 ) ) ;
#179 = APPLICATION_PROTOCOL_DEFINITION ( 'draft international standard', 'automotive_design', 1998, #304 ) ;
#180 = EDGE_CURVE ( 'NONE', #344, #124, #174, .T. ) ;
#181 = CARTESIAN_POINT ( 'NONE',  ( 0.0000000000000000000, 0.0000000000000000000, 0.01574799999999999811 ) ) ;
#182 = FACE_OUTER_BOUND ( 'NONE', #8, .T. ) ;
#183 =( GEOMETRIC_REPRESENTATION_CONTEXT ( 3 ) GLOBAL_UNCERTAINTY_ASSIGNED_CONTEXT ( ( #109 ) ) GLOBAL_UNIT_ASSIGNED_CONTEXT ( ( #139, #376, #132 ) ) REPRESENTATION_CONTEXT ( 'NONE', 'WORKASPACE' ) );
#184 = VECTOR ( 'NONE', #274, 39.37007874015748143 ) ;
#185 = EDGE_CURVE ( 'NONE', #156, #349, #127, .T. ) ;
#186 = CARTESIAN_POINT ( 'NONE',  ( 0.005904909450000010197, 7.231428457197470251E-19, 0.01574799999999999811 ) ) ;
#187 = SURFACE_STYLE_USAGE ( .BOTH. , #44 ) ;
#188 = CIRCLE ( 'NONE', #259, 0.004921500000000009201 ) ;
#189 = CIRCLE ( 'NONE', #218, 0.1181100000000000066 ) ;
#190 = FILL_AREA_STYLE_COLOUR ( '', #135 ) ;
#191 = EDGE_CURVE ( 'NONE', #73, #158, #203, .T. ) ;
#192 = ORIENTED_EDGE ( 'NONE', *, *, #81, .T. ) ;
#193 = DIRECTION ( 'NONE',  ( -0.0000000000000000000, -0.0000000000000000000, -1.000000000000000000 ) ) ;
#194 = PRESENTATION_LAYER_ASSIGNMENT (  '', '', ( #75 ) ) ;
#195 = EDGE_CURVE ( 'NONE', #349, #156, #53, .T. ) ;
#196 = ORIENTED_EDGE ( 'NONE', *, *, #339, .F. ) ;
#197 = LINE ( 'NONE', #317, #360 ) ;
#198 = ORIENTED_EDGE ( 'NONE', *, *, #185, .F. ) ;
#199 = DIRECTION ( 'NONE',  ( -0.0000000000000000000, -0.0000000000000000000, -1.000000000000000000 ) ) ;
#200 = MANIFOLD_SOLID_BREP ( 'Cut-Revolve1', #238 ) ;
#201 = CARTESIAN_POINT ( 'NONE',  ( 0.0000000000000000000, 0.0000000000000000000, 0.02132519213502526156 ) ) ;
#202 = CARTESIAN_POINT ( 'NONE',  ( 0.0000000000000000000, 0.0000000000000000000, 0.03937000000000000915 ) ) ;
#203 = CIRCLE ( 'NONE', #309, 0.004921500000000009201 ) ;
#204 = CARTESIAN_POINT ( 'NONE',  ( -0.1031100000000002570, 0.0000000000000000000, 2.244094000000000033 ) ) ;
#205 = ORIENTED_EDGE ( 'NONE', *, *, #180, .T. ) ;
#206 = EDGE_CURVE ( 'NONE', #77, #225, #188, .T. ) ;
#207 = LINE ( 'NONE', #322, #222 ) ;
#208 = AXIS2_PLACEMENT_3D ( 'NONE', #201, #310, #277 ) ;
#209 = ADVANCED_FACE ( 'NONE', ( #114 ), #122, .T. ) ;
#210 = CARTESIAN_POINT ( 'NONE',  ( -0.005904909450000010197, 0.0000000000000000000, 0.01574799999999999811 ) ) ;
#211 = DIRECTION ( 'NONE',  ( 1.000000000000000000, 0.0000000000000000000, 0.0000000000000000000 ) ) ;
#212 = CARTESIAN_POINT ( 'NONE',  ( 0.0000000000000000000, 0.0000000000000000000, 2.229093999999999465 ) ) ;
#213 = DIMENSIONAL_EXPONENTS ( 1.000000000000000000, 0.0000000000000000000, 0.0000000000000000000, 0.0000000000000000000, 0.0000000000000000000, 0.0000000000000000000, 0.0000000000000000000 ) ;
#214 = CIRCLE ( 'NONE', #111, 0.005904909450000010197 ) ;
#215 = LENGTH_MEASURE_WITH_UNIT ( LENGTH_MEASURE( 0.02539999999999999897 ), #338 );
#216 = EDGE_CURVE ( 'NONE', #280, #18, #207, .T. ) ;
#217 = CIRCLE ( 'NONE', #32, 0.005904909450000010197 ) ;
#218 = AXIS2_PLACEMENT_3D ( 'NONE', #212, #88, #177 ) ;
#219 = ORIENTED_EDGE ( 'NONE', *, *, #195, .T. ) ;
#220 = ORIENTED_EDGE ( 'NONE', *, *, #279, .T. ) ;
#221 = ORIENTED_EDGE ( 'NONE', *, *, #206, .F. ) ;
#222 = VECTOR ( 'NONE', #278, 39.37007874015748143 ) ;
#223 =( GEOMETRIC_REPRESENTATION_CONTEXT ( 3 ) GLOBAL_UNCERTAINTY_ASSIGNED_CONTEXT ( ( #40 ) ) GLOBAL_UNIT_ASSIGNED_CONTEXT ( ( #270, #125, #7 ) ) REPRESENTATION_CONTEXT ( 'NONE', 'WORKASPACE' ) );
#224 = DIRECTION ( 'NONE',  ( -0.0000000000000000000, -0.0000000000000000000, -1.000000000000000000 ) ) ;
#225 = VERTEX_POINT ( 'NONE', #19 ) ;
#226 = FACE_OUTER_BOUND ( 'NONE', #305, .T. ) ;
#227 = EDGE_LOOP ( 'NONE', ( #334, #219 ) ) ;
#228 = PLANE ( 'NONE',  #23 ) ;
#229 = EDGE_LOOP ( 'NONE', ( #242, #129, #28, #160 ) ) ;
#230 =( LENGTH_UNIT ( ) NAMED_UNIT ( * ) SI_UNIT ( $, .METRE. ) );
#231 = LINE ( 'NONE', #284, #69 ) ;
#232 = SURFACE_STYLE_FILL_AREA ( #57 ) ;
#233 = FACE_OUTER_BOUND ( 'NONE', #275, .T. ) ;
#234 = CARTESIAN_POINT ( 'NONE',  ( 0.0000000000000000000, 0.0000000000000000000, 0.0000000000000000000 ) ) ;
#235 = ADVANCED_FACE ( 'NONE', ( #226 ), #345, .T. ) ;
#236 = DIRECTION ( 'NONE',  ( -1.000000000000000000, 0.0000000000000000000, 0.0000000000000000000 ) ) ;
#237 = DIRECTION ( 'NONE',  ( -0.0000000000000000000, -0.0000000000000000000, -1.000000000000000000 ) ) ;
#238 = CLOSED_SHELL ( 'NONE', ( #291, #123, #64, #15, #244, #235, #66, #265, #260, #209, #31, #306, #320 ) ) ;
#239 = CYLINDRICAL_SURFACE ( 'NONE', #315, 0.005904909450000010197 ) ;
#240 =( NAMED_UNIT ( * ) PLANE_ANGLE_UNIT ( ) SI_UNIT ( $, .RADIAN. ) );
#241 = VECTOR ( 'NONE', #60, 39.37007874015748143 ) ;
#242 = ORIENTED_EDGE ( 'NONE', *, *, #95, .F. ) ;
#243 = DIRECTION ( 'NONE',  ( 0.0000000000000000000, 0.0000000000000000000, -1.000000000000000000 ) ) ;
#244 = ADVANCED_FACE ( 'NONE', ( #249 ), #368, .T. ) ;
#245 = CONICAL_SURFACE ( 'NONE', #355, 0.1031100000000002570, 0.7853981633974318477 ) ;
#246 = APPLICATION_PROTOCOL_DEFINITION ( 'draft international standard', 'automotive_design', 1998, #144 ) ;
#247 = ORIENTED_EDGE ( 'NONE', *, *, #326, .T. ) ;
#248 = VERTEX_POINT ( 'NONE', #26 ) ;
#249 = FACE_OUTER_BOUND ( 'NONE', #52, .T. ) ;
#250 = ORIENTED_EDGE ( 'NONE', *, *, #339, .T. ) ;
#251 = CONICAL_SURFACE ( 'NONE', #157, 0.1031100000000002570, 0.7853981633974318477 ) ;
#252 = PRODUCT_DEFINITION_CONTEXT ( 'detailed design', #304, 'design' ) ;
#253 = DIRECTION ( 'NONE',  ( -0.0000000000000000000, -0.0000000000000000000, -1.000000000000000000 ) ) ;
#254 = FACE_OUTER_BOUND ( 'NONE', #366, .T. ) ;
#255 = FACE_OUTER_BOUND ( 'NONE', #227, .T. ) ;
#256 = DIRECTION ( 'NONE',  ( -0.0000000000000000000, -0.0000000000000000000, -1.000000000000000000 ) ) ;
#257 = DIRECTION ( 'NONE',  ( -1.000000000000000000, 0.0000000000000000000, 0.0000000000000000000 ) ) ;
#258 = ORIENTED_EDGE ( 'NONE', *, *, #2, .T. ) ;
#259 = AXIS2_PLACEMENT_3D ( 'NONE', #351, #21, #104 ) ;
#260 = ADVANCED_FACE ( 'NONE', ( #137, #255 ), #228, .T. ) ;
#261 = DIRECTION ( 'NONE',  ( 0.0000000000000000000, 0.0000000000000000000, 1.000000000000000000 ) ) ;
#262 = CARTESIAN_POINT ( 'NONE',  ( 0.0000000000000000000, 0.0000000000000000000, 0.0000000000000000000 ) ) ;
#263 = CIRCLE ( 'NONE', #341, 0.005904909450000010197 ) ;
#264 = CARTESIAN_POINT ( 'NONE',  ( 0.0000000000000000000, 0.0000000000000000000, 0.0000000000000000000 ) ) ;
#265 = ADVANCED_FACE ( 'NONE', ( #302 ), #251, .T. ) ;
#266 = DIRECTION ( 'NONE',  ( 1.000000000000000000, 0.0000000000000000000, -0.0000000000000000000 ) ) ;
#267 =( LENGTH_UNIT ( ) NAMED_UNIT ( * ) SI_UNIT ( $, .METRE. ) );
#268 = AXIS2_PLACEMENT_3D ( 'NONE', #168, #373, #283 ) ;
#269 = DIRECTION ( 'NONE',  ( 1.000000000000000000, 0.0000000000000000000, -0.0000000000000000000 ) ) ;
#270 =( CONVERSION_BASED_UNIT ( 'INCH', #215 ) LENGTH_UNIT ( ) NAMED_UNIT ( #155 ) );
#271 = CARTESIAN_POINT ( 'NONE',  ( -0.004921500000000009201, 0.0000000000000000000, 0.0000000000000000000 ) ) ;
#272 = PRODUCT_DEFINITION ( 'UNKNOWN', '', #10, #252 ) ;
#273 = PRODUCT_DEFINITION_SHAPE ( 'NONE', 'NONE',  #272 ) ;
#274 = DIRECTION ( 'NONE',  ( -0.0000000000000000000, -0.0000000000000000000, -1.000000000000000000 ) ) ;
#275 = EDGE_LOOP ( 'NONE', ( #247, #258, #101, #164 ) ) ;
#276 = EDGE_CURVE ( 'NONE', #316, #314, #337, .T. ) ;
#277 = DIRECTION ( 'NONE',  ( -1.000000000000000000, 0.0000000000000000000, 0.0000000000000000000 ) ) ;
#278 = DIRECTION ( 'NONE',  ( -0.0000000000000000000, -0.0000000000000000000, -1.000000000000000000 ) ) ;
#279 = EDGE_CURVE ( 'NONE', #77, #344, #67, .T. ) ;
#280 = VERTEX_POINT ( 'NONE', #65 ) ;
#281 = LENGTH_MEASURE_WITH_UNIT ( LENGTH_MEASURE( 0.02539999999999999897 ), #230 );
#282 = ORIENTED_EDGE ( 'NONE', *, *, #180, .F. ) ;
#283 = DIRECTION ( 'NONE',  ( -1.000000000000000000, 0.0000000000000000000, 0.0000000000000000000 ) ) ;
#284 = CARTESIAN_POINT ( 'NONE',  ( -0.1031100000000002570, 0.0000000000000000000, 2.244094000000000033 ) ) ;
#285 = ORIENTED_EDGE ( 'NONE', *, *, #96, .T. ) ;
#286 = ADVANCED_BREP_SHAPE_REPRESENTATION ( 'Micro_SFBM-003-1', ( #200, #5 ), #223 ) ;
#287 = CARTESIAN_POINT ( 'NONE',  ( 0.0000000000000000000, 0.0000000000000000000, 0.03937000000000007854 ) ) ;
#288 = ORIENTED_EDGE ( 'NONE', *, *, #95, .T. ) ;
#289 = FILL_AREA_STYLE_COLOUR ( '', #89 ) ;
#290 = DIRECTION ( 'NONE',  ( -0.7071067811865358044, 0.0000000000000000000, -0.7071067811865590080 ) ) ;
#291 = ADVANCED_FACE ( 'NONE', ( #182 ), #239, .T. ) ;
#292 = LINE ( 'NONE', #152, #365 ) ;
#293 = DIRECTION ( 'NONE',  ( -1.000000000000000000, 0.0000000000000000000, 0.0000000000000000000 ) ) ;
#294 = CARTESIAN_POINT ( 'NONE',  ( -0.1181100000000000066, 0.0000000000000000000, 2.229093999999999465 ) ) ;
#295 = CARTESIAN_POINT ( 'NONE',  ( -0.1181100000000000066, 0.0000000000000000000, 0.03937000000000007854 ) ) ;
#296 = DIRECTION ( 'NONE',  ( 0.1736481776669299426, 2.126576849575766676E-17, -0.9848077530122080203 ) ) ;
#297 = AXIS2_PLACEMENT_3D ( 'NONE', #372, #193, #82 ) ;
#298 = CIRCLE ( 'NONE', #24, 0.004921500000000009201 ) ;
#299 = CYLINDRICAL_SURFACE ( 'NONE', #128, 0.005904909450000010197 ) ;
#300 = SURFACE_STYLE_FILL_AREA ( #361 ) ;
#301 = ORIENTED_EDGE ( 'NONE', *, *, #313, .T. ) ;
#302 = FACE_OUTER_BOUND ( 'NONE', #29, .T. ) ;
#303 = AXIS2_PLACEMENT_3D ( 'NONE', #374, #261, #86 ) ;
#304 = APPLICATION_CONTEXT ( 'automotive_design' ) ;
#305 = EDGE_LOOP ( 'NONE', ( #342, #301, #378, #58 ) ) ;
#306 = ADVANCED_FACE ( 'NONE', ( #121 ), #299, .T. ) ;
#307 = ORIENTED_EDGE ( 'NONE', *, *, #2, .F. ) ;
#308 = DIRECTION ( 'NONE',  ( -1.000000000000000000, 0.0000000000000000000, 0.0000000000000000000 ) ) ;
#309 = AXIS2_PLACEMENT_3D ( 'NONE', #202, #199, #30 ) ;
#310 = DIRECTION ( 'NONE',  ( -0.0000000000000000000, -0.0000000000000000000, -1.000000000000000000 ) ) ;
#311 = ORIENTED_EDGE ( 'NONE', *, *, #326, .F. ) ;
#312 = DIRECTION ( 'NONE',  ( -1.000000000000000000, 0.0000000000000000000, 0.0000000000000000000 ) ) ;
#313 = EDGE_CURVE ( 'NONE', #314, #316, #189, .T. ) ;
#314 = VERTEX_POINT ( 'NONE', #68 ) ;
#315 = AXIS2_PLACEMENT_3D ( 'NONE', #234, #357, #92 ) ;
#316 = VERTEX_POINT ( 'NONE', #294 ) ;
#317 = CARTESIAN_POINT ( 'NONE',  ( 0.1181100000000000066, 1.446430334472939084E-17, 2.244094000000000033 ) ) ;
#318 = ORIENTED_EDGE ( 'NONE', *, *, #216, .F. ) ;
#319 = CARTESIAN_POINT ( 'NONE',  ( 0.005904909450000010197, 7.231428457197470251E-19, 0.0000000000000000000 ) ) ;
#320 = ADVANCED_FACE ( 'NONE', ( #154 ), #327, .F. ) ;
#321 = CARTESIAN_POINT ( 'NONE',  ( 0.0000000000000000000, 0.0000000000000000000, 0.0000000000000000000 ) ) ;
#322 = CARTESIAN_POINT ( 'NONE',  ( -0.005904909450000010197, 0.0000000000000000000, 0.0000000000000000000 ) ) ;
#323 = EDGE_CURVE ( 'NONE', #225, #280, #331, .T. ) ;
#324 = DIRECTION ( 'NONE',  ( 0.0000000000000000000, 0.0000000000000000000, -1.000000000000000000 ) ) ;
#325 = CIRCLE ( 'NONE', #133, 0.005904909450000010197 ) ;
#326 = EDGE_CURVE ( 'NONE', #158, #73, #298, .T. ) ;
#327 = PLANE ( 'NONE',  #163 ) ;
#328 = FACE_OUTER_BOUND ( 'NONE', #370, .T. ) ;
#329 = DIRECTION ( 'NONE',  ( -1.000000000000000000, 0.0000000000000000000, 0.0000000000000000000 ) ) ;
#330 = MECHANICAL_DESIGN_GEOMETRIC_PRESENTATION_REPRESENTATION (  '', ( #76 ), #151 ) ;
#331 = LINE ( 'NONE', #210, #72 ) ;
#332 = EDGE_CURVE ( 'NONE', #316, #156, #49, .T. ) ;
#333 = LINE ( 'NONE', #271, #184 ) ;
#334 = ORIENTED_EDGE ( 'NONE', *, *, #185, .T. ) ;
#335 = CARTESIAN_POINT ( 'NONE',  ( 0.1181100000000000066, 1.446430334472939084E-17, 0.03937000000000007854 ) ) ;
#336 = PRODUCT ( 'Micro_SFBM-003-1', 'Micro_SFBM-003-1', '', ( #41 ) ) ;
#337 = CIRCLE ( 'NONE', #150, 0.1181100000000000066 ) ;
#338 =( LENGTH_UNIT ( ) NAMED_UNIT ( * ) SI_UNIT ( $, .METRE. ) );
#339 = EDGE_CURVE ( 'NONE', #124, #18, #214, .T. ) ;
#340 = ORIENTED_EDGE ( 'NONE', *, *, #112, .F. ) ;
#341 = AXIS2_PLACEMENT_3D ( 'NONE', #22, #253, #105 ) ;
#342 = ORIENTED_EDGE ( 'NONE', *, *, #172, .F. ) ;
#343 = DIRECTION ( 'NONE',  ( -1.000000000000000000, 0.0000000000000000000, 0.0000000000000000000 ) ) ;
#344 = VERTEX_POINT ( 'NONE', #186 ) ;
#345 = CYLINDRICAL_SURFACE ( 'NONE', #268, 0.1181100000000000066 ) ;
#346 = CARTESIAN_POINT ( 'NONE',  ( -0.005904909450000010197, 0.0000000000000000000, 0.0000000000000000000 ) ) ;
#347 = CARTESIAN_POINT ( 'NONE',  ( 0.004921500000000009201, 0.0000000000000000000, 0.03937000000000000915 ) ) ;
#348 = CIRCLE ( 'NONE', #208, 0.004921500000000009201 ) ;
#349 = VERTEX_POINT ( 'NONE', #335 ) ;
#350 = VECTOR ( 'NONE', #16, 39.37007874015748143 ) ;
#351 = CARTESIAN_POINT ( 'NONE',  ( 0.0000000000000000000, 0.0000000000000000000, 0.02132519213502526156 ) ) ;
#352 = CARTESIAN_POINT ( 'NONE',  ( 0.0000000000000000000, 0.0000000000000000000, 0.01574799999999999811 ) ) ;
#353 = CYLINDRICAL_SURFACE ( 'NONE', #48, 0.004921500000000009201 ) ;
#354 = DIRECTION ( 'NONE',  ( 0.0000000000000000000, 0.0000000000000000000, 1.000000000000000000 ) ) ;
#355 = AXIS2_PLACEMENT_3D ( 'NONE', #136, #138, #74 ) ;
#356 = DIRECTION ( 'NONE',  ( 0.7071067811865358044, 8.659560562354788645E-17, -0.7071067811865590080 ) ) ;
#357 = DIRECTION ( 'NONE',  ( -0.0000000000000000000, -0.0000000000000000000, -1.000000000000000000 ) ) ;
#358 = CARTESIAN_POINT ( 'NONE',  ( 0.0000000000000000000, 0.0000000000000000000, 0.0000000000000000000 ) ) ;
#359 = EDGE_CURVE ( 'NONE', #158, #225, #333, .T. ) ;
#360 = VECTOR ( 'NONE', #80, 39.37007874015748143 ) ;
#361 = FILL_AREA_STYLE ('',( #190 ) ) ;
#362 = DIRECTION ( 'NONE',  ( -1.000000000000000000, 0.0000000000000000000, 0.0000000000000000000 ) ) ;
#363 = ORIENTED_EDGE ( 'NONE', *, *, #172, .T. ) ;
#364 = DIRECTION ( 'NONE',  ( -1.000000000000000000, 0.0000000000000000000, 0.0000000000000000000 ) ) ;
#365 = VECTOR ( 'NONE', #356, 39.37007874015748854 ) ;
#366 = EDGE_LOOP ( 'NONE', ( #307, #140, #173, #221 ) ) ;
#367 = ORIENTED_EDGE ( 'NONE', *, *, #191, .F. ) ;
#368 = CYLINDRICAL_SURFACE ( 'NONE', #369, 0.1181100000000000066 ) ;
#369 = AXIS2_PLACEMENT_3D ( 'NONE', #102, #224, #343 ) ;
#370 = EDGE_LOOP ( 'NONE', ( #50, #288 ) ) ;
#371 = PRESENTATION_STYLE_ASSIGNMENT (( #166 ) ) ;
#372 = CARTESIAN_POINT ( 'NONE',  ( 0.0000000000000000000, 0.0000000000000000000, 0.0000000000000000000 ) ) ;
#373 = DIRECTION ( 'NONE',  ( -0.0000000000000000000, -0.0000000000000000000, -1.000000000000000000 ) ) ;
#374 = CARTESIAN_POINT ( 'NONE',  ( 0.0000000000000000000, 0.0000000000000000000, 2.244094000000000033 ) ) ;
#375 = ORIENTED_EDGE ( 'NONE', *, *, #323, .T. ) ;
#376 =( NAMED_UNIT ( * ) PLANE_ANGLE_UNIT ( ) SI_UNIT ( $, .RADIAN. ) );
#377 = MECHANICAL_DESIGN_GEOMETRIC_PRESENTATION_REPRESENTATION (  '', ( #75 ), #183 ) ;
#378 = ORIENTED_EDGE ( 'NONE', *, *, #332, .T. ) ;
#379 = SURFACE_SIDE_STYLE ('',( #232 ) ) ;
ENDSEC;
END-ISO-10303-21;
