ISO-10303-21;
HEADER;
FILE_DESCRIPTION (( 'STEP AP214' ),
    '1' );
FILE_NAME ('Micro_SFPM-030-50.STEP',
    '2021-09-02T06:47:47',
    ( '' ),
    ( '' ),
    'SwSTEP 2.0',
    'SolidWorks 2020',
    '' );
FILE_SCHEMA (( 'AUTOMOTIVE_DESIGN' ));
ENDSEC;

DATA;
#1 = AXIS2_PLACEMENT_3D ( 'NONE', #190, #84, #77 ) ;
#2 = DIRECTION ( 'NONE',  ( 0.0000000000000000000, 0.0000000000000000000, 1.000000000000000000 ) ) ;
#3 = ORIENTED_EDGE ( 'NONE', *, *, #161, .F. ) ;
#4 = DIRECTION ( 'NONE',  ( 0.0000000000000000000, 0.0000000000000000000, -1.000000000000000000 ) ) ;
#5 = VERTEX_POINT ( 'NONE', #152 ) ;
#6 = EDGE_CURVE ( 'NONE', #164, #261, #224, .T. ) ;
#7 = APPLICATION_PROTOCOL_DEFINITION ( 'draft international standard', 'automotive_design', 1998, #74 ) ;
#8 = DIRECTION ( 'NONE',  ( -1.224646799147353207E-16, -0.0000000000000000000, -1.000000000000000000 ) ) ;
#9 = FILL_AREA_STYLE_COLOUR ( '', #255 ) ;
#10 = ORIENTED_EDGE ( 'NONE', *, *, #130, .F. ) ;
#11 = FACE_OUTER_BOUND ( 'NONE', #109, .T. ) ;
#12 = FACE_OUTER_BOUND ( 'NONE', #117, .T. ) ;
#13 = CARTESIAN_POINT ( 'NONE',  ( -0.1181099999999999234, 0.0000000000000000000, 0.6502134654053794982 ) ) ;
#14 = ORIENTED_EDGE ( 'NONE', *, *, #245, .F. ) ;
#15 = DIRECTION ( 'NONE',  ( -1.224646799147353207E-16, -0.0000000000000000000, -1.000000000000000000 ) ) ;
#16 = LINE ( 'NONE', #37, #24 ) ;
#17 = FACE_OUTER_BOUND ( 'NONE', #213, .T. ) ;
#18 =( CONVERSION_BASED_UNIT ( 'INCH', #49 ) LENGTH_UNIT ( ) NAMED_UNIT ( #23 ) );
#19 = AXIS2_PLACEMENT_3D ( 'NONE', #102, #291, #153 ) ;
#20 = EDGE_CURVE ( 'NONE', #288, #192, #16, .T. ) ;
#21 =( LENGTH_UNIT ( ) NAMED_UNIT ( * ) SI_UNIT ( $, .METRE. ) );
#22 =( GEOMETRIC_REPRESENTATION_CONTEXT ( 3 ) GLOBAL_UNCERTAINTY_ASSIGNED_CONTEXT ( ( #284 ) ) GLOBAL_UNIT_ASSIGNED_CONTEXT ( ( #129, #204, #91 ) ) REPRESENTATION_CONTEXT ( 'NONE', 'WORKASPACE' ) );
#23 = DIMENSIONAL_EXPONENTS ( 1.000000000000000000, 0.0000000000000000000, 0.0000000000000000000, 0.0000000000000000000, 0.0000000000000000000, 0.0000000000000000000, 0.0000000000000000000 ) ;
#24 = VECTOR ( 'NONE', #43, 39.37007874015748854 ) ;
#25 = AXIS2_PLACEMENT_3D ( 'NONE', #175, #88, #40 ) ;
#26 = SHAPE_DEFINITION_REPRESENTATION ( #107, #86 ) ;
#27 = ORIENTED_EDGE ( 'NONE', *, *, #257, .F. ) ;
#28 = CARTESIAN_POINT ( 'NONE',  ( 0.0000000000000000000, 0.0000000000000000000, 2.244094000000000033 ) ) ;
#29 = EDGE_LOOP ( 'NONE', ( #52, #216, #27, #3 ) ) ;
#30 = DIRECTION ( 'NONE',  ( -0.0000000000000000000, -0.0000000000000000000, -1.000000000000000000 ) ) ;
#31 = ORIENTED_EDGE ( 'NONE', *, *, #212, .T. ) ;
#32 = MECHANICAL_DESIGN_GEOMETRIC_PRESENTATION_REPRESENTATION (  '', ( #159 ), #41 ) ;
#33 = ORIENTED_EDGE ( 'NONE', *, *, #20, .F. ) ;
#34 = DIRECTION ( 'NONE',  ( 0.0000000000000000000, 0.0000000000000000000, 1.000000000000000000 ) ) ;
#35 = CYLINDRICAL_SURFACE ( 'NONE', #260, 0.1181100000000000066 ) ;
#36 = DIRECTION ( 'NONE',  ( -1.000000000000000000, 0.0000000000000000000, 1.224646799147353454E-16 ) ) ;
#37 = CARTESIAN_POINT ( 'NONE',  ( 0.1031100000000002570, 1.262733314600838667E-17, 2.244094000000000033 ) ) ;
#38 = DIRECTION ( 'NONE',  ( 1.000000000000000000, 0.0000000000000000000, -0.0000000000000000000 ) ) ;
#39 = VERTEX_POINT ( 'NONE', #101 ) ;
#40 = DIRECTION ( 'NONE',  ( 1.000000000000000000, 0.0000000000000000000, -0.0000000000000000000 ) ) ;
#41 =( GEOMETRIC_REPRESENTATION_CONTEXT ( 3 ) GLOBAL_UNCERTAINTY_ASSIGNED_CONTEXT ( ( #45 ) ) GLOBAL_UNIT_ASSIGNED_CONTEXT ( ( #18, #275, #46 ) ) REPRESENTATION_CONTEXT ( 'NONE', 'WORKASPACE' ) );
#42 = EDGE_CURVE ( 'NONE', #39, #120, #232, .T. ) ;
#43 = DIRECTION ( 'NONE',  ( 0.7071067811865358044, 8.659560562354788645E-17, -0.7071067811865590080 ) ) ;
#44 = DIRECTION ( 'NONE',  ( 0.0000000000000000000, 0.0000000000000000000, -1.000000000000000000 ) ) ;
#45 = UNCERTAINTY_MEASURE_WITH_UNIT (LENGTH_MEASURE( 1.000000000000000082E-05 ), #18, 'distance_accuracy_value', 'NONE');
#46 =( NAMED_UNIT ( * ) SI_UNIT ( $, .STERADIAN. ) SOLID_ANGLE_UNIT ( ) );
#47 = CIRCLE ( 'NONE', #135, 0.1181100000000000066 ) ;
#48 = SURFACE_SIDE_STYLE ('',( #205 ) ) ;
#49 = LENGTH_MEASURE_WITH_UNIT ( LENGTH_MEASURE( 0.02539999999999999897 ), #21 );
#50 = VECTOR ( 'NONE', #8, 39.37007874015748143 ) ;
#51 = CARTESIAN_POINT ( 'NONE',  ( 0.0000000000000000000, 0.0000000000000000000, 2.244094000000000033 ) ) ;
#52 = ORIENTED_EDGE ( 'NONE', *, *, #42, .T. ) ;
#53 = VECTOR ( 'NONE', #142, 39.37007874015748854 ) ;
#54 = EDGE_LOOP ( 'NONE', ( #33, #194, #75, #160 ) ) ;
#55 = CARTESIAN_POINT ( 'NONE',  ( -0.05899594499999999409, 0.0000000000000000000, 1.444983904138465938E-17 ) ) ;
#56 = VECTOR ( 'NONE', #198, 39.37007874015747433 ) ;
#57 = MECHANICAL_DESIGN_GEOMETRIC_PRESENTATION_REPRESENTATION (  '', ( #298 ), #22 ) ;
#58 = ORIENTED_EDGE ( 'NONE', *, *, #105, .T. ) ;
#59 = CARTESIAN_POINT ( 'NONE',  ( 8.847974565113090185E-34, 0.0000000000000000000, 7.224919520692329689E-18 ) ) ;
#60 = ORIENTED_EDGE ( 'NONE', *, *, #141, .F. ) ;
#61 = CARTESIAN_POINT ( 'NONE',  ( 0.0000000000000000000, 0.0000000000000000000, 0.0000000000000000000 ) ) ;
#62 = ADVANCED_FACE ( 'NONE', ( #290 ), #171, .T. ) ;
#63 = ORIENTED_EDGE ( 'NONE', *, *, #212, .F. ) ;
#64 = CARTESIAN_POINT ( 'NONE',  ( 7.962818391712061992E-17, 0.0000000000000000000, 0.6502134654053794982 ) ) ;
#65 = CIRCLE ( 'NONE', #134, 0.05899594499999999409 ) ;
#66 = CARTESIAN_POINT ( 'NONE',  ( 8.847974565113090185E-34, 0.0000000000000000000, 7.224919520692329689E-18 ) ) ;
#67 = DIRECTION ( 'NONE',  ( 1.000000000000000000, 0.0000000000000000000, 0.0000000000000000000 ) ) ;
#68 = AXIS2_PLACEMENT_3D ( 'NONE', #244, #123, #172 ) ;
#69 =( LENGTH_UNIT ( ) NAMED_UNIT ( * ) SI_UNIT ( $, .METRE. ) );
#70 = AXIS2_PLACEMENT_3D ( 'NONE', #252, #269, #110 ) ;
#71 = EDGE_LOOP ( 'NONE', ( #246, #131 ) ) ;
#72 = LENGTH_MEASURE_WITH_UNIT ( LENGTH_MEASURE( 0.02539999999999999897 ), #299 );
#73 = PRODUCT_DEFINITION ( 'UNKNOWN', '', #210, #177 ) ;
#74 = APPLICATION_CONTEXT ( 'automotive_design' ) ;
#75 = ORIENTED_EDGE ( 'NONE', *, *, #154, .T. ) ;
#76 = CARTESIAN_POINT ( 'NONE',  ( 0.05899594499999999409, 7.224919520692329689E-18, -7.224919520692329689E-18 ) ) ;
#77 = DIRECTION ( 'NONE',  ( -1.000000000000000000, 0.0000000000000000000, 0.0000000000000000000 ) ) ;
#78 = CARTESIAN_POINT ( 'NONE',  ( 0.0000000000000000000, 0.0000000000000000000, 2.229093999999999465 ) ) ;
#79 = ORIENTED_EDGE ( 'NONE', *, *, #245, .T. ) ;
#80 = DIRECTION ( 'NONE',  ( -1.224646799147353207E-16, -0.0000000000000000000, -1.000000000000000000 ) ) ;
#81 = ORIENTED_EDGE ( 'NONE', *, *, #20, .T. ) ;
#82 = CARTESIAN_POINT ( 'NONE',  ( 0.0000000000000000000, 0.0000000000000000000, 2.229093999999999465 ) ) ;
#83 = EDGE_CURVE ( 'NONE', #99, #169, #118, .T. ) ;
#84 = DIRECTION ( 'NONE',  ( -1.224646799147353207E-16, -0.0000000000000000000, -1.000000000000000000 ) ) ;
#85 = PLANE ( 'NONE',  #25 ) ;
#86 = ADVANCED_BREP_SHAPE_REPRESENTATION ( 'Micro_SFPM-030-50', ( #267, #277 ), #168 ) ;
#87 = CARTESIAN_POINT ( 'NONE',  ( 0.0000000000000000000, 0.0000000000000000000, 0.0000000000000000000 ) ) ;
#88 = DIRECTION ( 'NONE',  ( 0.0000000000000000000, 0.0000000000000000000, 1.000000000000000000 ) ) ;
#89 = AXIS2_PLACEMENT_3D ( 'NONE', #218, #274, #38 ) ;
#90 = PRODUCT ( 'Micro_SFPM-030-50', 'Micro_SFPM-030-50', '', ( #215 ) ) ;
#91 =( NAMED_UNIT ( * ) SI_UNIT ( $, .STERADIAN. ) SOLID_ANGLE_UNIT ( ) );
#92 = AXIS2_PLACEMENT_3D ( 'NONE', #165, #121, #170 ) ;
#93 = ADVANCED_FACE ( 'NONE', ( #240 ), #35, .T. ) ;
#94 = ORIENTED_EDGE ( 'NONE', *, *, #220, .T. ) ;
#95 = CIRCLE ( 'NONE', #294, 0.05899594499999999409 ) ;
#96 = CARTESIAN_POINT ( 'NONE',  ( 0.05899594500000004266, 0.0000000000000000000, 0.3149609999999999910 ) ) ;
#97 = DIRECTION ( 'NONE',  ( -0.0000000000000000000, -0.0000000000000000000, -1.000000000000000000 ) ) ;
#98 = LINE ( 'NONE', #263, #53 ) ;
#99 = VERTEX_POINT ( 'NONE', #145 ) ;
#100 = CARTESIAN_POINT ( 'NONE',  ( 3.857159805062494824E-17, 0.0000000000000000000, 0.3149609999999999910 ) ) ;
#101 = CARTESIAN_POINT ( 'NONE',  ( -0.05899594499999995245, 1.084461143271085950E-17, 0.3149609999999999910 ) ) ;
#102 = CARTESIAN_POINT ( 'NONE',  ( 0.0000000000000000000, 0.0000000000000000000, 2.244094000000000033 ) ) ;
#103 = DIRECTION ( 'NONE',  ( -1.000000000000000000, 0.0000000000000000000, 1.224646799147353454E-16 ) ) ;
#104 = FACE_OUTER_BOUND ( 'NONE', #29, .T. ) ;
#105 = EDGE_CURVE ( 'NONE', #120, #271, #243, .T. ) ;
#106 = CARTESIAN_POINT ( 'NONE',  ( -0.1181100000000000066, 0.0000000000000000000, 2.244094000000000033 ) ) ;
#107 = PRODUCT_DEFINITION_SHAPE ( 'NONE', 'NONE',  #73 ) ;
#108 = DIRECTION ( 'NONE',  ( 1.224646799147353207E-16, 0.0000000000000000000, 1.000000000000000000 ) ) ;
#109 = EDGE_LOOP ( 'NONE', ( #258, #227, #31, #197 ) ) ;
#110 = DIRECTION ( 'NONE',  ( 1.000000000000000000, 0.0000000000000000000, 0.0000000000000000000 ) ) ;
#111 = CARTESIAN_POINT ( 'NONE',  ( 0.1031100000000002570, 1.354581824536888722E-17, 2.244094000000000033 ) ) ;
#112 = FILL_AREA_STYLE ('',( #113 ) ) ;
#113 = FILL_AREA_STYLE_COLOUR ( '', #262 ) ;
#114 = ADVANCED_FACE ( 'NONE', ( #12 ), #214, .T. ) ;
#115 = ADVANCED_FACE ( 'NONE', ( #188 ), #234, .T. ) ;
#116 = ORIENTED_EDGE ( 'NONE', *, *, #154, .F. ) ;
#117 = EDGE_LOOP ( 'NONE', ( #60, #185, #265, #280 ) ) ;
#118 = CIRCLE ( 'NONE', #241, 0.05899594499999999409 ) ;
#119 = PRESENTATION_LAYER_ASSIGNMENT (  '', '', ( #298 ) ) ;
#120 = VERTEX_POINT ( 'NONE', #96 ) ;
#121 = DIRECTION ( 'NONE',  ( 1.224646799147353207E-16, 0.0000000000000000000, 1.000000000000000000 ) ) ;
#122 = CARTESIAN_POINT ( 'NONE',  ( 0.05899594500000004266, 0.0000000000000000000, 0.3149609999999999910 ) ) ;
#123 = DIRECTION ( 'NONE',  ( 0.0000000000000000000, 0.0000000000000000000, 1.000000000000000000 ) ) ;
#124 = DIRECTION ( 'NONE',  ( -1.224646799147353207E-16, -0.0000000000000000000, -1.000000000000000000 ) ) ;
#125 = PLANE ( 'NONE',  #89 ) ;
#126 = DIRECTION ( 'NONE',  ( -0.0000000000000000000, -0.0000000000000000000, -1.000000000000000000 ) ) ;
#127 = FILL_AREA_STYLE ('',( #9 ) ) ;
#128 = ORIENTED_EDGE ( 'NONE', *, *, #161, .T. ) ;
#129 =( CONVERSION_BASED_UNIT ( 'INCH', #207 ) LENGTH_UNIT ( ) NAMED_UNIT ( #209 ) );
#130 = EDGE_CURVE ( 'NONE', #120, #39, #65, .T. ) ;
#131 = ORIENTED_EDGE ( 'NONE', *, *, #83, .T. ) ;
#132 = DIRECTION ( 'NONE',  ( 1.000000000000000000, 0.0000000000000000000, 0.0000000000000000000 ) ) ;
#133 = APPLICATION_CONTEXT ( 'automotive_design' ) ;
#134 = AXIS2_PLACEMENT_3D ( 'NONE', #186, #238, #279 ) ;
#135 = AXIS2_PLACEMENT_3D ( 'NONE', #64, #211, #132 ) ;
#136 = CARTESIAN_POINT ( 'NONE',  ( 0.0000000000000000000, 0.0000000000000000000, 0.0000000000000000000 ) ) ;
#137 = ORIENTED_EDGE ( 'NONE', *, *, #6, .F. ) ;
#138 = AXIS2_PLACEMENT_3D ( 'NONE', #87, #174, #103 ) ;
#139 = PRESENTATION_LAYER_ASSIGNMENT (  '', '', ( #159 ) ) ;
#140 = DIRECTION ( 'NONE',  ( -1.000000000000000000, 0.0000000000000000000, 0.0000000000000000000 ) ) ;
#141 = EDGE_CURVE ( 'NONE', #192, #271, #259, .T. ) ;
#142 = DIRECTION ( 'NONE',  ( -0.7071067811865358044, 0.0000000000000000000, -0.7071067811865590080 ) ) ;
#143 = DIRECTION ( 'NONE',  ( -1.000000000000000000, 0.0000000000000000000, 1.224646799147353454E-16 ) ) ;
#144 = CARTESIAN_POINT ( 'NONE',  ( 0.0000000000000000000, 0.0000000000000000000, 2.244094000000000033 ) ) ;
#145 = CARTESIAN_POINT ( 'NONE',  ( 0.05899594499999999409, 7.224919520692329689E-18, 0.0000000000000000000 ) ) ;
#146 = LINE ( 'NONE', #266, #56 ) ;
#147 = EDGE_CURVE ( 'NONE', #120, #99, #281, .T. ) ;
#148 = ORIENTED_EDGE ( 'NONE', *, *, #147, .F. ) ;
#149 = DIRECTION ( 'NONE',  ( -1.000000000000000000, 0.0000000000000000000, 1.224646799147353454E-16 ) ) ;
#150 = ORIENTED_EDGE ( 'NONE', *, *, #130, .T. ) ;
#151 = DIRECTION ( 'NONE',  ( -1.224646799147353207E-16, -0.0000000000000000000, -1.000000000000000000 ) ) ;
#152 = CARTESIAN_POINT ( 'NONE',  ( -0.1031100000000002570, 0.0000000000000000000, 2.244094000000000033 ) ) ;
#153 = DIRECTION ( 'NONE',  ( -1.000000000000000000, 0.0000000000000000000, 0.0000000000000000000 ) ) ;
#154 = EDGE_CURVE ( 'NONE', #5, #164, #98, .T. ) ;
#155 = EDGE_CURVE ( 'NONE', #39, #261, #146, .T. ) ;
#156 =( NAMED_UNIT ( * ) SI_UNIT ( $, .STERADIAN. ) SOLID_ANGLE_UNIT ( ) );
#157 = DIRECTION ( 'NONE',  ( 1.000000000000000000, 0.0000000000000000000, 0.0000000000000000000 ) ) ;
#158 = CONICAL_SURFACE ( 'NONE', #203, 0.05899594499999999409, 0.1745329251994339192 ) ;
#159 = STYLED_ITEM ( 'NONE', ( #295 ), #86 ) ;
#160 = ORIENTED_EDGE ( 'NONE', *, *, #167, .F. ) ;
#161 = EDGE_CURVE ( 'NONE', #39, #169, #222, .T. ) ;
#162 = ORIENTED_EDGE ( 'NONE', *, *, #276, .T. ) ;
#163 = UNCERTAINTY_MEASURE_WITH_UNIT (LENGTH_MEASURE( 1.000000000000000082E-05 ), #233, 'distance_accuracy_value', 'NONE');
#164 = VERTEX_POINT ( 'NONE', #248 ) ;
#165 = CARTESIAN_POINT ( 'NONE',  ( 3.857159805062494824E-17, 0.0000000000000000000, 0.3149609999999999910 ) ) ;
#166 = AXIS2_PLACEMENT_3D ( 'NONE', #78, #228, #201 ) ;
#167 = EDGE_CURVE ( 'NONE', #192, #164, #235, .T. ) ;
#168 =( GEOMETRIC_REPRESENTATION_CONTEXT ( 3 ) GLOBAL_UNCERTAINTY_ASSIGNED_CONTEXT ( ( #163 ) ) GLOBAL_UNIT_ASSIGNED_CONTEXT ( ( #233, #202, #156 ) ) REPRESENTATION_CONTEXT ( 'NONE', 'WORKASPACE' ) );
#169 = VERTEX_POINT ( 'NONE', #55 ) ;
#170 = DIRECTION ( 'NONE',  ( 1.000000000000000000, 0.0000000000000000000, 0.0000000000000000000 ) ) ;
#171 = CYLINDRICAL_SURFACE ( 'NONE', #138, 0.05899594499999999409 ) ;
#172 = DIRECTION ( 'NONE',  ( 1.000000000000000000, 0.0000000000000000000, 0.0000000000000000000 ) ) ;
#173 = ADVANCED_FACE ( 'NONE', ( #11 ), #158, .T. ) ;
#174 = DIRECTION ( 'NONE',  ( -1.224646799147353207E-16, -0.0000000000000000000, -1.000000000000000000 ) ) ;
#175 = CARTESIAN_POINT ( 'NONE',  ( 0.0000000000000000000, 0.0000000000000000000, 0.0000000000000000000 ) ) ;
#176 = VECTOR ( 'NONE', #97, 39.37007874015748143 ) ;
#177 = PRODUCT_DEFINITION_CONTEXT ( 'detailed design', #74, 'design' ) ;
#178 = SURFACE_STYLE_USAGE ( .BOTH. , #48 ) ;
#179 = APPLICATION_PROTOCOL_DEFINITION ( 'draft international standard', 'automotive_design', 1998, #133 ) ;
#180 = AXIS2_PLACEMENT_3D ( 'NONE', #51, #30, #189 ) ;
#181 = AXIS2_PLACEMENT_3D ( 'NONE', #144, #34, #191 ) ;
#182 = CARTESIAN_POINT ( 'NONE',  ( 0.1181100000000000899, 1.446430334472940009E-17, 0.6502134654053794982 ) ) ;
#183 = SURFACE_STYLE_USAGE ( .BOTH. , #292 ) ;
#184 = EDGE_CURVE ( 'NONE', #5, #288, #217, .T. ) ;
#185 = ORIENTED_EDGE ( 'NONE', *, *, #167, .T. ) ;
#186 = CARTESIAN_POINT ( 'NONE',  ( 3.857159805062494824E-17, 0.0000000000000000000, 0.3149609999999999910 ) ) ;
#187 = ADVANCED_FACE ( 'NONE', ( #17 ), #219, .T. ) ;
#188 = FACE_OUTER_BOUND ( 'NONE', #54, .T. ) ;
#189 = DIRECTION ( 'NONE',  ( -1.000000000000000000, 0.0000000000000000000, 0.0000000000000000000 ) ) ;
#190 = CARTESIAN_POINT ( 'NONE',  ( 3.857159805062494824E-17, 0.0000000000000000000, 0.3149609999999999910 ) ) ;
#191 = DIRECTION ( 'NONE',  ( 1.000000000000000000, 0.0000000000000000000, 0.0000000000000000000 ) ) ;
#192 = VERTEX_POINT ( 'NONE', #242 ) ;
#193 = DIRECTION ( 'NONE',  ( 1.000000000000000000, 0.0000000000000000000, 0.0000000000000000000 ) ) ;
#194 = ORIENTED_EDGE ( 'NONE', *, *, #184, .F. ) ;
#195 = CYLINDRICAL_SURFACE ( 'NONE', #196, 0.05899594499999999409 ) ;
#196 = AXIS2_PLACEMENT_3D ( 'NONE', #61, #151, #149 ) ;
#197 = ORIENTED_EDGE ( 'NONE', *, *, #105, .F. ) ;
#198 = DIRECTION ( 'NONE',  ( -0.1736481776669312194, 2.126576849575783625E-17, 0.9848077530122080203 ) ) ;
#199 = ADVANCED_FACE ( 'NONE', ( #272 ), #125, .T. ) ;
#200 = EDGE_LOOP ( 'NONE', ( #148, #150, #128, #273 ) ) ;
#201 = DIRECTION ( 'NONE',  ( 1.000000000000000000, 0.0000000000000000000, 0.0000000000000000000 ) ) ;
#202 =( NAMED_UNIT ( * ) PLANE_ANGLE_UNIT ( ) SI_UNIT ( $, .RADIAN. ) );
#203 = AXIS2_PLACEMENT_3D ( 'NONE', #100, #108, #193 ) ;
#204 =( NAMED_UNIT ( * ) PLANE_ANGLE_UNIT ( ) SI_UNIT ( $, .RADIAN. ) );
#205 = SURFACE_STYLE_FILL_AREA ( #112 ) ;
#206 = ADVANCED_FACE ( 'NONE', ( #289 ), #85, .F. ) ;
#207 = LENGTH_MEASURE_WITH_UNIT ( LENGTH_MEASURE( 0.02539999999999999897 ), #69 );
#208 = VECTOR ( 'NONE', #126, 39.37007874015748143 ) ;
#209 = DIMENSIONAL_EXPONENTS ( 1.000000000000000000, 0.0000000000000000000, 0.0000000000000000000, 0.0000000000000000000, 0.0000000000000000000, 0.0000000000000000000, 0.0000000000000000000 ) ;
#210 = PRODUCT_DEFINITION_FORMATION_WITH_SPECIFIED_SOURCE ( 'ANY', '', #90, .NOT_KNOWN. ) ;
#211 = DIRECTION ( 'NONE',  ( -1.224646799147353207E-16, -0.0000000000000000000, -1.000000000000000000 ) ) ;
#212 = EDGE_CURVE ( 'NONE', #261, #271, #282, .T. ) ;
#213 = EDGE_LOOP ( 'NONE', ( #247, #81, #14, #116 ) ) ;
#214 = CYLINDRICAL_SURFACE ( 'NONE', #180, 0.1181100000000000066 ) ;
#215 = PRODUCT_CONTEXT ( 'NONE', #133, 'mechanical' ) ;
#216 = ORIENTED_EDGE ( 'NONE', *, *, #147, .T. ) ;
#217 = CIRCLE ( 'NONE', #181, 0.1031100000000002570 ) ;
#218 = CARTESIAN_POINT ( 'NONE',  ( 0.0000000000000000000, 0.0000000000000000000, 2.244094000000000033 ) ) ;
#219 = CONICAL_SURFACE ( 'NONE', #19, 0.1031100000000002570, 0.7853981633974318477 ) ;
#220 = EDGE_CURVE ( 'NONE', #288, #5, #226, .T. ) ;
#221 = DIRECTION ( 'NONE',  ( -1.000000000000000000, 0.0000000000000000000, 0.0000000000000000000 ) ) ;
#222 = LINE ( 'NONE', #286, #225 ) ;
#223 = DIRECTION ( 'NONE',  ( 0.1736481776669314137, 0.0000000000000000000, 0.9848077530122077983 ) ) ;
#224 = LINE ( 'NONE', #106, #208 ) ;
#225 = VECTOR ( 'NONE', #15, 39.37007874015748143 ) ;
#226 = CIRCLE ( 'NONE', #68, 0.1031100000000002570 ) ;
#227 = ORIENTED_EDGE ( 'NONE', *, *, #155, .T. ) ;
#228 = DIRECTION ( 'NONE',  ( 0.0000000000000000000, 0.0000000000000000000, -1.000000000000000000 ) ) ;
#229 = PRODUCT_RELATED_PRODUCT_CATEGORY ( 'part', '', ( #90 ) ) ;
#230 = ORIENTED_EDGE ( 'NONE', *, *, #155, .F. ) ;
#231 = PRESENTATION_STYLE_ASSIGNMENT (( #183 ) ) ;
#232 = CIRCLE ( 'NONE', #1, 0.05899594499999999409 ) ;
#233 =( CONVERSION_BASED_UNIT ( 'INCH', #72 ) LENGTH_UNIT ( ) NAMED_UNIT ( #254 ) );
#234 = CONICAL_SURFACE ( 'NONE', #293, 0.1031100000000002570, 0.7853981633974318477 ) ;
#235 = CIRCLE ( 'NONE', #166, 0.1181100000000000066 ) ;
#236 = CONICAL_SURFACE ( 'NONE', #92, 0.05899594499999999409, 0.1745329251994339192 ) ;
#237 = CARTESIAN_POINT ( 'NONE',  ( 0.1181100000000000066, 1.446430334472939084E-17, 2.244094000000000033 ) ) ;
#238 = DIRECTION ( 'NONE',  ( -1.224646799147353207E-16, -0.0000000000000000000, -1.000000000000000000 ) ) ;
#239 = ADVANCED_FACE ( 'NONE', ( #283 ), #236, .T. ) ;
#240 = FACE_OUTER_BOUND ( 'NONE', #285, .T. ) ;
#241 = AXIS2_PLACEMENT_3D ( 'NONE', #66, #124, #143 ) ;
#242 = CARTESIAN_POINT ( 'NONE',  ( 0.1181100000000000066, 1.446430334472939084E-17, 2.229093999999999465 ) ) ;
#243 = LINE ( 'NONE', #122, #249 ) ;
#244 = CARTESIAN_POINT ( 'NONE',  ( 0.0000000000000000000, 0.0000000000000000000, 2.244094000000000033 ) ) ;
#245 = EDGE_CURVE ( 'NONE', #164, #192, #250, .T. ) ;
#246 = ORIENTED_EDGE ( 'NONE', *, *, #257, .T. ) ;
#247 = ORIENTED_EDGE ( 'NONE', *, *, #220, .F. ) ;
#248 = CARTESIAN_POINT ( 'NONE',  ( -0.1181100000000000066, 0.0000000000000000000, 2.229093999999999465 ) ) ;
#249 = VECTOR ( 'NONE', #223, 39.37007874015748143 ) ;
#250 = CIRCLE ( 'NONE', #287, 0.1181100000000000066 ) ;
#251 = EDGE_LOOP ( 'NONE', ( #230, #10, #58, #162 ) ) ;
#252 = CARTESIAN_POINT ( 'NONE',  ( 7.962818391712061992E-17, 0.0000000000000000000, 0.6502134654053794982 ) ) ;
#253 = ORIENTED_EDGE ( 'NONE', *, *, #141, .T. ) ;
#254 = DIMENSIONAL_EXPONENTS ( 1.000000000000000000, 0.0000000000000000000, 0.0000000000000000000, 0.0000000000000000000, 0.0000000000000000000, 0.0000000000000000000, 0.0000000000000000000 ) ;
#255 = COLOUR_RGB ( '',0.7921568627450980005, 0.8196078431372548767, 0.9333333333333333481 ) ;
#256 = EDGE_LOOP ( 'NONE', ( #278, #94 ) ) ;
#257 = EDGE_CURVE ( 'NONE', #169, #99, #95, .T. ) ;
#258 = ORIENTED_EDGE ( 'NONE', *, *, #42, .F. ) ;
#259 = LINE ( 'NONE', #237, #176 ) ;
#260 = AXIS2_PLACEMENT_3D ( 'NONE', #268, #270, #221 ) ;
#261 = VERTEX_POINT ( 'NONE', #13 ) ;
#262 = COLOUR_RGB ( '',0.7921568627450980005, 0.8196078431372548767, 0.9333333333333333481 ) ;
#263 = CARTESIAN_POINT ( 'NONE',  ( -0.1031100000000002570, 0.0000000000000000000, 2.244094000000000033 ) ) ;
#264 = ADVANCED_FACE ( 'NONE', ( #104 ), #195, .T. ) ;
#265 = ORIENTED_EDGE ( 'NONE', *, *, #6, .T. ) ;
#266 = CARTESIAN_POINT ( 'NONE',  ( -0.05899594499999995245, 7.224919520692329689E-18, 0.3149609999999999910 ) ) ;
#267 = MANIFOLD_SOLID_BREP ( 'Cut-Revolve1', #297 ) ;
#268 = CARTESIAN_POINT ( 'NONE',  ( 0.0000000000000000000, 0.0000000000000000000, 2.244094000000000033 ) ) ;
#269 = DIRECTION ( 'NONE',  ( -1.224646799147353207E-16, -0.0000000000000000000, -1.000000000000000000 ) ) ;
#270 = DIRECTION ( 'NONE',  ( -0.0000000000000000000, -0.0000000000000000000, -1.000000000000000000 ) ) ;
#271 = VERTEX_POINT ( 'NONE', #182 ) ;
#272 = FACE_OUTER_BOUND ( 'NONE', #256, .T. ) ;
#273 = ORIENTED_EDGE ( 'NONE', *, *, #83, .F. ) ;
#274 = DIRECTION ( 'NONE',  ( 0.0000000000000000000, 0.0000000000000000000, 1.000000000000000000 ) ) ;
#275 =( NAMED_UNIT ( * ) PLANE_ANGLE_UNIT ( ) SI_UNIT ( $, .RADIAN. ) );
#276 = EDGE_CURVE ( 'NONE', #271, #261, #47, .T. ) ;
#277 = AXIS2_PLACEMENT_3D ( 'NONE', #136, #2, #157 ) ;
#278 = ORIENTED_EDGE ( 'NONE', *, *, #184, .T. ) ;
#279 = DIRECTION ( 'NONE',  ( -1.000000000000000000, 0.0000000000000000000, 0.0000000000000000000 ) ) ;
#280 = ORIENTED_EDGE ( 'NONE', *, *, #276, .F. ) ;
#281 = LINE ( 'NONE', #76, #50 ) ;
#282 = CIRCLE ( 'NONE', #70, 0.1181100000000000066 ) ;
#283 = FACE_OUTER_BOUND ( 'NONE', #251, .T. ) ;
#284 = UNCERTAINTY_MEASURE_WITH_UNIT (LENGTH_MEASURE( 1.000000000000000082E-05 ), #129, 'distance_accuracy_value', 'NONE');
#285 = EDGE_LOOP ( 'NONE', ( #79, #253, #63, #137 ) ) ;
#286 = CARTESIAN_POINT ( 'NONE',  ( -0.05899594499999999409, 0.0000000000000000000, 7.224919520692329689E-18 ) ) ;
#287 = AXIS2_PLACEMENT_3D ( 'NONE', #82, #44, #67 ) ;
#288 = VERTEX_POINT ( 'NONE', #111 ) ;
#289 = FACE_OUTER_BOUND ( 'NONE', #71, .T. ) ;
#290 = FACE_OUTER_BOUND ( 'NONE', #200, .T. ) ;
#291 = DIRECTION ( 'NONE',  ( 0.0000000000000000000, 0.0000000000000000000, -1.000000000000000000 ) ) ;
#292 = SURFACE_SIDE_STYLE ('',( #296 ) ) ;
#293 = AXIS2_PLACEMENT_3D ( 'NONE', #28, #4, #140 ) ;
#294 = AXIS2_PLACEMENT_3D ( 'NONE', #59, #80, #36 ) ;
#295 = PRESENTATION_STYLE_ASSIGNMENT (( #178 ) ) ;
#296 = SURFACE_STYLE_FILL_AREA ( #127 ) ;
#297 = CLOSED_SHELL ( 'NONE', ( #264, #173, #187, #93, #114, #199, #115, #239, #62, #206 ) ) ;
#298 = STYLED_ITEM ( 'NONE', ( #231 ), #267 ) ;
#299 =( LENGTH_UNIT ( ) NAMED_UNIT ( * ) SI_UNIT ( $, .METRE. ) );
ENDSEC;
END-ISO-10303-21;
