ISO-10303-21;
HEADER;
FILE_DESCRIPTION (( 'STEP AP214' ),
    '1' );
FILE_NAME ('Micro_EMS-218-3.STEP',
    '2021-09-01T17:47:34',
    ( '' ),
    ( '' ),
    'SwSTEP 2.0',
    'SolidWorks 2020',
    '' );
FILE_SCHEMA (( 'AUTOMOTIVE_DESIGN' ));
ENDSEC;

DATA;
#1 = EDGE_CURVE ( 'NONE', #235, #96, #281, .T. ) ;
#2 = VERTEX_POINT ( 'NONE', #37 ) ;
#3 = AXIS2_PLACEMENT_3D ( 'NONE', #128, #9, #152 ) ;
#4 = PRODUCT ( 'Micro_EMS-218-3', 'Micro_EMS-218-3', '', ( #35 ) ) ;
#5 = CARTESIAN_POINT ( 'NONE',  ( 0.0000000000000000000, 0.0000000000000000000, 2.500000000000000000 ) ) ;
#6 = VERTEX_POINT ( 'NONE', #239 ) ;
#7 = VERTEX_POINT ( 'NONE', #222 ) ;
#8 = LENGTH_MEASURE_WITH_UNIT ( LENGTH_MEASURE( 0.02539999999999999897 ), #196 );
#9 = DIRECTION ( 'NONE',  ( -1.224646799147353207E-16, -0.0000000000000000000, -1.000000000000000000 ) ) ;
#10 = CARTESIAN_POINT ( 'NONE',  ( -0.1100000000000001948, 0.0000000000000000000, 2.500000000000000000 ) ) ;
#11 = AXIS2_PLACEMENT_3D ( 'NONE', #72, #103, #289 ) ;
#12 = DIRECTION ( 'NONE',  ( -1.000000000000000000, 0.0000000000000000000, 1.224646799147353207E-16 ) ) ;
#13 = CARTESIAN_POINT ( 'NONE',  ( 8.748579329396911086E-17, 0.0000000000000000000, 0.7143757151439918962 ) ) ;
#14 = ADVANCED_FACE ( 'NONE', ( #242 ), #180, .T. ) ;
#15 = CARTESIAN_POINT ( 'NONE',  ( 0.1092406500000000502, 0.0000000000000000000, 0.6250000000000000000 ) ) ;
#16 = DIRECTION ( 'NONE',  ( -1.000000000000000000, 0.0000000000000000000, 0.0000000000000000000 ) ) ;
#17 = DIRECTION ( 'NONE',  ( 0.7071067811865499042, 8.659560562354961208E-17, -0.7071067811865451302 ) ) ;
#18 = DIRECTION ( 'NONE',  ( -0.0000000000000000000, -0.0000000000000000000, -1.000000000000000000 ) ) ;
#19 = ADVANCED_FACE ( 'NONE', ( #155 ), #106, .T. ) ;
#20 = CARTESIAN_POINT ( 'NONE',  ( 7.654042494670957853E-17, 0.0000000000000000000, 0.6250000000000000000 ) ) ;
#21 = PRESENTATION_LAYER_ASSIGNMENT (  '', '', ( #202 ) ) ;
#22 = PRODUCT_RELATED_PRODUCT_CATEGORY ( 'part', '', ( #4 ) ) ;
#23 = ORIENTED_EDGE ( 'NONE', *, *, #1, .F. ) ;
#24 = EDGE_LOOP ( 'NONE', ( #285, #99, #77, #192 ) ) ;
#25 = AXIS2_PLACEMENT_3D ( 'NONE', #116, #136, #66 ) ;
#26 = SURFACE_SIDE_STYLE ('',( #178 ) ) ;
#27 = VERTEX_POINT ( 'NONE', #40 ) ;
#28 = ORIENTED_EDGE ( 'NONE', *, *, #36, .T. ) ;
#29 = ADVANCED_FACE ( 'NONE', ( #149 ), #246, .T. ) ;
#30 = EDGE_CURVE ( 'NONE', #258, #27, #131, .T. ) ;
#31 = VECTOR ( 'NONE', #84, 39.37007874015748143 ) ;
#32 = AXIS2_PLACEMENT_3D ( 'NONE', #68, #228, #44 ) ;
#33 = DIRECTION ( 'NONE',  ( -1.224646799147353207E-16, -0.0000000000000000000, -1.000000000000000000 ) ) ;
#34 = DIRECTION ( 'NONE',  ( 1.224646799147353207E-16, 0.0000000000000000000, 1.000000000000000000 ) ) ;
#35 = PRODUCT_CONTEXT ( 'NONE', #262, 'mechanical' ) ;
#36 = EDGE_CURVE ( 'NONE', #215, #213, #59, .T. ) ;
#37 = CARTESIAN_POINT ( 'NONE',  ( 0.1092406499999999947, 1.337812123592763100E-17, 0.0000000000000000000 ) ) ;
#38 = AXIS2_PLACEMENT_3D ( 'NONE', #42, #184, #92 ) ;
#39 = DIRECTION ( 'NONE',  ( -1.000000000000000000, 0.0000000000000000000, 0.0000000000000000000 ) ) ;
#40 = CARTESIAN_POINT ( 'NONE',  ( -0.1250000000000000000, 0.0000000000000000000, 2.485000000000000320 ) ) ;
#41 = DIRECTION ( 'NONE',  ( 1.000000000000000000, 0.0000000000000000000, 0.0000000000000000000 ) ) ;
#42 = CARTESIAN_POINT ( 'NONE',  ( 0.0000000000000000000, 0.0000000000000000000, 2.500000000000000000 ) ) ;
#43 = COLOUR_RGB ( '',0.7921568627450980005, 0.8196078431372548767, 0.9333333333333333481 ) ;
#44 = DIRECTION ( 'NONE',  ( 1.000000000000000000, 0.0000000000000000000, 0.0000000000000000000 ) ) ;
#45 = UNCERTAINTY_MEASURE_WITH_UNIT (LENGTH_MEASURE( 1.000000000000000082E-05 ), #151, 'distance_accuracy_value', 'NONE');
#46 = CIRCLE ( 'NONE', #233, 0.1100000000000001948 ) ;
#47 = EDGE_CURVE ( 'NONE', #213, #2, #201, .T. ) ;
#48 = ORIENTED_EDGE ( 'NONE', *, *, #93, .F. ) ;
#49 = EDGE_LOOP ( 'NONE', ( #48, #217, #28, #75 ) ) ;
#50 = EDGE_LOOP ( 'NONE', ( #211, #123, #283, #194 ) ) ;
#51 = EDGE_CURVE ( 'NONE', #7, #235, #126, .T. ) ;
#52 = ORIENTED_EDGE ( 'NONE', *, *, #252, .T. ) ;
#53 = EDGE_LOOP ( 'NONE', ( #190, #141, #260, #73 ) ) ;
#54 = CARTESIAN_POINT ( 'NONE',  ( 0.1092406499999999947, 1.337812123592763100E-17, -1.337812123592763100E-17 ) ) ;
#55 =( NAMED_UNIT ( * ) SI_UNIT ( $, .STERADIAN. ) SOLID_ANGLE_UNIT ( ) );
#56 = DIRECTION ( 'NONE',  ( -0.0000000000000000000, -0.0000000000000000000, -1.000000000000000000 ) ) ;
#57 = LENGTH_MEASURE_WITH_UNIT ( LENGTH_MEASURE( 0.02539999999999999897 ), #257 );
#58 = ADVANCED_FACE ( 'NONE', ( #108 ), #200, .T. ) ;
#59 = LINE ( 'NONE', #263, #82 ) ;
#60 = CARTESIAN_POINT ( 'NONE',  ( -0.1249999999999999167, 0.0000000000000000000, 0.7143757151439918962 ) ) ;
#61 =( GEOMETRIC_REPRESENTATION_CONTEXT ( 3 ) GLOBAL_UNCERTAINTY_ASSIGNED_CONTEXT ( ( #91 ) ) GLOBAL_UNIT_ASSIGNED_CONTEXT ( ( #250, #115, #298 ) ) REPRESENTATION_CONTEXT ( 'NONE', 'WORKASPACE' ) );
#62 = DIRECTION ( 'NONE',  ( 1.000000000000000000, 0.0000000000000000000, 0.0000000000000000000 ) ) ;
#63 = CARTESIAN_POINT ( 'NONE',  ( 0.1100000000000001948, 1.347111479062090784E-17, 2.500000000000000000 ) ) ;
#64 = DIRECTION ( 'NONE',  ( 1.000000000000000000, 0.0000000000000000000, 0.0000000000000000000 ) ) ;
#65 = EDGE_CURVE ( 'NONE', #96, #235, #70, .T. ) ;
#66 = DIRECTION ( 'NONE',  ( -1.000000000000000000, 0.0000000000000000000, 0.0000000000000000000 ) ) ;
#67 = CONICAL_SURFACE ( 'NONE', #186, 0.1100000000000001948, 0.7853981633974517207 ) ;
#68 = CARTESIAN_POINT ( 'NONE',  ( 0.0000000000000000000, 0.0000000000000000000, 2.485000000000000320 ) ) ;
#69 = SURFACE_SIDE_STYLE ('',( #165 ) ) ;
#70 = CIRCLE ( 'NONE', #237, 0.1250000000000000000 ) ;
#71 = AXIS2_PLACEMENT_3D ( 'NONE', #5, #284, #95 ) ;
#72 = CARTESIAN_POINT ( 'NONE',  ( 0.0000000000000000000, 0.0000000000000000000, 0.0000000000000000000 ) ) ;
#73 = ORIENTED_EDGE ( 'NONE', *, *, #36, .F. ) ;
#74 = DIRECTION ( 'NONE',  ( -1.000000000000000000, 0.0000000000000000000, 1.224646799147353207E-16 ) ) ;
#75 = ORIENTED_EDGE ( 'NONE', *, *, #274, .F. ) ;
#76 = ADVANCED_FACE ( 'NONE', ( #102 ), #219, .F. ) ;
#77 = ORIENTED_EDGE ( 'NONE', *, *, #252, .F. ) ;
#78 = EDGE_LOOP ( 'NONE', ( #121, #144, #174, #94 ) ) ;
#79 = EDGE_LOOP ( 'NONE', ( #118, #119, #98, #23 ) ) ;
#80 = PRODUCT_DEFINITION ( 'UNKNOWN', '', #169, #296 ) ;
#81 = DIRECTION ( 'NONE',  ( 1.000000000000000000, 0.0000000000000000000, 0.0000000000000000000 ) ) ;
#82 = VECTOR ( 'NONE', #218, 39.37007874015748143 ) ;
#83 = CARTESIAN_POINT ( 'NONE',  ( 0.0000000000000000000, 0.0000000000000000000, 0.0000000000000000000 ) ) ;
#84 = DIRECTION ( 'NONE',  ( -0.7071067811865499042, 0.0000000000000000000, -0.7071067811865451302 ) ) ;
#85 = CARTESIAN_POINT ( 'NONE',  ( 0.0000000000000000000, 0.0000000000000000000, 0.0000000000000000000 ) ) ;
#86 = CARTESIAN_POINT ( 'NONE',  ( 7.654042494670957853E-17, 0.0000000000000000000, 0.6250000000000000000 ) ) ;
#87 = LINE ( 'NONE', #253, #247 ) ;
#88 = PRESENTATION_STYLE_ASSIGNMENT (( #299 ) ) ;
#89 = DIMENSIONAL_EXPONENTS ( 1.000000000000000000, 0.0000000000000000000, 0.0000000000000000000, 0.0000000000000000000, 0.0000000000000000000, 0.0000000000000000000, 0.0000000000000000000 ) ;
#90 = AXIS2_PLACEMENT_3D ( 'NONE', #83, #179, #229 ) ;
#91 = UNCERTAINTY_MEASURE_WITH_UNIT (LENGTH_MEASURE( 1.000000000000000082E-05 ), #250, 'distance_accuracy_value', 'NONE');
#92 = DIRECTION ( 'NONE',  ( -1.000000000000000000, 0.0000000000000000000, 0.0000000000000000000 ) ) ;
#93 = EDGE_CURVE ( 'NONE', #7, #2, #294, .T. ) ;
#94 = ORIENTED_EDGE ( 'NONE', *, *, #1, .T. ) ;
#95 = DIRECTION ( 'NONE',  ( 1.000000000000000000, 0.0000000000000000000, 0.0000000000000000000 ) ) ;
#96 = VERTEX_POINT ( 'NONE', #60 ) ;
#97 = ADVANCED_FACE ( 'NONE', ( #195 ), #230, .T. ) ;
#98 = ORIENTED_EDGE ( 'NONE', *, *, #160, .T. ) ;
#99 = ORIENTED_EDGE ( 'NONE', *, *, #134, .T. ) ;
#100 = EDGE_CURVE ( 'NONE', #215, #96, #181, .T. ) ;
#101 = ORIENTED_EDGE ( 'NONE', *, *, #148, .F. ) ;
#102 = FACE_OUTER_BOUND ( 'NONE', #171, .T. ) ;
#103 = DIRECTION ( 'NONE',  ( 0.0000000000000000000, 0.0000000000000000000, 1.000000000000000000 ) ) ;
#104 = LINE ( 'NONE', #266, #290 ) ;
#105 = AXIS2_PLACEMENT_3D ( 'NONE', #20, #255, #249 ) ;
#106 = CYLINDRICAL_SURFACE ( 'NONE', #167, 0.1250000000000000000 ) ;
#107 = DIRECTION ( 'NONE',  ( 1.000000000000000000, 0.0000000000000000000, 0.0000000000000000000 ) ) ;
#108 = FACE_OUTER_BOUND ( 'NONE', #53, .T. ) ;
#109 = AXIS2_PLACEMENT_3D ( 'NONE', #85, #269, #125 ) ;
#110 = AXIS2_PLACEMENT_3D ( 'NONE', #111, #203, #64 ) ;
#111 = CARTESIAN_POINT ( 'NONE',  ( 0.0000000000000000000, 0.0000000000000000000, 2.485000000000000320 ) ) ;
#112 = CARTESIAN_POINT ( 'NONE',  ( 0.0000000000000000000, 0.0000000000000000000, 2.500000000000000000 ) ) ;
#113 = EDGE_CURVE ( 'NONE', #6, #235, #104, .T. ) ;
#114 =( LENGTH_UNIT ( ) NAMED_UNIT ( * ) SI_UNIT ( $, .METRE. ) );
#115 =( NAMED_UNIT ( * ) PLANE_ANGLE_UNIT ( ) SI_UNIT ( $, .RADIAN. ) );
#116 = CARTESIAN_POINT ( 'NONE',  ( 0.0000000000000000000, 0.0000000000000000000, 2.500000000000000000 ) ) ;
#117 = PRESENTATION_STYLE_ASSIGNMENT (( #212 ) ) ;
#118 = ORIENTED_EDGE ( 'NONE', *, *, #113, .F. ) ;
#119 = ORIENTED_EDGE ( 'NONE', *, *, #148, .T. ) ;
#120 = CIRCLE ( 'NONE', #32, 0.1250000000000000000 ) ;
#121 = ORIENTED_EDGE ( 'NONE', *, *, #100, .F. ) ;
#122 = ORIENTED_EDGE ( 'NONE', *, *, #280, .T. ) ;
#123 = ORIENTED_EDGE ( 'NONE', *, *, #100, .T. ) ;
#124 =( GEOMETRIC_REPRESENTATION_CONTEXT ( 3 ) GLOBAL_UNCERTAINTY_ASSIGNED_CONTEXT ( ( #45 ) ) GLOBAL_UNIT_ASSIGNED_CONTEXT ( ( #151, #168, #55 ) ) REPRESENTATION_CONTEXT ( 'NONE', 'WORKASPACE' ) );
#125 = DIRECTION ( 'NONE',  ( 1.000000000000000000, 0.0000000000000000000, -0.0000000000000000000 ) ) ;
#126 = LINE ( 'NONE', #15, #205 ) ;
#127 = APPLICATION_PROTOCOL_DEFINITION ( 'draft international standard', 'automotive_design', 1998, #143 ) ;
#128 = CARTESIAN_POINT ( 'NONE',  ( 8.748579329396911086E-17, 0.0000000000000000000, 0.7143757151439918962 ) ) ;
#129 = CIRCLE ( 'NONE', #277, 0.1092406499999999947 ) ;
#130 = DIRECTION ( 'NONE',  ( -1.224646799147353207E-16, -0.0000000000000000000, -1.000000000000000000 ) ) ;
#131 = LINE ( 'NONE', #10, #31 ) ;
#132 = ADVANCED_FACE ( 'NONE', ( #291 ), #268, .T. ) ;
#133 = CYLINDRICAL_SURFACE ( 'NONE', #38, 0.1250000000000000000 ) ;
#134 = EDGE_CURVE ( 'NONE', #232, #6, #273, .T. ) ;
#135 = CARTESIAN_POINT ( 'NONE',  ( 0.1250000000000000833, 1.530808498934192433E-17, 0.7143757151439918962 ) ) ;
#136 = DIRECTION ( 'NONE',  ( 0.0000000000000000000, 0.0000000000000000000, -1.000000000000000000 ) ) ;
#137 = UNCERTAINTY_MEASURE_WITH_UNIT (LENGTH_MEASURE( 1.000000000000000082E-05 ), #264, 'distance_accuracy_value', 'NONE');
#138 = CARTESIAN_POINT ( 'NONE',  ( -0.1092406499999999253, 1.434310311263477304E-17, 0.6250000000000000000 ) ) ;
#139 = VECTOR ( 'NONE', #17, 39.37007874015748143 ) ;
#140 = EDGE_CURVE ( 'NONE', #232, #258, #46, .T. ) ;
#141 = ORIENTED_EDGE ( 'NONE', *, *, #93, .T. ) ;
#142 = ORIENTED_EDGE ( 'NONE', *, *, #113, .T. ) ;
#143 = APPLICATION_CONTEXT ( 'automotive_design' ) ;
#144 = ORIENTED_EDGE ( 'NONE', *, *, #214, .F. ) ;
#145 = CIRCLE ( 'NONE', #193, 0.1092406499999999947 ) ;
#146 = ORIENTED_EDGE ( 'NONE', *, *, #65, .F. ) ;
#147 = ORIENTED_EDGE ( 'NONE', *, *, #280, .F. ) ;
#148 = EDGE_CURVE ( 'NONE', #6, #27, #120, .T. ) ;
#149 = FACE_OUTER_BOUND ( 'NONE', #78, .T. ) ;
#150 = STYLED_ITEM ( 'NONE', ( #117 ), #272 ) ;
#151 =( CONVERSION_BASED_UNIT ( 'INCH', #8 ) LENGTH_UNIT ( ) NAMED_UNIT ( #159 ) );
#152 = DIRECTION ( 'NONE',  ( 1.000000000000000000, 0.0000000000000000000, 0.0000000000000000000 ) ) ;
#153 = CARTESIAN_POINT ( 'NONE',  ( 0.0000000000000000000, 0.0000000000000000000, 2.500000000000000000 ) ) ;
#154 = CLOSED_SHELL ( 'NONE', ( #58, #97, #166, #19, #216, #14, #223, #29, #132, #76 ) ) ;
#155 = FACE_OUTER_BOUND ( 'NONE', #172, .T. ) ;
#156 = AXIS2_PLACEMENT_3D ( 'NONE', #86, #34, #62 ) ;
#157 = MECHANICAL_DESIGN_GEOMETRIC_PRESENTATION_REPRESENTATION (  '', ( #202 ), #61 ) ;
#158 = CARTESIAN_POINT ( 'NONE',  ( 1.638347335018400726E-33, 0.0000000000000000000, 1.337812123592763100E-17 ) ) ;
#159 = DIMENSIONAL_EXPONENTS ( 1.000000000000000000, 0.0000000000000000000, 0.0000000000000000000, 0.0000000000000000000, 0.0000000000000000000, 0.0000000000000000000, 0.0000000000000000000 ) ;
#160 = EDGE_CURVE ( 'NONE', #27, #96, #87, .T. ) ;
#161 = CARTESIAN_POINT ( 'NONE',  ( -0.1092406499999999947, 0.0000000000000000000, 2.675624247185526200E-17 ) ) ;
#162 = CARTESIAN_POINT ( 'NONE',  ( -0.1100000000000001948, 0.0000000000000000000, 2.500000000000000000 ) ) ;
#163 = AXIS2_PLACEMENT_3D ( 'NONE', #158, #130, #292 ) ;
#164 = FILL_AREA_STYLE ('',( #254 ) ) ;
#165 = SURFACE_STYLE_FILL_AREA ( #164 ) ;
#166 = ADVANCED_FACE ( 'NONE', ( #276 ), #67, .T. ) ;
#167 = AXIS2_PLACEMENT_3D ( 'NONE', #270, #198, #39 ) ;
#168 =( NAMED_UNIT ( * ) PLANE_ANGLE_UNIT ( ) SI_UNIT ( $, .RADIAN. ) );
#169 = PRODUCT_DEFINITION_FORMATION_WITH_SPECIFIED_SOURCE ( 'ANY', '', #4, .NOT_KNOWN. ) ;
#170 = MANIFOLD_SOLID_BREP ( 'Cut-Revolve1', #154 ) ;
#171 = EDGE_LOOP ( 'NONE', ( #261, #175 ) ) ;
#172 = EDGE_LOOP ( 'NONE', ( #52, #142, #146, #287 ) ) ;
#173 = ORIENTED_EDGE ( 'NONE', *, *, #140, .T. ) ;
#174 = ORIENTED_EDGE ( 'NONE', *, *, #51, .T. ) ;
#175 = ORIENTED_EDGE ( 'NONE', *, *, #274, .T. ) ;
#176 =( NAMED_UNIT ( * ) SI_UNIT ( $, .STERADIAN. ) SOLID_ANGLE_UNIT ( ) );
#177 = DIRECTION ( 'NONE',  ( -0.1736481776669311639, 2.126576849575782392E-17, 0.9848077530122080203 ) ) ;
#178 = SURFACE_STYLE_FILL_AREA ( #267 ) ;
#179 = DIRECTION ( 'NONE',  ( -1.224646799147353207E-16, -0.0000000000000000000, -1.000000000000000000 ) ) ;
#180 = PLANE ( 'NONE',  #256 ) ;
#181 = LINE ( 'NONE', #199, #265 ) ;
#182 = COLOUR_RGB ( '',0.7921568627450980005, 0.8196078431372548767, 0.9333333333333333481 ) ;
#183 = DIRECTION ( 'NONE',  ( 0.0000000000000000000, 0.0000000000000000000, -1.000000000000000000 ) ) ;
#184 = DIRECTION ( 'NONE',  ( -0.0000000000000000000, -0.0000000000000000000, -1.000000000000000000 ) ) ;
#185 = DIRECTION ( 'NONE',  ( -1.224646799147353207E-16, -0.0000000000000000000, -1.000000000000000000 ) ) ;
#186 = AXIS2_PLACEMENT_3D ( 'NONE', #112, #183, #207 ) ;
#187 = DIRECTION ( 'NONE',  ( 0.0000000000000000000, 0.0000000000000000000, 1.000000000000000000 ) ) ;
#188 = PRESENTATION_LAYER_ASSIGNMENT (  '', '', ( #150 ) ) ;
#189 = EDGE_LOOP ( 'NONE', ( #191, #147, #286, #101 ) ) ;
#190 = ORIENTED_EDGE ( 'NONE', *, *, #241, .T. ) ;
#191 = ORIENTED_EDGE ( 'NONE', *, *, #134, .F. ) ;
#192 = ORIENTED_EDGE ( 'NONE', *, *, #30, .F. ) ;
#193 = AXIS2_PLACEMENT_3D ( 'NONE', #295, #185, #74 ) ;
#194 = ORIENTED_EDGE ( 'NONE', *, *, #51, .F. ) ;
#195 = FACE_OUTER_BOUND ( 'NONE', #50, .T. ) ;
#196 =( LENGTH_UNIT ( ) NAMED_UNIT ( * ) SI_UNIT ( $, .METRE. ) );
#197 = DIRECTION ( 'NONE',  ( -1.224646799147353207E-16, -0.0000000000000000000, -1.000000000000000000 ) ) ;
#198 = DIRECTION ( 'NONE',  ( -0.0000000000000000000, -0.0000000000000000000, -1.000000000000000000 ) ) ;
#199 = CARTESIAN_POINT ( 'NONE',  ( -0.1092406499999999253, 1.337812123592763100E-17, 0.6250000000000000000 ) ) ;
#200 = CYLINDRICAL_SURFACE ( 'NONE', #238, 0.1092406499999999947 ) ;
#201 = CIRCLE ( 'NONE', #163, 0.1092406499999999947 ) ;
#202 = STYLED_ITEM ( 'NONE', ( #88 ), #170 ) ;
#203 = DIRECTION ( 'NONE',  ( 0.0000000000000000000, 0.0000000000000000000, -1.000000000000000000 ) ) ;
#204 = CARTESIAN_POINT ( 'NONE',  ( 7.654042494670957853E-17, 0.0000000000000000000, 0.6250000000000000000 ) ) ;
#205 = VECTOR ( 'NONE', #244, 39.37007874015748143 ) ;
#206 = MECHANICAL_DESIGN_GEOMETRIC_PRESENTATION_REPRESENTATION (  '', ( #150 ), #124 ) ;
#207 = DIRECTION ( 'NONE',  ( -1.000000000000000000, 0.0000000000000000000, 0.0000000000000000000 ) ) ;
#208 = DIRECTION ( 'NONE',  ( -1.224646799147353207E-16, -0.0000000000000000000, -1.000000000000000000 ) ) ;
#209 =( GEOMETRIC_REPRESENTATION_CONTEXT ( 3 ) GLOBAL_UNCERTAINTY_ASSIGNED_CONTEXT ( ( #137 ) ) GLOBAL_UNIT_ASSIGNED_CONTEXT ( ( #264, #282, #176 ) ) REPRESENTATION_CONTEXT ( 'NONE', 'WORKASPACE' ) );
#210 = PRODUCT_DEFINITION_SHAPE ( 'NONE', 'NONE',  #80 ) ;
#211 = ORIENTED_EDGE ( 'NONE', *, *, #241, .F. ) ;
#212 = SURFACE_STYLE_USAGE ( .BOTH. , #26 ) ;
#213 = VERTEX_POINT ( 'NONE', #161 ) ;
#214 = EDGE_CURVE ( 'NONE', #7, #215, #227, .T. ) ;
#215 = VERTEX_POINT ( 'NONE', #138 ) ;
#216 = ADVANCED_FACE ( 'NONE', ( #231 ), #133, .T. ) ;
#217 = ORIENTED_EDGE ( 'NONE', *, *, #214, .T. ) ;
#218 = DIRECTION ( 'NONE',  ( -1.224646799147353207E-16, -0.0000000000000000000, -1.000000000000000000 ) ) ;
#219 = PLANE ( 'NONE',  #109 ) ;
#220 = SHAPE_DEFINITION_REPRESENTATION ( #210, #272 ) ;
#221 = DIRECTION ( 'NONE',  ( -1.224646799147353207E-16, -0.0000000000000000000, -1.000000000000000000 ) ) ;
#222 = CARTESIAN_POINT ( 'NONE',  ( 0.1092406500000000502, 0.0000000000000000000, 0.6250000000000000000 ) ) ;
#223 = ADVANCED_FACE ( 'NONE', ( #225 ), #240, .T. ) ;
#224 = DIRECTION ( 'NONE',  ( 0.0000000000000000000, 0.0000000000000000000, 1.000000000000000000 ) ) ;
#225 = FACE_OUTER_BOUND ( 'NONE', #189, .T. ) ;
#226 = VECTOR ( 'NONE', #33, 39.37007874015748143 ) ;
#227 = CIRCLE ( 'NONE', #105, 0.1092406499999999947 ) ;
#228 = DIRECTION ( 'NONE',  ( 0.0000000000000000000, 0.0000000000000000000, -1.000000000000000000 ) ) ;
#229 = DIRECTION ( 'NONE',  ( -1.000000000000000000, 0.0000000000000000000, 1.224646799147353207E-16 ) ) ;
#230 = CONICAL_SURFACE ( 'NONE', #259, 0.1092406499999999947, 0.1745329251994338360 ) ;
#231 = FACE_OUTER_BOUND ( 'NONE', #79, .T. ) ;
#232 = VERTEX_POINT ( 'NONE', #278 ) ;
#233 = AXIS2_PLACEMENT_3D ( 'NONE', #297, #187, #41 ) ;
#234 = FILL_AREA_STYLE_COLOUR ( '', #182 ) ;
#235 = VERTEX_POINT ( 'NONE', #135 ) ;
#236 = EDGE_LOOP ( 'NONE', ( #122, #173 ) ) ;
#237 = AXIS2_PLACEMENT_3D ( 'NONE', #13, #197, #107 ) ;
#238 = AXIS2_PLACEMENT_3D ( 'NONE', #248, #221, #12 ) ;
#239 = CARTESIAN_POINT ( 'NONE',  ( 0.1250000000000000000, 1.530808498934191509E-17, 2.485000000000000320 ) ) ;
#240 = CONICAL_SURFACE ( 'NONE', #25, 0.1100000000000001948, 0.7853981633974517207 ) ;
#241 = EDGE_CURVE ( 'NONE', #215, #7, #129, .T. ) ;
#242 = FACE_OUTER_BOUND ( 'NONE', #236, .T. ) ;
#243 = APPLICATION_PROTOCOL_DEFINITION ( 'draft international standard', 'automotive_design', 1998, #262 ) ;
#244 = DIRECTION ( 'NONE',  ( 0.1736481776669313304, 0.0000000000000000000, 0.9848077530122077983 ) ) ;
#245 = CARTESIAN_POINT ( 'NONE',  ( 7.654042494670957853E-17, 0.0000000000000000000, 0.6250000000000000000 ) ) ;
#246 = CONICAL_SURFACE ( 'NONE', #156, 0.1092406499999999947, 0.1745329251994338360 ) ;
#247 = VECTOR ( 'NONE', #18, 39.37007874015748143 ) ;
#248 = CARTESIAN_POINT ( 'NONE',  ( 0.0000000000000000000, 0.0000000000000000000, 0.0000000000000000000 ) ) ;
#249 = DIRECTION ( 'NONE',  ( -1.000000000000000000, 0.0000000000000000000, 0.0000000000000000000 ) ) ;
#250 =( CONVERSION_BASED_UNIT ( 'INCH', #275 ) LENGTH_UNIT ( ) NAMED_UNIT ( #279 ) );
#251 = CIRCLE ( 'NONE', #71, 0.1100000000000001948 ) ;
#252 = EDGE_CURVE ( 'NONE', #27, #6, #271, .T. ) ;
#253 = CARTESIAN_POINT ( 'NONE',  ( -0.1250000000000000000, 0.0000000000000000000, 2.500000000000000000 ) ) ;
#254 = FILL_AREA_STYLE_COLOUR ( '', #43 ) ;
#255 = DIRECTION ( 'NONE',  ( -1.224646799147353207E-16, -0.0000000000000000000, -1.000000000000000000 ) ) ;
#256 = AXIS2_PLACEMENT_3D ( 'NONE', #153, #224, #293 ) ;
#257 =( LENGTH_UNIT ( ) NAMED_UNIT ( * ) SI_UNIT ( $, .METRE. ) );
#258 = VERTEX_POINT ( 'NONE', #162 ) ;
#259 = AXIS2_PLACEMENT_3D ( 'NONE', #245, #288, #81 ) ;
#260 = ORIENTED_EDGE ( 'NONE', *, *, #47, .F. ) ;
#261 = ORIENTED_EDGE ( 'NONE', *, *, #47, .T. ) ;
#262 = APPLICATION_CONTEXT ( 'automotive_design' ) ;
#263 = CARTESIAN_POINT ( 'NONE',  ( -0.1092406499999999947, 0.0000000000000000000, 1.337812123592763100E-17 ) ) ;
#264 =( CONVERSION_BASED_UNIT ( 'INCH', #57 ) LENGTH_UNIT ( ) NAMED_UNIT ( #89 ) );
#265 = VECTOR ( 'NONE', #177, 39.37007874015747433 ) ;
#266 = CARTESIAN_POINT ( 'NONE',  ( 0.1250000000000000000, 1.530808498934191509E-17, 2.500000000000000000 ) ) ;
#267 = FILL_AREA_STYLE ('',( #234 ) ) ;
#268 = CYLINDRICAL_SURFACE ( 'NONE', #90, 0.1092406499999999947 ) ;
#269 = DIRECTION ( 'NONE',  ( 0.0000000000000000000, 0.0000000000000000000, 1.000000000000000000 ) ) ;
#270 = CARTESIAN_POINT ( 'NONE',  ( 0.0000000000000000000, 0.0000000000000000000, 2.500000000000000000 ) ) ;
#271 = CIRCLE ( 'NONE', #110, 0.1250000000000000000 ) ;
#272 = ADVANCED_BREP_SHAPE_REPRESENTATION ( 'Micro_EMS-218-3', ( #170, #11 ), #209 ) ;
#273 = LINE ( 'NONE', #63, #139 ) ;
#274 = EDGE_CURVE ( 'NONE', #2, #213, #145, .T. ) ;
#275 = LENGTH_MEASURE_WITH_UNIT ( LENGTH_MEASURE( 0.02539999999999999897 ), #114 );
#276 = FACE_OUTER_BOUND ( 'NONE', #24, .T. ) ;
#277 = AXIS2_PLACEMENT_3D ( 'NONE', #204, #208, #16 ) ;
#278 = CARTESIAN_POINT ( 'NONE',  ( 0.1100000000000001948, 1.438959988998141146E-17, 2.500000000000000000 ) ) ;
#279 = DIMENSIONAL_EXPONENTS ( 1.000000000000000000, 0.0000000000000000000, 0.0000000000000000000, 0.0000000000000000000, 0.0000000000000000000, 0.0000000000000000000, 0.0000000000000000000 ) ;
#280 = EDGE_CURVE ( 'NONE', #258, #232, #251, .T. ) ;
#281 = CIRCLE ( 'NONE', #3, 0.1250000000000000000 ) ;
#282 =( NAMED_UNIT ( * ) PLANE_ANGLE_UNIT ( ) SI_UNIT ( $, .RADIAN. ) );
#283 = ORIENTED_EDGE ( 'NONE', *, *, #65, .T. ) ;
#284 = DIRECTION ( 'NONE',  ( 0.0000000000000000000, 0.0000000000000000000, 1.000000000000000000 ) ) ;
#285 = ORIENTED_EDGE ( 'NONE', *, *, #140, .F. ) ;
#286 = ORIENTED_EDGE ( 'NONE', *, *, #30, .T. ) ;
#287 = ORIENTED_EDGE ( 'NONE', *, *, #160, .F. ) ;
#288 = DIRECTION ( 'NONE',  ( 1.224646799147353207E-16, 0.0000000000000000000, 1.000000000000000000 ) ) ;
#289 = DIRECTION ( 'NONE',  ( 1.000000000000000000, 0.0000000000000000000, 0.0000000000000000000 ) ) ;
#290 = VECTOR ( 'NONE', #56, 39.37007874015748143 ) ;
#291 = FACE_OUTER_BOUND ( 'NONE', #49, .T. ) ;
#292 = DIRECTION ( 'NONE',  ( -1.000000000000000000, 0.0000000000000000000, 1.224646799147353207E-16 ) ) ;
#293 = DIRECTION ( 'NONE',  ( 1.000000000000000000, 0.0000000000000000000, -0.0000000000000000000 ) ) ;
#294 = LINE ( 'NONE', #54, #226 ) ;
#295 = CARTESIAN_POINT ( 'NONE',  ( 1.638347335018400726E-33, 0.0000000000000000000, 1.337812123592763100E-17 ) ) ;
#296 = PRODUCT_DEFINITION_CONTEXT ( 'detailed design', #143, 'design' ) ;
#297 = CARTESIAN_POINT ( 'NONE',  ( 0.0000000000000000000, 0.0000000000000000000, 2.500000000000000000 ) ) ;
#298 =( NAMED_UNIT ( * ) SI_UNIT ( $, .STERADIAN. ) SOLID_ANGLE_UNIT ( ) );
#299 = SURFACE_STYLE_USAGE ( .BOTH. , #69 ) ;
ENDSEC;
END-ISO-10303-21;
