ISO-10303-21;
HEADER;
FILE_DESCRIPTION (( 'STEP AP214' ),
    '1' );
FILE_NAME ('Micro_GEC-093-2-010X.STEP',
    '2021-09-03T17:05:02',
    ( '' ),
    ( '' ),
    'SwSTEP 2.0',
    'SolidWorks 2020',
    '' );
FILE_SCHEMA (( 'AUTOMOTIVE_DESIGN' ));
ENDSEC;

DATA;
#1 = EDGE_CURVE ( 'NONE', #314, #235, #159, .T. ) ;
#2 = CIRCLE ( 'NONE', #216, 0.06250000000000002776 ) ;
#3 = ORIENTED_EDGE ( 'NONE', *, *, #101, .F. ) ;
#4 = CIRCLE ( 'NONE', #57, 0.04750000000000064587 ) ;
#5 = EDGE_LOOP ( 'NONE', ( #225, #78, #91, #299 ) ) ;
#6 = FACE_OUTER_BOUND ( 'NONE', #67, .T. ) ;
#7 = ORIENTED_EDGE ( 'NONE', *, *, #293, .T. ) ;
#8 = CIRCLE ( 'NONE', #160, 0.06250000000000002776 ) ;
#9 = CARTESIAN_POINT ( 'NONE',  ( 5.679152322418704750E-17, 0.0000000000000000000, 0.4637379795033760299 ) ) ;
#10 = UNCERTAINTY_MEASURE_WITH_UNIT (LENGTH_MEASURE( 1.000000000000000082E-05 ), #325, 'distance_accuracy_value', 'NONE');
#11 = EDGE_LOOP ( 'NONE', ( #93, #342, #105, #284 ) ) ;
#12 = CARTESIAN_POINT ( 'NONE',  ( 4.592425496802576684E-17, 0.0000000000000000000, 0.3750000000000000555 ) ) ;
#13 = PRESENTATION_LAYER_ASSIGNMENT (  '', '', ( #200 ) ) ;
#14 = VERTEX_POINT ( 'NONE', #222 ) ;
#15 = DIRECTION ( 'NONE',  ( -1.000000000000000000, 0.0000000000000000000, 1.224646799147353700E-16 ) ) ;
#16 = DIRECTION ( 'NONE',  ( 1.000000000000000000, 0.0000000000000000000, 0.0000000000000000000 ) ) ;
#17 = CARTESIAN_POINT ( 'NONE',  ( 0.04685310000000000169, 5.737849894513085128E-18, -5.737849894513087439E-18 ) ) ;
#18 = FACE_OUTER_BOUND ( 'NONE', #145, .T. ) ;
#19 = EDGE_CURVE ( 'NONE', #231, #107, #116, .T. ) ;
#20 =( NAMED_UNIT ( * ) PLANE_ANGLE_UNIT ( ) SI_UNIT ( $, .RADIAN. ) );
#21 = DIRECTION ( 'NONE',  ( 0.0000000000000000000, 0.0000000000000000000, -1.000000000000000000 ) ) ;
#22 = TOROIDAL_SURFACE ( 'NONE', #132, 0.03685309999999999975, 0.01000000000000000021 ) ;
#23 = FILL_AREA_STYLE ('',( #287 ) ) ;
#24 = DIRECTION ( 'NONE',  ( 1.000000000000000000, 0.0000000000000000000, 0.0000000000000000000 ) ) ;
#25 = AXIS2_PLACEMENT_3D ( 'NONE', #263, #220, #302 ) ;
#26 = AXIS2_PLACEMENT_3D ( 'NONE', #232, #154, #261 ) ;
#27 = ORIENTED_EDGE ( 'NONE', *, *, #192, .T. ) ;
#28 = CLOSED_SHELL ( 'NONE', ( #170, #77, #230, #144, #64, #244, #238, #179, #171, #255, #189, #72 ) ) ;
#29 = ORIENTED_EDGE ( 'NONE', *, *, #205, .F. ) ;
#30 = VECTOR ( 'NONE', #83, 39.37007874015748854 ) ;
#31 = CYLINDRICAL_SURFACE ( 'NONE', #69, 0.04685310000000000169 ) ;
#32 = CARTESIAN_POINT ( 'NONE',  ( 4.592425496802576684E-17, 0.0000000000000000000, 0.3750000000000000555 ) ) ;
#33 = ORIENTED_EDGE ( 'NONE', *, *, #219, .F. ) ;
#34 = DIRECTION ( 'NONE',  ( -1.000000000000000000, 0.0000000000000000000, 1.224646799147353700E-16 ) ) ;
#35 = AXIS2_PLACEMENT_3D ( 'NONE', #133, #60, #198 ) ;
#36 =( GEOMETRIC_REPRESENTATION_CONTEXT ( 3 ) GLOBAL_UNCERTAINTY_ASSIGNED_CONTEXT ( ( #10 ) ) GLOBAL_UNIT_ASSIGNED_CONTEXT ( ( #325, #120, #243 ) ) REPRESENTATION_CONTEXT ( 'NONE', 'WORKASPACE' ) );
#37 = DIRECTION ( 'NONE',  ( -1.224646799147353700E-16, -0.0000000000000000000, -1.000000000000000000 ) ) ;
#38 = CARTESIAN_POINT ( 'NONE',  ( 0.0000000000000000000, 0.0000000000000000000, 1.500000000000000222 ) ) ;
#39 = EDGE_LOOP ( 'NONE', ( #279, #142, #275, #334 ) ) ;
#40 = CARTESIAN_POINT ( 'NONE',  ( -0.04685310000000000169, 0.0000000000000000000, 0.01000000000000000194 ) ) ;
#41 = LINE ( 'NONE', #183, #195 ) ;
#42 = ORIENTED_EDGE ( 'NONE', *, *, #88, .F. ) ;
#43 = FACE_OUTER_BOUND ( 'NONE', #5, .T. ) ;
#44 = CARTESIAN_POINT ( 'NONE',  ( 1.224646799147353962E-18, 0.0000000000000000000, 0.01000000000000000194 ) ) ;
#45 = LINE ( 'NONE', #185, #211 ) ;
#46 = FACE_OUTER_BOUND ( 'NONE', #39, .T. ) ;
#47 = CIRCLE ( 'NONE', #323, 0.03685309999999999975 ) ;
#48 = CARTESIAN_POINT ( 'NONE',  ( 0.0000000000000000000, 0.0000000000000000000, 1.485000000000000764 ) ) ;
#49 = ORIENTED_EDGE ( 'NONE', *, *, #61, .T. ) ;
#50 = CARTESIAN_POINT ( 'NONE',  ( -0.03685309999999999975, 5.125526494939408339E-18, 0.0000000000000000000 ) ) ;
#51 = VERTEX_POINT ( 'NONE', #84 ) ;
#52 = DIRECTION ( 'NONE',  ( 1.000000000000000000, 0.0000000000000000000, 0.0000000000000000000 ) ) ;
#53 = EDGE_CURVE ( 'NONE', #107, #231, #233, .T. ) ;
#54 = EDGE_LOOP ( 'NONE', ( #330, #49 ) ) ;
#55 = LINE ( 'NONE', #221, #85 ) ;
#56 = VERTEX_POINT ( 'NONE', #50 ) ;
#57 = AXIS2_PLACEMENT_3D ( 'NONE', #96, #240, #210 ) ;
#58 = PRESENTATION_STYLE_ASSIGNMENT (( #278 ) ) ;
#59 = ORIENTED_EDGE ( 'NONE', *, *, #1, .F. ) ;
#60 = DIRECTION ( 'NONE',  ( -0.0000000000000000000, -0.0000000000000000000, -1.000000000000000000 ) ) ;
#61 = EDGE_CURVE ( 'NONE', #56, #288, #47, .T. ) ;
#62 = LENGTH_MEASURE_WITH_UNIT ( LENGTH_MEASURE( 0.02539999999999999897 ), #331 );
#63 = VECTOR ( 'NONE', #71, 39.37007874015748143 ) ;
#64 = ADVANCED_FACE ( 'NONE', ( #253 ), #229, .T. ) ;
#65 = CARTESIAN_POINT ( 'NONE',  ( 0.0000000000000000000, 0.0000000000000000000, 0.0000000000000000000 ) ) ;
#66 = DIRECTION ( 'NONE',  ( -1.224646799147353700E-16, -0.0000000000000000000, -1.000000000000000000 ) ) ;
#67 = EDGE_LOOP ( 'NONE', ( #297, #167, #42, #33 ) ) ;
#68 = FACE_OUTER_BOUND ( 'NONE', #246, .T. ) ;
#69 = AXIS2_PLACEMENT_3D ( 'NONE', #65, #303, #34 ) ;
#70 = CARTESIAN_POINT ( 'NONE',  ( -0.03685309999999999975, 4.513203095365732321E-18, 0.01000000000000000021 ) ) ;
#71 = DIRECTION ( 'NONE',  ( -1.224646799147353700E-16, -0.0000000000000000000, -1.000000000000000000 ) ) ;
#72 = ADVANCED_FACE ( 'NONE', ( #336 ), #131, .T. ) ;
#73 = DIRECTION ( 'NONE',  ( -1.224646799147353700E-16, -0.0000000000000000000, -1.000000000000000000 ) ) ;
#74 = AXIS2_PLACEMENT_3D ( 'NONE', #100, #115, #15 ) ;
#75 = DIRECTION ( 'NONE',  ( 1.000000000000000000, 0.0000000000000000000, 0.0000000000000000000 ) ) ;
#76 = MANIFOLD_SOLID_BREP ( 'Fillet1', #28 ) ;
#77 = ADVANCED_FACE ( 'NONE', ( #137 ), #31, .T. ) ;
#78 = ORIENTED_EDGE ( 'NONE', *, *, #19, .T. ) ;
#79 = DIMENSIONAL_EXPONENTS ( 1.000000000000000000, 0.0000000000000000000, 0.0000000000000000000, 0.0000000000000000000, 0.0000000000000000000, 0.0000000000000000000, 0.0000000000000000000 ) ;
#80 = PRODUCT_DEFINITION ( 'UNKNOWN', '', #178, #311 ) ;
#81 = SURFACE_SIDE_STYLE ('',( #114 ) ) ;
#82 = EDGE_LOOP ( 'NONE', ( #249, #158, #203, #312 ) ) ;
#83 = DIRECTION ( 'NONE',  ( -0.7071067811865462405, 0.0000000000000000000, -0.7071067811865486830 ) ) ;
#84 = CARTESIAN_POINT ( 'NONE',  ( 0.06250000000000008327, 7.654042494670966789E-18, 0.4637379795033760299 ) ) ;
#85 = VECTOR ( 'NONE', #87, 39.37007874015748143 ) ;
#86 = DIRECTION ( 'NONE',  ( 1.000000000000000000, 0.0000000000000000000, 0.0000000000000000000 ) ) ;
#87 = DIRECTION ( 'NONE',  ( -0.0000000000000000000, -0.0000000000000000000, -1.000000000000000000 ) ) ;
#88 = EDGE_CURVE ( 'NONE', #245, #176, #111, .T. ) ;
#89 = FACE_OUTER_BOUND ( 'NONE', #162, .T. ) ;
#90 = CONICAL_SURFACE ( 'NONE', #324, 0.04685310000000000863, 0.1745329251994338637 ) ;
#91 = ORIENTED_EDGE ( 'NONE', *, *, #209, .T. ) ;
#92 = CARTESIAN_POINT ( 'NONE',  ( -0.04685309999999996700, 5.737849894513086668E-18, 0.3750000000000000555 ) ) ;
#93 = ORIENTED_EDGE ( 'NONE', *, *, #226, .F. ) ;
#94 = DIRECTION ( 'NONE',  ( 1.000000000000000000, 0.0000000000000000000, 0.0000000000000000000 ) ) ;
#95 = CARTESIAN_POINT ( 'NONE',  ( 0.0000000000000000000, 0.0000000000000000000, 1.485000000000000764 ) ) ;
#96 = CARTESIAN_POINT ( 'NONE',  ( 0.0000000000000000000, 0.0000000000000000000, 1.500000000000000222 ) ) ;
#97 = AXIS2_PLACEMENT_3D ( 'NONE', #70, #242, #264 ) ;
#98 = DIRECTION ( 'NONE',  ( 1.000000000000000000, 0.0000000000000000000, -0.0000000000000000000 ) ) ;
#99 =( LENGTH_UNIT ( ) NAMED_UNIT ( * ) SI_UNIT ( $, .METRE. ) );
#100 = CARTESIAN_POINT ( 'NONE',  ( 0.0000000000000000000, 0.0000000000000000000, 0.0000000000000000000 ) ) ;
#101 = EDGE_CURVE ( 'NONE', #314, #271, #283, .T. ) ;
#102 = CARTESIAN_POINT ( 'NONE',  ( 1.224646799147353770E-18, 0.0000000000000000000, 0.0000000000000000000 ) ) ;
#103 = AXIS2_PLACEMENT_3D ( 'NONE', #343, #66, #94 ) ;
#104 = AXIS2_PLACEMENT_3D ( 'NONE', #204, #175, #98 ) ;
#105 = ORIENTED_EDGE ( 'NONE', *, *, #219, .T. ) ;
#106 = DIRECTION ( 'NONE',  ( 0.0000000000000000000, 0.0000000000000000000, 1.000000000000000000 ) ) ;
#107 = VERTEX_POINT ( 'NONE', #173 ) ;
#108 =( NAMED_UNIT ( * ) SI_UNIT ( $, .STERADIAN. ) SOLID_ANGLE_UNIT ( ) );
#109 = DIRECTION ( 'NONE',  ( -1.224646799147353700E-16, -0.0000000000000000000, -1.000000000000000000 ) ) ;
#110 = CARTESIAN_POINT ( 'NONE',  ( 1.224646799147353962E-18, 0.0000000000000000000, 0.01000000000000000194 ) ) ;
#111 = CIRCLE ( 'NONE', #241, 0.04685310000000000169 ) ;
#112 = FACE_OUTER_BOUND ( 'NONE', #304, .T. ) ;
#113 = EDGE_CURVE ( 'NONE', #130, #51, #273, .T. ) ;
#114 = SURFACE_STYLE_FILL_AREA ( #281 ) ;
#115 = DIRECTION ( 'NONE',  ( -1.224646799147353700E-16, -0.0000000000000000000, -1.000000000000000000 ) ) ;
#116 = CIRCLE ( 'NONE', #217, 0.04685310000000000863 ) ;
#117 = CIRCLE ( 'NONE', #97, 0.01000000000000000021 ) ;
#118 = ORIENTED_EDGE ( 'NONE', *, *, #205, .T. ) ;
#119 = CARTESIAN_POINT ( 'NONE',  ( 1.224646799147353770E-18, 0.0000000000000000000, 0.0000000000000000000 ) ) ;
#120 =( NAMED_UNIT ( * ) PLANE_ANGLE_UNIT ( ) SI_UNIT ( $, .RADIAN. ) );
#121 = FACE_OUTER_BOUND ( 'NONE', #54, .T. ) ;
#122 = DIRECTION ( 'NONE',  ( -0.0000000000000000000, -0.0000000000000000000, -1.000000000000000000 ) ) ;
#123 = CARTESIAN_POINT ( 'NONE',  ( 0.04750000000000064587, 5.817072295950006528E-18, 1.500000000000000222 ) ) ;
#124 = AXIS2_PLACEMENT_3D ( 'NONE', #212, #236, #350 ) ;
#125 = PLANE ( 'NONE',  #104 ) ;
#126 = CARTESIAN_POINT ( 'NONE',  ( -0.04750000000000064587, 0.0000000000000000000, 1.500000000000000222 ) ) ;
#127 = ORIENTED_EDGE ( 'NONE', *, *, #128, .T. ) ;
#128 = EDGE_CURVE ( 'NONE', #14, #51, #55, .T. ) ;
#129 = PRODUCT_DEFINITION_SHAPE ( 'NONE', 'NONE',  #80 ) ;
#130 = VERTEX_POINT ( 'NONE', #138 ) ;
#131 = TOROIDAL_SURFACE ( 'NONE', #300, 0.03685309999999999975, 0.01000000000000000021 ) ;
#132 = AXIS2_PLACEMENT_3D ( 'NONE', #224, #333, #196 ) ;
#133 = CARTESIAN_POINT ( 'NONE',  ( 0.0000000000000000000, 0.0000000000000000000, 1.500000000000000222 ) ) ;
#134 = ORIENTED_EDGE ( 'NONE', *, *, #327, .F. ) ;
#135 = DIRECTION ( 'NONE',  ( 0.0000000000000000000, 0.0000000000000000000, 1.000000000000000000 ) ) ;
#136 = EDGE_LOOP ( 'NONE', ( #191, #201 ) ) ;
#137 = FACE_OUTER_BOUND ( 'NONE', #82, .T. ) ;
#138 = CARTESIAN_POINT ( 'NONE',  ( -0.06249999999999996531, 0.0000000000000000000, 0.4637379795033760299 ) ) ;
#139 = CONICAL_SURFACE ( 'NONE', #252, 0.04750000000000064587, 0.7853981633974466137 ) ;
#140 = DIRECTION ( 'NONE',  ( -1.000000000000000000, 0.0000000000000000000, 0.0000000000000000000 ) ) ;
#141 = DIMENSIONAL_EXPONENTS ( 1.000000000000000000, 0.0000000000000000000, 0.0000000000000000000, 0.0000000000000000000, 0.0000000000000000000, 0.0000000000000000000, 0.0000000000000000000 ) ;
#142 = ORIENTED_EDGE ( 'NONE', *, *, #223, .T. ) ;
#143 = CARTESIAN_POINT ( 'NONE',  ( 0.03685309999999999975, 0.0000000000000000000, 0.01000000000000000021 ) ) ;
#144 = ADVANCED_FACE ( 'NONE', ( #112 ), #139, .T. ) ;
#145 = EDGE_LOOP ( 'NONE', ( #257, #7, #118, #186 ) ) ;
#146 = DIRECTION ( 'NONE',  ( 1.000000000000000000, 0.0000000000000000000, -0.0000000000000000000 ) ) ;
#147 = LENGTH_MEASURE_WITH_UNIT ( LENGTH_MEASURE( 0.02539999999999999897 ), #155 );
#148 = MECHANICAL_DESIGN_GEOMETRIC_PRESENTATION_REPRESENTATION (  '', ( #290 ), #36 ) ;
#149 = ORIENTED_EDGE ( 'NONE', *, *, #113, .F. ) ;
#150 = LINE ( 'NONE', #341, #63 ) ;
#151 = DIRECTION ( 'NONE',  ( 0.7071067811865462405, 8.659560562354916834E-17, -0.7071067811865486830 ) ) ;
#152 = DIRECTION ( 'NONE',  ( 0.0000000000000000000, -1.000000000000000000, 0.0000000000000000000 ) ) ;
#153 = ADVANCED_BREP_SHAPE_REPRESENTATION ( 'Micro_GEC-093-2-010X', ( #76, #282 ), #248 ) ;
#154 = DIRECTION ( 'NONE',  ( 0.0000000000000000000, 0.0000000000000000000, -1.000000000000000000 ) ) ;
#155 =( LENGTH_UNIT ( ) NAMED_UNIT ( * ) SI_UNIT ( $, .METRE. ) );
#156 = CIRCLE ( 'NONE', #103, 0.06250000000000002776 ) ;
#157 = PRODUCT_CONTEXT ( 'NONE', #259, 'mechanical' ) ;
#158 = ORIENTED_EDGE ( 'NONE', *, *, #274, .T. ) ;
#159 = CIRCLE ( 'NONE', #25, 0.04750000000000064587 ) ;
#160 = AXIS2_PLACEMENT_3D ( 'NONE', #95, #321, #291 ) ;
#161 = ORIENTED_EDGE ( 'NONE', *, *, #286, .T. ) ;
#162 = EDGE_LOOP ( 'NONE', ( #174, #277, #190, #161 ) ) ;
#163 = AXIS2_PLACEMENT_3D ( 'NONE', #119, #122, #202 ) ;
#164 = CARTESIAN_POINT ( 'NONE',  ( 0.0000000000000000000, 0.0000000000000000000, 1.500000000000000222 ) ) ;
#165 = DIRECTION ( 'NONE',  ( -1.000000000000000000, 0.0000000000000000000, 0.0000000000000000000 ) ) ;
#166 = DIRECTION ( 'NONE',  ( 1.000000000000000000, 0.0000000000000000000, 0.0000000000000000000 ) ) ;
#167 = ORIENTED_EDGE ( 'NONE', *, *, #226, .T. ) ;
#168 = PRODUCT_RELATED_PRODUCT_CATEGORY ( 'part', '', ( #337 ) ) ;
#169 = CARTESIAN_POINT ( 'NONE',  ( 1.224646799147353770E-18, 0.0000000000000000000, 0.01000000000000000021 ) ) ;
#170 = ADVANCED_FACE ( 'NONE', ( #6 ), #22, .T. ) ;
#171 = ADVANCED_FACE ( 'NONE', ( #89 ), #296, .T. ) ;
#172 = AXIS2_PLACEMENT_3D ( 'NONE', #9, #37, #250 ) ;
#173 = CARTESIAN_POINT ( 'NONE',  ( -0.04685309999999996700, 6.695946194592023262E-18, 0.3750000000000000555 ) ) ;
#174 = ORIENTED_EDGE ( 'NONE', *, *, #223, .F. ) ;
#175 = DIRECTION ( 'NONE',  ( 0.0000000000000000000, 0.0000000000000000000, 1.000000000000000000 ) ) ;
#176 = VERTEX_POINT ( 'NONE', #40 ) ;
#177 = DIRECTION ( 'NONE',  ( 1.224646799147353700E-16, 0.0000000000000000000, 1.000000000000000000 ) ) ;
#178 = PRODUCT_DEFINITION_FORMATION_WITH_SPECIFIED_SOURCE ( 'ANY', '', #337, .NOT_KNOWN. ) ;
#179 = ADVANCED_FACE ( 'NONE', ( #68 ), #181, .T. ) ;
#180 = APPLICATION_PROTOCOL_DEFINITION ( 'draft international standard', 'automotive_design', 1998, #259 ) ;
#181 = CONICAL_SURFACE ( 'NONE', #26, 0.04750000000000064587, 0.7853981633974466137 ) ;
#182 = DIRECTION ( 'NONE',  ( 0.0000000000000000000, 0.0000000000000000000, 1.000000000000000000 ) ) ;
#183 = CARTESIAN_POINT ( 'NONE',  ( 0.04685310000000005026, 0.0000000000000000000, 0.3750000000000000555 ) ) ;
#184 = LINE ( 'NONE', #92, #218 ) ;
#185 = CARTESIAN_POINT ( 'NONE',  ( -0.06250000000000002776, 0.0000000000000000000, 1.500000000000000222 ) ) ;
#186 = ORIENTED_EDGE ( 'NONE', *, *, #286, .F. ) ;
#187 =( CONVERSION_BASED_UNIT ( 'INCH', #147 ) LENGTH_UNIT ( ) NAMED_UNIT ( #141 ) );
#188 = DIRECTION ( 'NONE',  ( -0.0000000000000000000, -0.0000000000000000000, -1.000000000000000000 ) ) ;
#189 = ADVANCED_FACE ( 'NONE', ( #121 ), #125, .F. ) ;
#190 = ORIENTED_EDGE ( 'NONE', *, *, #326, .T. ) ;
#191 = ORIENTED_EDGE ( 'NONE', *, *, #1, .T. ) ;
#192 = EDGE_CURVE ( 'NONE', #271, #14, #8, .T. ) ;
#193 =( NAMED_UNIT ( * ) PLANE_ANGLE_UNIT ( ) SI_UNIT ( $, .RADIAN. ) );
#194 = DIRECTION ( 'NONE',  ( -1.224646799147353700E-16, -0.0000000000000000000, -1.000000000000000000 ) ) ;
#195 = VECTOR ( 'NONE', #270, 39.37007874015748143 ) ;
#196 = DIRECTION ( 'NONE',  ( 1.000000000000000000, 0.0000000000000000000, 0.0000000000000000000 ) ) ;
#197 = DIRECTION ( 'NONE',  ( -1.000000000000000000, 0.0000000000000000000, 0.0000000000000000000 ) ) ;
#198 = DIRECTION ( 'NONE',  ( -1.000000000000000000, 0.0000000000000000000, 0.0000000000000000000 ) ) ;
#199 = CARTESIAN_POINT ( 'NONE',  ( -0.04750000000000064587, 0.0000000000000000000, 1.500000000000000222 ) ) ;
#200 = STYLED_ITEM ( 'NONE', ( #58 ), #76 ) ;
#201 = ORIENTED_EDGE ( 'NONE', *, *, #327, .T. ) ;
#202 = DIRECTION ( 'NONE',  ( 1.000000000000000000, 0.0000000000000000000, 0.0000000000000000000 ) ) ;
#203 = ORIENTED_EDGE ( 'NONE', *, *, #88, .T. ) ;
#204 = CARTESIAN_POINT ( 'NONE',  ( 0.0000000000000000000, 0.0000000000000000000, 0.0000000000000000000 ) ) ;
#205 = EDGE_CURVE ( 'NONE', #271, #130, #45, .T. ) ;
#206 = APPLICATION_PROTOCOL_DEFINITION ( 'draft international standard', 'automotive_design', 1998, #276 ) ;
#207 = CYLINDRICAL_SURFACE ( 'NONE', #124, 0.06250000000000002776 ) ;
#208 = AXIS2_PLACEMENT_3D ( 'NONE', #32, #109, #197 ) ;
#209 = EDGE_CURVE ( 'NONE', #107, #176, #150, .T. ) ;
#210 = DIRECTION ( 'NONE',  ( 1.000000000000000000, 0.0000000000000000000, 0.0000000000000000000 ) ) ;
#211 = VECTOR ( 'NONE', #316, 39.37007874015748143 ) ;
#212 = CARTESIAN_POINT ( 'NONE',  ( 0.0000000000000000000, 0.0000000000000000000, 1.500000000000000222 ) ) ;
#213 = SURFACE_STYLE_FILL_AREA ( #23 ) ;
#214 = CARTESIAN_POINT ( 'NONE',  ( 4.592425496802576684E-17, 0.0000000000000000000, 0.3750000000000000555 ) ) ;
#215 = MECHANICAL_DESIGN_GEOMETRIC_PRESENTATION_REPRESENTATION (  '', ( #200 ), #347 ) ;
#216 = AXIS2_PLACEMENT_3D ( 'NONE', #48, #269, #24 ) ;
#217 = AXIS2_PLACEMENT_3D ( 'NONE', #332, #194, #165 ) ;
#218 = VECTOR ( 'NONE', #344, 39.37007874015747433 ) ;
#219 = EDGE_CURVE ( 'NONE', #288, #245, #335, .T. ) ;
#220 = DIRECTION ( 'NONE',  ( 0.0000000000000000000, 0.0000000000000000000, 1.000000000000000000 ) ) ;
#221 = CARTESIAN_POINT ( 'NONE',  ( 0.06250000000000002776, 7.654042494670959086E-18, 1.500000000000000222 ) ) ;
#222 = CARTESIAN_POINT ( 'NONE',  ( 0.06250000000000002776, 7.654042494670959086E-18, 1.485000000000000764 ) ) ;
#223 = EDGE_CURVE ( 'NONE', #107, #130, #184, .T. ) ;
#224 = CARTESIAN_POINT ( 'NONE',  ( 1.224646799147353770E-18, 0.0000000000000000000, 0.01000000000000000021 ) ) ;
#225 = ORIENTED_EDGE ( 'NONE', *, *, #274, .F. ) ;
#226 = EDGE_CURVE ( 'NONE', #56, #176, #117, .T. ) ;
#227 = DIMENSIONAL_EXPONENTS ( 1.000000000000000000, 0.0000000000000000000, 0.0000000000000000000, 0.0000000000000000000, 0.0000000000000000000, 0.0000000000000000000, 0.0000000000000000000 ) ;
#228 = PRESENTATION_LAYER_ASSIGNMENT (  '', '', ( #290 ) ) ;
#229 = CYLINDRICAL_SURFACE ( 'NONE', #35, 0.06250000000000002776 ) ;
#230 = ADVANCED_FACE ( 'NONE', ( #46 ), #90, .T. ) ;
#231 = VERTEX_POINT ( 'NONE', #266 ) ;
#232 = CARTESIAN_POINT ( 'NONE',  ( 0.0000000000000000000, 0.0000000000000000000, 1.500000000000000222 ) ) ;
#233 = CIRCLE ( 'NONE', #208, 0.04685310000000000863 ) ;
#234 = AXIS2_PLACEMENT_3D ( 'NONE', #12, #294, #346 ) ;
#235 = VERTEX_POINT ( 'NONE', #319 ) ;
#236 = DIRECTION ( 'NONE',  ( -0.0000000000000000000, -0.0000000000000000000, -1.000000000000000000 ) ) ;
#237 = CARTESIAN_POINT ( 'NONE',  ( 0.03685309999999999975, 0.0000000000000000000, 0.0000000000000000000 ) ) ;
#238 = ADVANCED_FACE ( 'NONE', ( #239 ), #289, .T. ) ;
#239 = FACE_OUTER_BOUND ( 'NONE', #136, .T. ) ;
#240 = DIRECTION ( 'NONE',  ( 0.0000000000000000000, 0.0000000000000000000, 1.000000000000000000 ) ) ;
#241 = AXIS2_PLACEMENT_3D ( 'NONE', #110, #106, #86 ) ;
#242 = DIRECTION ( 'NONE',  ( 1.224646799147353207E-16, 1.000000000000000000, -0.0000000000000000000 ) ) ;
#243 =( NAMED_UNIT ( * ) SI_UNIT ( $, .STERADIAN. ) SOLID_ANGLE_UNIT ( ) );
#244 = ADVANCED_FACE ( 'NONE', ( #18 ), #207, .T. ) ;
#245 = VERTEX_POINT ( 'NONE', #315 ) ;
#246 = EDGE_LOOP ( 'NONE', ( #340, #59, #272, #328 ) ) ;
#247 = UNCERTAINTY_MEASURE_WITH_UNIT (LENGTH_MEASURE( 1.000000000000000082E-05 ), #187, 'distance_accuracy_value', 'NONE');
#248 =( GEOMETRIC_REPRESENTATION_CONTEXT ( 3 ) GLOBAL_UNCERTAINTY_ASSIGNED_CONTEXT ( ( #247 ) ) GLOBAL_UNIT_ASSIGNED_CONTEXT ( ( #187, #20, #268 ) ) REPRESENTATION_CONTEXT ( 'NONE', 'WORKASPACE' ) );
#249 = ORIENTED_EDGE ( 'NONE', *, *, #53, .T. ) ;
#250 = DIRECTION ( 'NONE',  ( 1.000000000000000000, 0.0000000000000000000, 0.0000000000000000000 ) ) ;
#251 = ORIENTED_EDGE ( 'NONE', *, *, #322, .T. ) ;
#252 = AXIS2_PLACEMENT_3D ( 'NONE', #164, #308, #140 ) ;
#253 = FACE_OUTER_BOUND ( 'NONE', #306, .T. ) ;
#254 =( CONVERSION_BASED_UNIT ( 'INCH', #62 ) LENGTH_UNIT ( ) NAMED_UNIT ( #79 ) );
#255 = ADVANCED_FACE ( 'NONE', ( #43 ), #258, .T. ) ;
#256 = EDGE_CURVE ( 'NONE', #288, #56, #348, .T. ) ;
#257 = ORIENTED_EDGE ( 'NONE', *, *, #128, .F. ) ;
#258 = CYLINDRICAL_SURFACE ( 'NONE', #74, 0.04685310000000000169 ) ;
#259 = APPLICATION_CONTEXT ( 'automotive_design' ) ;
#260 = ORIENTED_EDGE ( 'NONE', *, *, #192, .F. ) ;
#261 = DIRECTION ( 'NONE',  ( -1.000000000000000000, 0.0000000000000000000, 0.0000000000000000000 ) ) ;
#262 = CARTESIAN_POINT ( 'NONE',  ( 0.0000000000000000000, 0.0000000000000000000, 0.0000000000000000000 ) ) ;
#263 = CARTESIAN_POINT ( 'NONE',  ( 0.0000000000000000000, 0.0000000000000000000, 1.500000000000000222 ) ) ;
#264 = DIRECTION ( 'NONE',  ( -1.000000000000000000, 1.224646799147353454E-16, 0.0000000000000000000 ) ) ;
#265 = SURFACE_STYLE_USAGE ( .BOTH. , #320 ) ;
#266 = CARTESIAN_POINT ( 'NONE',  ( 0.04685310000000005026, 0.0000000000000000000, 0.3750000000000000555 ) ) ;
#267 = DIRECTION ( 'NONE',  ( 1.000000000000000000, 0.0000000000000000000, 0.0000000000000000000 ) ) ;
#268 =( NAMED_UNIT ( * ) SI_UNIT ( $, .STERADIAN. ) SOLID_ANGLE_UNIT ( ) );
#269 = DIRECTION ( 'NONE',  ( 0.0000000000000000000, 0.0000000000000000000, -1.000000000000000000 ) ) ;
#270 = DIRECTION ( 'NONE',  ( 0.1736481776669313581, 0.0000000000000000000, 0.9848077530122077983 ) ) ;
#271 = VERTEX_POINT ( 'NONE', #313 ) ;
#272 = ORIENTED_EDGE ( 'NONE', *, *, #101, .T. ) ;
#273 = CIRCLE ( 'NONE', #172, 0.06250000000000002776 ) ;
#274 = EDGE_CURVE ( 'NONE', #231, #245, #285, .T. ) ;
#275 = ORIENTED_EDGE ( 'NONE', *, *, #113, .T. ) ;
#276 = APPLICATION_CONTEXT ( 'automotive_design' ) ;
#277 = ORIENTED_EDGE ( 'NONE', *, *, #19, .F. ) ;
#278 = SURFACE_STYLE_USAGE ( .BOTH. , #81 ) ;
#279 = ORIENTED_EDGE ( 'NONE', *, *, #53, .F. ) ;
#280 = UNCERTAINTY_MEASURE_WITH_UNIT (LENGTH_MEASURE( 1.000000000000000082E-05 ), #254, 'distance_accuracy_value', 'NONE');
#281 = FILL_AREA_STYLE ('',( #307 ) ) ;
#282 = AXIS2_PLACEMENT_3D ( 'NONE', #262, #345, #16 ) ;
#283 = LINE ( 'NONE', #199, #30 ) ;
#284 = ORIENTED_EDGE ( 'NONE', *, *, #338, .F. ) ;
#285 = LINE ( 'NONE', #17, #310 ) ;
#286 = EDGE_CURVE ( 'NONE', #51, #130, #156, .T. ) ;
#287 = FILL_AREA_STYLE_COLOUR ( '', #317 ) ;
#288 = VERTEX_POINT ( 'NONE', #237 ) ;
#289 = PLANE ( 'NONE',  #301 ) ;
#290 = STYLED_ITEM ( 'NONE', ( #318 ), #153 ) ;
#291 = DIRECTION ( 'NONE',  ( 1.000000000000000000, 0.0000000000000000000, 0.0000000000000000000 ) ) ;
#292 = LENGTH_MEASURE_WITH_UNIT ( LENGTH_MEASURE( 0.02539999999999999897 ), #99 );
#293 = EDGE_CURVE ( 'NONE', #14, #271, #2, .T. ) ;
#294 = DIRECTION ( 'NONE',  ( 1.224646799147353700E-16, 0.0000000000000000000, 1.000000000000000000 ) ) ;
#295 = LINE ( 'NONE', #123, #329 ) ;
#296 = CONICAL_SURFACE ( 'NONE', #234, 0.04685310000000000863, 0.1745329251994338637 ) ;
#297 = ORIENTED_EDGE ( 'NONE', *, *, #61, .F. ) ;
#298 = AXIS2_PLACEMENT_3D ( 'NONE', #44, #349, #75 ) ;
#299 = ORIENTED_EDGE ( 'NONE', *, *, #338, .T. ) ;
#300 = AXIS2_PLACEMENT_3D ( 'NONE', #169, #135, #166 ) ;
#301 = AXIS2_PLACEMENT_3D ( 'NONE', #38, #182, #146 ) ;
#302 = DIRECTION ( 'NONE',  ( 1.000000000000000000, 0.0000000000000000000, 0.0000000000000000000 ) ) ;
#303 = DIRECTION ( 'NONE',  ( -1.224646799147353700E-16, -0.0000000000000000000, -1.000000000000000000 ) ) ;
#304 = EDGE_LOOP ( 'NONE', ( #134, #251, #260, #3 ) ) ;
#305 = CIRCLE ( 'NONE', #298, 0.04685310000000000169 ) ;
#306 = EDGE_LOOP ( 'NONE', ( #27, #127, #149, #29 ) ) ;
#307 = FILL_AREA_STYLE_COLOUR ( '', #309 ) ;
#308 = DIRECTION ( 'NONE',  ( 0.0000000000000000000, 0.0000000000000000000, -1.000000000000000000 ) ) ;
#309 = COLOUR_RGB ( '',0.7921568627450980005, 0.8196078431372548767, 0.9333333333333333481 ) ;
#310 = VECTOR ( 'NONE', #73, 39.37007874015748143 ) ;
#311 = PRODUCT_DEFINITION_CONTEXT ( 'detailed design', #276, 'design' ) ;
#312 = ORIENTED_EDGE ( 'NONE', *, *, #209, .F. ) ;
#313 = CARTESIAN_POINT ( 'NONE',  ( -0.06250000000000002776, 0.0000000000000000000, 1.485000000000000764 ) ) ;
#314 = VERTEX_POINT ( 'NONE', #126 ) ;
#315 = CARTESIAN_POINT ( 'NONE',  ( 0.04685310000000000169, 5.737849894513085128E-18, 0.01000000000000000194 ) ) ;
#316 = DIRECTION ( 'NONE',  ( -0.0000000000000000000, -0.0000000000000000000, -1.000000000000000000 ) ) ;
#317 = COLOUR_RGB ( '',0.7921568627450980005, 0.8196078431372548767, 0.9333333333333333481 ) ;
#318 = PRESENTATION_STYLE_ASSIGNMENT (( #265 ) ) ;
#319 = CARTESIAN_POINT ( 'NONE',  ( 0.04750000000000064587, 6.735557395310483192E-18, 1.500000000000000222 ) ) ;
#320 = SURFACE_SIDE_STYLE ('',( #213 ) ) ;
#321 = DIRECTION ( 'NONE',  ( 0.0000000000000000000, 0.0000000000000000000, -1.000000000000000000 ) ) ;
#322 = EDGE_CURVE ( 'NONE', #235, #14, #295, .T. ) ;
#323 = AXIS2_PLACEMENT_3D ( 'NONE', #102, #188, #52 ) ;
#324 = AXIS2_PLACEMENT_3D ( 'NONE', #214, #177, #267 ) ;
#325 =( CONVERSION_BASED_UNIT ( 'INCH', #292 ) LENGTH_UNIT ( ) NAMED_UNIT ( #227 ) );
#326 = EDGE_CURVE ( 'NONE', #231, #51, #41, .T. ) ;
#327 = EDGE_CURVE ( 'NONE', #235, #314, #4, .T. ) ;
#328 = ORIENTED_EDGE ( 'NONE', *, *, #293, .F. ) ;
#329 = VECTOR ( 'NONE', #151, 39.37007874015748854 ) ;
#330 = ORIENTED_EDGE ( 'NONE', *, *, #256, .T. ) ;
#331 =( LENGTH_UNIT ( ) NAMED_UNIT ( * ) SI_UNIT ( $, .METRE. ) );
#332 = CARTESIAN_POINT ( 'NONE',  ( 4.592425496802576684E-17, 0.0000000000000000000, 0.3750000000000000555 ) ) ;
#333 = DIRECTION ( 'NONE',  ( 0.0000000000000000000, 0.0000000000000000000, 1.000000000000000000 ) ) ;
#334 = ORIENTED_EDGE ( 'NONE', *, *, #326, .F. ) ;
#335 = CIRCLE ( 'NONE', #339, 0.01000000000000000021 ) ;
#336 = FACE_OUTER_BOUND ( 'NONE', #11, .T. ) ;
#337 = PRODUCT ( 'Micro_GEC-093-2-010X', 'Micro_GEC-093-2-010X', '', ( #157 ) ) ;
#338 = EDGE_CURVE ( 'NONE', #176, #245, #305, .T. ) ;
#339 = AXIS2_PLACEMENT_3D ( 'NONE', #143, #152, #21 ) ;
#340 = ORIENTED_EDGE ( 'NONE', *, *, #322, .F. ) ;
#341 = CARTESIAN_POINT ( 'NONE',  ( -0.04685310000000000169, 0.0000000000000000000, 5.737849894513087439E-18 ) ) ;
#342 = ORIENTED_EDGE ( 'NONE', *, *, #256, .F. ) ;
#343 = CARTESIAN_POINT ( 'NONE',  ( 5.679152322418704750E-17, 0.0000000000000000000, 0.4637379795033760299 ) ) ;
#344 = DIRECTION ( 'NONE',  ( -0.1736481776669311639, 2.126576849575783008E-17, 0.9848077530122080203 ) ) ;
#345 = DIRECTION ( 'NONE',  ( 0.0000000000000000000, 0.0000000000000000000, 1.000000000000000000 ) ) ;
#346 = DIRECTION ( 'NONE',  ( 1.000000000000000000, 0.0000000000000000000, 0.0000000000000000000 ) ) ;
#347 =( GEOMETRIC_REPRESENTATION_CONTEXT ( 3 ) GLOBAL_UNCERTAINTY_ASSIGNED_CONTEXT ( ( #280 ) ) GLOBAL_UNIT_ASSIGNED_CONTEXT ( ( #254, #193, #108 ) ) REPRESENTATION_CONTEXT ( 'NONE', 'WORKASPACE' ) );
#348 = CIRCLE ( 'NONE', #163, 0.03685309999999999975 ) ;
#349 = DIRECTION ( 'NONE',  ( 0.0000000000000000000, 0.0000000000000000000, 1.000000000000000000 ) ) ;
#350 = DIRECTION ( 'NONE',  ( -1.000000000000000000, 0.0000000000000000000, 0.0000000000000000000 ) ) ;
#351 = SHAPE_DEFINITION_REPRESENTATION ( #129, #153 ) ;
ENDSEC;
END-ISO-10303-21;
