ISO-10303-21;
HEADER;
FILE_DESCRIPTION (( 'STEP AP214' ),
    '1' );
FILE_NAME ('Micro_EMS-375-2.STEP',
    '2021-09-01T17:53:42',
    ( '' ),
    ( '' ),
    'SwSTEP 2.0',
    'SolidWorks 2020',
    '' );
FILE_SCHEMA (( 'AUTOMOTIVE_DESIGN' ));
ENDSEC;

DATA;
#1 = DIRECTION ( 'NONE',  ( 1.000000000000000000, 0.0000000000000000000, -0.0000000000000000000 ) ) ;
#2 = VERTEX_POINT ( 'NONE', #246 ) ;
#3 = EDGE_CURVE ( 'NONE', #195, #149, #202, .T. ) ;
#4 = DIRECTION ( 'NONE',  ( -1.000000000000000000, 0.0000000000000000000, 1.224646799147352961E-16 ) ) ;
#5 = DIRECTION ( 'NONE',  ( 0.0000000000000000000, 0.0000000000000000000, 1.000000000000000000 ) ) ;
#6 = ORIENTED_EDGE ( 'NONE', *, *, #163, .F. ) ;
#7 = VERTEX_POINT ( 'NONE', #198 ) ;
#8 = AXIS2_PLACEMENT_3D ( 'NONE', #173, #29, #260 ) ;
#9 = CARTESIAN_POINT ( 'NONE',  ( 0.0000000000000000000, 0.0000000000000000000, 0.0000000000000000000 ) ) ;
#10 = CARTESIAN_POINT ( 'NONE',  ( -0.1873124999999999096, 2.295064642027087123E-17, 0.8750000000000000000 ) ) ;
#11 = ORIENTED_EDGE ( 'NONE', *, *, #19, .T. ) ;
#12 = PRESENTATION_STYLE_ASSIGNMENT (( #239 ) ) ;
#13 = ORIENTED_EDGE ( 'NONE', *, *, #67, .F. ) ;
#14 = PRESENTATION_LAYER_ASSIGNMENT (  '', '', ( #135 ) ) ;
#15 =( LENGTH_UNIT ( ) NAMED_UNIT ( * ) SI_UNIT ( $, .METRE. ) );
#16 =( NAMED_UNIT ( * ) SI_UNIT ( $, .STERADIAN. ) SOLID_ANGLE_UNIT ( ) );
#17 = VECTOR ( 'NONE', #284, 39.37007874015748854 ) ;
#18 = DIRECTION ( 'NONE',  ( -0.0000000000000000000, -0.0000000000000000000, -1.000000000000000000 ) ) ;
#19 = EDGE_CURVE ( 'NONE', #195, #283, #61, .T. ) ;
#20 = CARTESIAN_POINT ( 'NONE',  ( 0.1873125000000001317, 0.0000000000000000000, 0.8750000000000000000 ) ) ;
#21 = LENGTH_MEASURE_WITH_UNIT ( LENGTH_MEASURE( 0.02539999999999999897 ), #62 );
#22 = DIRECTION ( 'NONE',  ( 0.1736481776669313859, 0.0000000000000000000, 0.9848077530122077983 ) ) ;
#23 = EDGE_LOOP ( 'NONE', ( #240, #123 ) ) ;
#24 = CARTESIAN_POINT ( 'NONE',  ( 0.1724999999999995981, 2.204364238465233357E-17, 2.500000000000000000 ) ) ;
#25 = AXIS2_PLACEMENT_3D ( 'NONE', #33, #107, #37 ) ;
#26 = DIRECTION ( 'NONE',  ( 1.000000000000000000, 0.0000000000000000000, 0.0000000000000000000 ) ) ;
#27 = FACE_OUTER_BOUND ( 'NONE', #161, .T. ) ;
#28 = CIRCLE ( 'NONE', #108, 0.1875000000000000278 ) ;
#29 = DIRECTION ( 'NONE',  ( 1.224646799147353207E-16, 0.0000000000000000000, 1.000000000000000000 ) ) ;
#30 = VERTEX_POINT ( 'NONE', #131 ) ;
#31 = AXIS2_PLACEMENT_3D ( 'NONE', #248, #196, #1 ) ;
#32 = DIMENSIONAL_EXPONENTS ( 1.000000000000000000, 0.0000000000000000000, 0.0000000000000000000, 0.0000000000000000000, 0.0000000000000000000, 0.0000000000000000000, 0.0000000000000000000 ) ;
#33 = CARTESIAN_POINT ( 'NONE',  ( 1.071565949253934025E-16, 0.0000000000000000000, 0.8750000000000000000 ) ) ;
#34 = FILL_AREA_STYLE_COLOUR ( '', #113 ) ;
#35 = CARTESIAN_POINT ( 'NONE',  ( -0.1875000000000000278, 0.0000000000000000000, 2.484999999999999432 ) ) ;
#36 = CONICAL_SURFACE ( 'NONE', #8, 0.1873125000000000207, 0.1745329251994338915 ) ;
#37 = DIRECTION ( 'NONE',  ( -1.000000000000000000, 0.0000000000000000000, 0.0000000000000000000 ) ) ;
#38 = STYLED_ITEM ( 'NONE', ( #12 ), #298 ) ;
#39 = APPLICATION_CONTEXT ( 'automotive_design' ) ;
#40 = PLANE ( 'NONE',  #129 ) ;
#41 = LINE ( 'NONE', #97, #187 ) ;
#42 = CIRCLE ( 'NONE', #228, 0.1873124999999999929 ) ;
#43 = ADVANCED_FACE ( 'NONE', ( #127 ), #219, .T. ) ;
#44 = DIRECTION ( 'NONE',  ( 1.000000000000000000, 0.0000000000000000000, 0.0000000000000000000 ) ) ;
#45 = LINE ( 'NONE', #185, #290 ) ;
#46 = DIRECTION ( 'NONE',  ( -1.000000000000000000, 0.0000000000000000000, 1.224646799147352961E-16 ) ) ;
#47 = VERTEX_POINT ( 'NONE', #35 ) ;
#48 = AXIS2_PLACEMENT_3D ( 'NONE', #265, #76, #79 ) ;
#49 = EDGE_CURVE ( 'NONE', #195, #2, #150, .T. ) ;
#50 = CARTESIAN_POINT ( 'NONE',  ( 0.1724999999999995981, 2.112515728529179297E-17, 2.500000000000000000 ) ) ;
#51 = ORIENTED_EDGE ( 'NONE', *, *, #291, .F. ) ;
#52 = DIRECTION ( 'NONE',  ( 0.0000000000000000000, 0.0000000000000000000, -1.000000000000000000 ) ) ;
#53 = FACE_OUTER_BOUND ( 'NONE', #251, .T. ) ;
#54 = ORIENTED_EDGE ( 'NONE', *, *, #200, .T. ) ;
#55 = ADVANCED_FACE ( 'NONE', ( #275 ), #292, .T. ) ;
#56 = MECHANICAL_DESIGN_GEOMETRIC_PRESENTATION_REPRESENTATION (  '', ( #135 ), #60 ) ;
#57 = EDGE_LOOP ( 'NONE', ( #247, #98, #13, #278 ) ) ;
#58 = UNCERTAINTY_MEASURE_WITH_UNIT (LENGTH_MEASURE( 1.000000000000000082E-05 ), #142, 'distance_accuracy_value', 'NONE');
#59 = CARTESIAN_POINT ( 'NONE',  ( 0.1875000000000000278, 2.296212748401287726E-17, 2.500000000000000000 ) ) ;
#60 =( GEOMETRIC_REPRESENTATION_CONTEXT ( 3 ) GLOBAL_UNCERTAINTY_ASSIGNED_CONTEXT ( ( #105 ) ) GLOBAL_UNIT_ASSIGNED_CONTEXT ( ( #109, #176, #282 ) ) REPRESENTATION_CONTEXT ( 'NONE', 'WORKASPACE' ) );
#61 = LINE ( 'NONE', #272, #80 ) ;
#62 =( LENGTH_UNIT ( ) NAMED_UNIT ( * ) SI_UNIT ( $, .METRE. ) );
#63 = ORIENTED_EDGE ( 'NONE', *, *, #291, .T. ) ;
#64 = CONICAL_SURFACE ( 'NONE', #207, 0.1873125000000000207, 0.1745329251994338915 ) ;
#65 = PRESENTATION_STYLE_ASSIGNMENT (( #221 ) ) ;
#66 = FACE_OUTER_BOUND ( 'NONE', #166, .T. ) ;
#67 = EDGE_CURVE ( 'NONE', #2, #120, #75, .T. ) ;
#68 = CARTESIAN_POINT ( 'NONE',  ( 0.0000000000000000000, 0.0000000000000000000, 2.500000000000000000 ) ) ;
#69 = CARTESIAN_POINT ( 'NONE',  ( 0.0000000000000000000, 0.0000000000000000000, 0.0000000000000000000 ) ) ;
#70 = ORIENTED_EDGE ( 'NONE', *, *, #281, .T. ) ;
#71 = VECTOR ( 'NONE', #106, 39.37007874015747433 ) ;
#72 = DIRECTION ( 'NONE',  ( 1.000000000000000000, 0.0000000000000000000, -0.0000000000000000000 ) ) ;
#73 = CARTESIAN_POINT ( 'NONE',  ( -0.1724999999999995981, 0.0000000000000000000, 2.500000000000000000 ) ) ;
#74 = ADVANCED_FACE ( 'NONE', ( #66 ), #64, .T. ) ;
#75 = CIRCLE ( 'NONE', #95, 0.1875000000000000278 ) ;
#76 = DIRECTION ( 'NONE',  ( -1.224646799147353207E-16, -0.0000000000000000000, -1.000000000000000000 ) ) ;
#77 = ORIENTED_EDGE ( 'NONE', *, *, #99, .F. ) ;
#78 = EDGE_CURVE ( 'NONE', #149, #120, #177, .T. ) ;
#79 = DIRECTION ( 'NONE',  ( -1.000000000000000000, 0.0000000000000000000, 1.224646799147352961E-16 ) ) ;
#80 = VECTOR ( 'NONE', #179, 39.37007874015748143 ) ;
#81 = DIRECTION ( 'NONE',  ( 1.000000000000000000, 0.0000000000000000000, 0.0000000000000000000 ) ) ;
#82 = MANIFOLD_SOLID_BREP ( 'Cut-Revolve1', #140 ) ;
#83 = PRODUCT_RELATED_PRODUCT_CATEGORY ( 'part', '', ( #285 ) ) ;
#84 = DIRECTION ( 'NONE',  ( 1.000000000000000000, 0.0000000000000000000, 0.0000000000000000000 ) ) ;
#85 = AXIS2_PLACEMENT_3D ( 'NONE', #208, #180, #153 ) ;
#86 = SURFACE_SIDE_STYLE ('',( #295 ) ) ;
#87 = ORIENTED_EDGE ( 'NONE', *, *, #286, .F. ) ;
#88 = ADVANCED_FACE ( 'NONE', ( #156 ), #36, .T. ) ;
#89 = DIRECTION ( 'NONE',  ( -1.224646799147353207E-16, -0.0000000000000000000, -1.000000000000000000 ) ) ;
#90 = VECTOR ( 'NONE', #145, 39.37007874015748143 ) ;
#91 = ORIENTED_EDGE ( 'NONE', *, *, #158, .T. ) ;
#92 = FACE_OUTER_BOUND ( 'NONE', #57, .T. ) ;
#93 = DIRECTION ( 'NONE',  ( -1.224646799147353207E-16, -0.0000000000000000000, -1.000000000000000000 ) ) ;
#94 = DIRECTION ( 'NONE',  ( 1.000000000000000000, 0.0000000000000000000, 0.0000000000000000000 ) ) ;
#95 = AXIS2_PLACEMENT_3D ( 'NONE', #130, #89, #112 ) ;
#96 = PRESENTATION_LAYER_ASSIGNMENT (  '', '', ( #38 ) ) ;
#97 = CARTESIAN_POINT ( 'NONE',  ( -0.1875000000000000278, 0.0000000000000000000, 2.500000000000000000 ) ) ;
#98 = ORIENTED_EDGE ( 'NONE', *, *, #286, .T. ) ;
#99 = EDGE_CURVE ( 'NONE', #283, #7, #42, .T. ) ;
#100 = DIRECTION ( 'NONE',  ( -1.224646799147353207E-16, -0.0000000000000000000, -1.000000000000000000 ) ) ;
#101 = ORIENTED_EDGE ( 'NONE', *, *, #67, .T. ) ;
#102 = AXIS2_PLACEMENT_3D ( 'NONE', #184, #186, #44 ) ;
#103 = ORIENTED_EDGE ( 'NONE', *, *, #133, .F. ) ;
#104 = CARTESIAN_POINT ( 'NONE',  ( 0.0000000000000000000, 0.0000000000000000000, 0.0000000000000000000 ) ) ;
#105 = UNCERTAINTY_MEASURE_WITH_UNIT (LENGTH_MEASURE( 1.000000000000000082E-05 ), #109, 'distance_accuracy_value', 'NONE');
#106 = DIRECTION ( 'NONE',  ( -0.1736481776669311916, 2.126576849575783316E-17, 0.9848077530122080203 ) ) ;
#107 = DIRECTION ( 'NONE',  ( -1.224646799147353207E-16, -0.0000000000000000000, -1.000000000000000000 ) ) ;
#108 = AXIS2_PLACEMENT_3D ( 'NONE', #204, #181, #137 ) ;
#109 =( CONVERSION_BASED_UNIT ( 'INCH', #21 ) LENGTH_UNIT ( ) NAMED_UNIT ( #216 ) );
#110 = APPLICATION_PROTOCOL_DEFINITION ( 'draft international standard', 'automotive_design', 1998, #39 ) ;
#111 = ORIENTED_EDGE ( 'NONE', *, *, #99, .T. ) ;
#112 = DIRECTION ( 'NONE',  ( 1.000000000000000000, 0.0000000000000000000, 0.0000000000000000000 ) ) ;
#113 = COLOUR_RGB ( '',0.7921568627450980005, 0.8196078431372548767, 0.9333333333333333481 ) ;
#114 = MECHANICAL_DESIGN_GEOMETRIC_PRESENTATION_REPRESENTATION (  '', ( #38 ), #296 ) ;
#115 = FACE_OUTER_BOUND ( 'NONE', #249, .T. ) ;
#116 = EDGE_CURVE ( 'NONE', #7, #283, #167, .T. ) ;
#117 = FACE_OUTER_BOUND ( 'NONE', #143, .T. ) ;
#118 = CARTESIAN_POINT ( 'NONE',  ( 0.0000000000000000000, 0.0000000000000000000, 2.500000000000000000 ) ) ;
#119 = CARTESIAN_POINT ( 'NONE',  ( 2.809237542898491532E-33, 0.0000000000000000000, 2.293916535652885596E-17 ) ) ;
#120 = VERTEX_POINT ( 'NONE', #139 ) ;
#121 = CIRCLE ( 'NONE', #155, 0.1724999999999995981 ) ;
#122 = DIRECTION ( 'NONE',  ( -1.000000000000000000, 0.0000000000000000000, 1.224646799147352961E-16 ) ) ;
#123 = ORIENTED_EDGE ( 'NONE', *, *, #223, .T. ) ;
#124 = EDGE_CURVE ( 'NONE', #147, #47, #226, .T. ) ;
#125 = CYLINDRICAL_SURFACE ( 'NONE', #48, 0.1873124999999999929 ) ;
#126 =( NAMED_UNIT ( * ) PLANE_ANGLE_UNIT ( ) SI_UNIT ( $, .RADIAN. ) );
#127 = FACE_OUTER_BOUND ( 'NONE', #146, .T. ) ;
#128 = ORIENTED_EDGE ( 'NONE', *, *, #19, .F. ) ;
#129 = AXIS2_PLACEMENT_3D ( 'NONE', #9, #132, #72 ) ;
#130 = CARTESIAN_POINT ( 'NONE',  ( 1.072868196215332272E-16, 0.0000000000000000000, 0.8760633653411783461 ) ) ;
#131 = CARTESIAN_POINT ( 'NONE',  ( 0.1875000000000000278, 2.296212748401287726E-17, 2.484999999999999432 ) ) ;
#132 = DIRECTION ( 'NONE',  ( 0.0000000000000000000, 0.0000000000000000000, 1.000000000000000000 ) ) ;
#133 = EDGE_CURVE ( 'NONE', #149, #195, #222, .T. ) ;
#134 = PRODUCT_DEFINITION_SHAPE ( 'NONE', 'NONE',  #168 ) ;
#135 = STYLED_ITEM ( 'NONE', ( #65 ), #82 ) ;
#136 = CARTESIAN_POINT ( 'NONE',  ( 0.0000000000000000000, 0.0000000000000000000, 2.500000000000000000 ) ) ;
#137 = DIRECTION ( 'NONE',  ( 1.000000000000000000, 0.0000000000000000000, 0.0000000000000000000 ) ) ;
#138 = ORIENTED_EDGE ( 'NONE', *, *, #172, .F. ) ;
#139 = CARTESIAN_POINT ( 'NONE',  ( 0.1875000000000000833, 2.296212748401288650E-17, 0.8760633653411783461 ) ) ;
#140 = CLOSED_SHELL ( 'NONE', ( #191, #74, #245, #212, #43, #55, #234, #88, #252, #151 ) ) ;
#141 = FILL_AREA_STYLE_COLOUR ( '', #243 ) ;
#142 =( CONVERSION_BASED_UNIT ( 'INCH', #263 ) LENGTH_UNIT ( ) NAMED_UNIT ( #267 ) );
#143 = EDGE_LOOP ( 'NONE', ( #51, #6, #201, #287 ) ) ;
#144 = AXIS2_PLACEMENT_3D ( 'NONE', #277, #258, #230 ) ;
#145 = DIRECTION ( 'NONE',  ( -0.0000000000000000000, -0.0000000000000000000, -1.000000000000000000 ) ) ;
#146 = EDGE_LOOP ( 'NONE', ( #87, #70, #91, #264 ) ) ;
#147 = VERTEX_POINT ( 'NONE', #73 ) ;
#148 = CIRCLE ( 'NONE', #102, 0.1875000000000000278 ) ;
#149 = VERTEX_POINT ( 'NONE', #235 ) ;
#150 = LINE ( 'NONE', #253, #71 ) ;
#151 = ADVANCED_FACE ( 'NONE', ( #280 ), #40, .F. ) ;
#152 = DIRECTION ( 'NONE',  ( -1.000000000000000000, 0.0000000000000000000, 0.0000000000000000000 ) ) ;
#153 = DIRECTION ( 'NONE',  ( -1.000000000000000000, 0.0000000000000000000, 0.0000000000000000000 ) ) ;
#154 = DIRECTION ( 'NONE',  ( -0.0000000000000000000, -0.0000000000000000000, -1.000000000000000000 ) ) ;
#155 = AXIS2_PLACEMENT_3D ( 'NONE', #136, #229, #26 ) ;
#156 = FACE_OUTER_BOUND ( 'NONE', #174, .T. ) ;
#157 = ORIENTED_EDGE ( 'NONE', *, *, #133, .T. ) ;
#158 = EDGE_CURVE ( 'NONE', #47, #2, #41, .T. ) ;
#159 = CARTESIAN_POINT ( 'NONE',  ( -0.1724999999999995981, 0.0000000000000000000, 2.500000000000000000 ) ) ;
#160 = CYLINDRICAL_SURFACE ( 'NONE', #242, 0.1873124999999999929 ) ;
#161 = EDGE_LOOP ( 'NONE', ( #197, #63, #293, #250 ) ) ;
#162 =( GEOMETRIC_REPRESENTATION_CONTEXT ( 3 ) GLOBAL_UNCERTAINTY_ASSIGNED_CONTEXT ( ( #58 ) ) GLOBAL_UNIT_ASSIGNED_CONTEXT ( ( #142, #126, #16 ) ) REPRESENTATION_CONTEXT ( 'NONE', 'WORKASPACE' ) );
#163 = EDGE_CURVE ( 'NONE', #147, #175, #257, .T. ) ;
#164 =( NAMED_UNIT ( * ) PLANE_ANGLE_UNIT ( ) SI_UNIT ( $, .RADIAN. ) );
#165 = APPLICATION_CONTEXT ( 'automotive_design' ) ;
#166 = EDGE_LOOP ( 'NONE', ( #206, #182, #101, #238 ) ) ;
#167 = CIRCLE ( 'NONE', #211, 0.1873124999999999929 ) ;
#168 = PRODUCT_DEFINITION ( 'UNKNOWN', '', #188, #170 ) ;
#169 =( CONVERSION_BASED_UNIT ( 'INCH', #217 ) LENGTH_UNIT ( ) NAMED_UNIT ( #32 ) );
#170 = PRODUCT_DEFINITION_CONTEXT ( 'detailed design', #39, 'design' ) ;
#171 = PRODUCT_CONTEXT ( 'NONE', #165, 'mechanical' ) ;
#172 = EDGE_CURVE ( 'NONE', #149, #7, #45, .T. ) ;
#173 = CARTESIAN_POINT ( 'NONE',  ( 1.071565949253934025E-16, 0.0000000000000000000, 0.8750000000000000000 ) ) ;
#174 = EDGE_LOOP ( 'NONE', ( #271, #103, #224, #54 ) ) ;
#175 = VERTEX_POINT ( 'NONE', #24 ) ;
#176 =( NAMED_UNIT ( * ) PLANE_ANGLE_UNIT ( ) SI_UNIT ( $, .RADIAN. ) );
#177 = LINE ( 'NONE', #20, #270 ) ;
#178 = AXIS2_PLACEMENT_3D ( 'NONE', #118, #205, #266 ) ;
#179 = DIRECTION ( 'NONE',  ( -1.224646799147353207E-16, -0.0000000000000000000, -1.000000000000000000 ) ) ;
#180 = DIRECTION ( 'NONE',  ( -1.224646799147353207E-16, -0.0000000000000000000, -1.000000000000000000 ) ) ;
#181 = DIRECTION ( 'NONE',  ( 0.0000000000000000000, 0.0000000000000000000, -1.000000000000000000 ) ) ;
#182 = ORIENTED_EDGE ( 'NONE', *, *, #49, .T. ) ;
#183 = AXIS2_PLACEMENT_3D ( 'NONE', #199, #18, #152 ) ;
#184 = CARTESIAN_POINT ( 'NONE',  ( 1.072868196215332272E-16, 0.0000000000000000000, 0.8760633653411783461 ) ) ;
#185 = CARTESIAN_POINT ( 'NONE',  ( 0.1873124999999999929, 2.293916535652885596E-17, -2.293916535652885596E-17 ) ) ;
#186 = DIRECTION ( 'NONE',  ( -1.224646799147353207E-16, -0.0000000000000000000, -1.000000000000000000 ) ) ;
#187 = VECTOR ( 'NONE', #259, 39.37007874015748143 ) ;
#188 = PRODUCT_DEFINITION_FORMATION_WITH_SPECIFIED_SOURCE ( 'ANY', '', #285, .NOT_KNOWN. ) ;
#189 = FILL_AREA_STYLE ('',( #141 ) ) ;
#190 = SURFACE_STYLE_FILL_AREA ( #189 ) ;
#191 = ADVANCED_FACE ( 'NONE', ( #115 ), #160, .T. ) ;
#192 = DIRECTION ( 'NONE',  ( 0.0000000000000000000, 0.0000000000000000000, 1.000000000000000000 ) ) ;
#193 = CONICAL_SURFACE ( 'NONE', #178, 0.1724999999999995981, 0.7853981633974357335 ) ;
#194 =( NAMED_UNIT ( * ) SI_UNIT ( $, .STERADIAN. ) SOLID_ANGLE_UNIT ( ) );
#195 = VERTEX_POINT ( 'NONE', #10 ) ;
#196 = DIRECTION ( 'NONE',  ( 0.0000000000000000000, 0.0000000000000000000, 1.000000000000000000 ) ) ;
#197 = ORIENTED_EDGE ( 'NONE', *, *, #223, .F. ) ;
#198 = CARTESIAN_POINT ( 'NONE',  ( 0.1873124999999999929, 2.293916535652885596E-17, 0.0000000000000000000 ) ) ;
#199 = CARTESIAN_POINT ( 'NONE',  ( 0.0000000000000000000, 0.0000000000000000000, 2.500000000000000000 ) ) ;
#200 = EDGE_CURVE ( 'NONE', #120, #2, #148, .T. ) ;
#201 = ORIENTED_EDGE ( 'NONE', *, *, #124, .T. ) ;
#202 = CIRCLE ( 'NONE', #25, 0.1873125000000000207 ) ;
#203 = DIRECTION ( 'NONE',  ( -1.224646799147353207E-16, -0.0000000000000000000, -1.000000000000000000 ) ) ;
#204 = CARTESIAN_POINT ( 'NONE',  ( 0.0000000000000000000, 0.0000000000000000000, 2.484999999999999432 ) ) ;
#205 = DIRECTION ( 'NONE',  ( 0.0000000000000000000, 0.0000000000000000000, -1.000000000000000000 ) ) ;
#206 = ORIENTED_EDGE ( 'NONE', *, *, #3, .F. ) ;
#207 = AXIS2_PLACEMENT_3D ( 'NONE', #225, #220, #84 ) ;
#208 = CARTESIAN_POINT ( 'NONE',  ( 1.071565949253934025E-16, 0.0000000000000000000, 0.8750000000000000000 ) ) ;
#209 = CARTESIAN_POINT ( 'NONE',  ( 0.0000000000000000000, 0.0000000000000000000, 2.500000000000000000 ) ) ;
#210 = LINE ( 'NONE', #59, #90 ) ;
#211 = AXIS2_PLACEMENT_3D ( 'NONE', #119, #255, #46 ) ;
#212 = ADVANCED_FACE ( 'NONE', ( #92 ), #276, .T. ) ;
#213 = CARTESIAN_POINT ( 'NONE',  ( 0.0000000000000000000, 0.0000000000000000000, 2.484999999999999432 ) ) ;
#214 = ORIENTED_EDGE ( 'NONE', *, *, #3, .T. ) ;
#215 = CARTESIAN_POINT ( 'NONE',  ( -0.1873124999999999929, 0.0000000000000000000, 4.587833071305771192E-17 ) ) ;
#216 = DIMENSIONAL_EXPONENTS ( 1.000000000000000000, 0.0000000000000000000, 0.0000000000000000000, 0.0000000000000000000, 0.0000000000000000000, 0.0000000000000000000, 0.0000000000000000000 ) ;
#217 = LENGTH_MEASURE_WITH_UNIT ( LENGTH_MEASURE( 0.02539999999999999897 ), #288 );
#218 = AXIS2_PLACEMENT_3D ( 'NONE', #213, #52, #268 ) ;
#219 = CYLINDRICAL_SURFACE ( 'NONE', #183, 0.1875000000000000278 ) ;
#220 = DIRECTION ( 'NONE',  ( 1.224646799147353207E-16, 0.0000000000000000000, 1.000000000000000000 ) ) ;
#221 = SURFACE_STYLE_USAGE ( .BOTH. , #86 ) ;
#222 = CIRCLE ( 'NONE', #85, 0.1873125000000000207 ) ;
#223 = EDGE_CURVE ( 'NONE', #175, #147, #121, .T. ) ;
#224 = ORIENTED_EDGE ( 'NONE', *, *, #78, .T. ) ;
#225 = CARTESIAN_POINT ( 'NONE',  ( 1.071565949253934025E-16, 0.0000000000000000000, 0.8750000000000000000 ) ) ;
#226 = LINE ( 'NONE', #159, #17 ) ;
#227 = EDGE_CURVE ( 'NONE', #47, #30, #28, .T. ) ;
#228 = AXIS2_PLACEMENT_3D ( 'NONE', #232, #203, #122 ) ;
#229 = DIRECTION ( 'NONE',  ( 0.0000000000000000000, 0.0000000000000000000, 1.000000000000000000 ) ) ;
#230 = DIRECTION ( 'NONE',  ( -1.000000000000000000, 0.0000000000000000000, 0.0000000000000000000 ) ) ;
#231 = ORIENTED_EDGE ( 'NONE', *, *, #116, .T. ) ;
#232 = CARTESIAN_POINT ( 'NONE',  ( 2.809237542898491532E-33, 0.0000000000000000000, 2.293916535652885596E-17 ) ) ;
#233 = ORIENTED_EDGE ( 'NONE', *, *, #116, .F. ) ;
#234 = ADVANCED_FACE ( 'NONE', ( #117 ), #279, .T. ) ;
#235 = CARTESIAN_POINT ( 'NONE',  ( 0.1873125000000001317, 0.0000000000000000000, 0.8750000000000000000 ) ) ;
#236 = EDGE_LOOP ( 'NONE', ( #111, #231 ) ) ;
#237 = LINE ( 'NONE', #50, #261 ) ;
#238 = ORIENTED_EDGE ( 'NONE', *, *, #78, .F. ) ;
#239 = SURFACE_STYLE_USAGE ( .BOTH. , #289 ) ;
#240 = ORIENTED_EDGE ( 'NONE', *, *, #163, .T. ) ;
#241 = APPLICATION_PROTOCOL_DEFINITION ( 'draft international standard', 'automotive_design', 1998, #165 ) ;
#242 = AXIS2_PLACEMENT_3D ( 'NONE', #69, #100, #4 ) ;
#243 = COLOUR_RGB ( '',0.7921568627450980005, 0.8196078431372548767, 0.9333333333333333481 ) ;
#244 = DIRECTION ( 'NONE',  ( 0.7071067811865385799, 8.659560562354823157E-17, -0.7071067811865563435 ) ) ;
#245 = ADVANCED_FACE ( 'NONE', ( #27 ), #193, .T. ) ;
#246 = CARTESIAN_POINT ( 'NONE',  ( -0.1874999999999999167, 0.0000000000000000000, 0.8760633653411783461 ) ) ;
#247 = ORIENTED_EDGE ( 'NONE', *, *, #227, .T. ) ;
#248 = CARTESIAN_POINT ( 'NONE',  ( 0.0000000000000000000, 0.0000000000000000000, 2.500000000000000000 ) ) ;
#249 = EDGE_LOOP ( 'NONE', ( #214, #299, #77, #128 ) ) ;
#250 = ORIENTED_EDGE ( 'NONE', *, *, #124, .F. ) ;
#251 = EDGE_LOOP ( 'NONE', ( #138, #157, #11, #233 ) ) ;
#252 = ADVANCED_FACE ( 'NONE', ( #53 ), #125, .T. ) ;
#253 = CARTESIAN_POINT ( 'NONE',  ( -0.1873124999999999096, 2.293916535652885904E-17, 0.8750000000000000000 ) ) ;
#254 = AXIS2_PLACEMENT_3D ( 'NONE', #209, #5, #94 ) ;
#255 = DIRECTION ( 'NONE',  ( -1.224646799147353207E-16, -0.0000000000000000000, -1.000000000000000000 ) ) ;
#256 = DIRECTION ( 'NONE',  ( -1.000000000000000000, 0.0000000000000000000, 0.0000000000000000000 ) ) ;
#257 = CIRCLE ( 'NONE', #254, 0.1724999999999995981 ) ;
#258 = DIRECTION ( 'NONE',  ( 0.0000000000000000000, 0.0000000000000000000, -1.000000000000000000 ) ) ;
#259 = DIRECTION ( 'NONE',  ( -0.0000000000000000000, -0.0000000000000000000, -1.000000000000000000 ) ) ;
#260 = DIRECTION ( 'NONE',  ( 1.000000000000000000, 0.0000000000000000000, 0.0000000000000000000 ) ) ;
#261 = VECTOR ( 'NONE', #244, 39.37007874015748854 ) ;
#262 = AXIS2_PLACEMENT_3D ( 'NONE', #104, #192, #81 ) ;
#263 = LENGTH_MEASURE_WITH_UNIT ( LENGTH_MEASURE( 0.02539999999999999897 ), #15 );
#264 = ORIENTED_EDGE ( 'NONE', *, *, #200, .F. ) ;
#265 = CARTESIAN_POINT ( 'NONE',  ( 0.0000000000000000000, 0.0000000000000000000, 0.0000000000000000000 ) ) ;
#266 = DIRECTION ( 'NONE',  ( -1.000000000000000000, 0.0000000000000000000, 0.0000000000000000000 ) ) ;
#267 = DIMENSIONAL_EXPONENTS ( 1.000000000000000000, 0.0000000000000000000, 0.0000000000000000000, 0.0000000000000000000, 0.0000000000000000000, 0.0000000000000000000, 0.0000000000000000000 ) ;
#268 = DIRECTION ( 'NONE',  ( 1.000000000000000000, 0.0000000000000000000, 0.0000000000000000000 ) ) ;
#269 = UNCERTAINTY_MEASURE_WITH_UNIT (LENGTH_MEASURE( 1.000000000000000082E-05 ), #169, 'distance_accuracy_value', 'NONE');
#270 = VECTOR ( 'NONE', #22, 39.37007874015748143 ) ;
#271 = ORIENTED_EDGE ( 'NONE', *, *, #49, .F. ) ;
#272 = CARTESIAN_POINT ( 'NONE',  ( -0.1873124999999999929, 0.0000000000000000000, 2.293916535652885596E-17 ) ) ;
#273 = FILL_AREA_STYLE ('',( #34 ) ) ;
#274 = CIRCLE ( 'NONE', #218, 0.1875000000000000278 ) ;
#275 = FACE_OUTER_BOUND ( 'NONE', #23, .T. ) ;
#276 = CYLINDRICAL_SURFACE ( 'NONE', #294, 0.1875000000000000278 ) ;
#277 = CARTESIAN_POINT ( 'NONE',  ( 0.0000000000000000000, 0.0000000000000000000, 2.500000000000000000 ) ) ;
#278 = ORIENTED_EDGE ( 'NONE', *, *, #158, .F. ) ;
#279 = CONICAL_SURFACE ( 'NONE', #144, 0.1724999999999995981, 0.7853981633974357335 ) ;
#280 = FACE_OUTER_BOUND ( 'NONE', #236, .T. ) ;
#281 = EDGE_CURVE ( 'NONE', #30, #47, #274, .T. ) ;
#282 =( NAMED_UNIT ( * ) SI_UNIT ( $, .STERADIAN. ) SOLID_ANGLE_UNIT ( ) );
#283 = VERTEX_POINT ( 'NONE', #215 ) ;
#284 = DIRECTION ( 'NONE',  ( -0.7071067811865385799, 0.0000000000000000000, -0.7071067811865563435 ) ) ;
#285 = PRODUCT ( 'Micro_EMS-375-2', 'Micro_EMS-375-2', '', ( #171 ) ) ;
#286 = EDGE_CURVE ( 'NONE', #30, #120, #210, .T. ) ;
#287 = ORIENTED_EDGE ( 'NONE', *, *, #281, .F. ) ;
#288 =( LENGTH_UNIT ( ) NAMED_UNIT ( * ) SI_UNIT ( $, .METRE. ) );
#289 = SURFACE_SIDE_STYLE ('',( #190 ) ) ;
#290 = VECTOR ( 'NONE', #93, 39.37007874015748143 ) ;
#291 = EDGE_CURVE ( 'NONE', #175, #30, #237, .T. ) ;
#292 = PLANE ( 'NONE',  #31 ) ;
#293 = ORIENTED_EDGE ( 'NONE', *, *, #227, .F. ) ;
#294 = AXIS2_PLACEMENT_3D ( 'NONE', #68, #154, #256 ) ;
#295 = SURFACE_STYLE_FILL_AREA ( #273 ) ;
#296 =( GEOMETRIC_REPRESENTATION_CONTEXT ( 3 ) GLOBAL_UNCERTAINTY_ASSIGNED_CONTEXT ( ( #269 ) ) GLOBAL_UNIT_ASSIGNED_CONTEXT ( ( #169, #164, #194 ) ) REPRESENTATION_CONTEXT ( 'NONE', 'WORKASPACE' ) );
#297 = SHAPE_DEFINITION_REPRESENTATION ( #134, #298 ) ;
#298 = ADVANCED_BREP_SHAPE_REPRESENTATION ( 'Micro_EMS-375-2', ( #82, #262 ), #162 ) ;
#299 = ORIENTED_EDGE ( 'NONE', *, *, #172, .T. ) ;
ENDSEC;
END-ISO-10303-21;
