ISO-10303-21;
HEADER;
FILE_DESCRIPTION (( 'STEP AP214' ),
    '1' );
FILE_NAME ('Micro_SBMM-020-216.STEP',
    '2021-09-02T17:04:34',
    ( '' ),
    ( '' ),
    'SwSTEP 2.0',
    'SolidWorks 2020',
    '' );
FILE_SCHEMA (( 'AUTOMOTIVE_DESIGN' ));
ENDSEC;

DATA;
#1 = EDGE_LOOP ( 'NONE', ( #194, #57, #189, #147 ) ) ;
#2 = SURFACE_STYLE_USAGE ( .BOTH. , #105 ) ;
#3 = EDGE_CURVE ( 'NONE', #121, #294, #117, .T. ) ;
#4 = DIRECTION ( 'NONE',  ( 1.000000000000000000, 0.0000000000000000000, 0.0000000000000000000 ) ) ;
#5 = AXIS2_PLACEMENT_3D ( 'NONE', #340, #212, #314 ) ;
#6 = CARTESIAN_POINT ( 'NONE',  ( 0.1181100000000000344, 1.446430334472939084E-17, 2.952755999999999936 ) ) ;
#7 = DIRECTION ( 'NONE',  ( 0.0000000000000000000, 0.0000000000000000000, 1.000000000000000000 ) ) ;
#8 = DIRECTION ( 'NONE',  ( 0.09001749462147055902, 0.0000000000000000000, 0.9959401842791932857 ) ) ;
#9 = FACE_OUTER_BOUND ( 'NONE', #78, .T. ) ;
#10 = CYLINDRICAL_SURFACE ( 'NONE', #58, 0.02559049999999995356 ) ;
#11 = ORIENTED_EDGE ( 'NONE', *, *, #230, .F. ) ;
#12 = ORIENTED_EDGE ( 'NONE', *, *, #256, .F. ) ;
#13 = DIRECTION ( 'NONE',  ( 1.000000000000000000, 0.0000000000000000000, 0.0000000000000000000 ) ) ;
#14 = DIRECTION ( 'NONE',  ( -1.000000000000000000, 0.0000000000000000000, 0.0000000000000000000 ) ) ;
#15 = MECHANICAL_DESIGN_GEOMETRIC_PRESENTATION_REPRESENTATION (  '', ( #149 ), #308 ) ;
#16 = AXIS2_PLACEMENT_3D ( 'NONE', #63, #30, #24 ) ;
#17 = CARTESIAN_POINT ( 'NONE',  ( 0.1299209999999997867, 0.0000000000000000000, 1.784218148936167481 ) ) ;
#18 = SURFACE_STYLE_USAGE ( .BOTH. , #253 ) ;
#19 = AXIS2_PLACEMENT_3D ( 'NONE', #304, #226, #14 ) ;
#20 = CIRCLE ( 'NONE', #73, 0.02559049999999992234 ) ;
#21 = ADVANCED_FACE ( 'NONE', ( #162 ), #324, .T. ) ;
#22 = CYLINDRICAL_SURFACE ( 'NONE', #207, 0.1181100000000000344 ) ;
#23 = VERTEX_POINT ( 'NONE', #114 ) ;
#24 = DIRECTION ( 'NONE',  ( 1.000000000000000000, 0.0000000000000000000, 0.0000000000000000000 ) ) ;
#25 = CARTESIAN_POINT ( 'NONE',  ( -0.02559049999999995356, 0.0000000000000000000, 0.0000000000000000000 ) ) ;
#26 = FACE_OUTER_BOUND ( 'NONE', #96, .T. ) ;
#27 = PRODUCT_DEFINITION_FORMATION_WITH_SPECIFIED_SOURCE ( 'ANY', '', #150, .NOT_KNOWN. ) ;
#28 =( NAMED_UNIT ( * ) SI_UNIT ( $, .STERADIAN. ) SOLID_ANGLE_UNIT ( ) );
#29 = FACE_OUTER_BOUND ( 'NONE', #315, .T. ) ;
#30 = DIRECTION ( 'NONE',  ( 0.0000000000000000000, 0.0000000000000000000, 1.000000000000000000 ) ) ;
#31 = CARTESIAN_POINT ( 'NONE',  ( 0.0000000000000000000, 0.0000000000000000000, 0.03937000000000000915 ) ) ;
#32 = ORIENTED_EDGE ( 'NONE', *, *, #256, .T. ) ;
#33 = ORIENTED_EDGE ( 'NONE', *, *, #258, .T. ) ;
#34 = EDGE_CURVE ( 'NONE', #223, #80, #168, .T. ) ;
#35 = DIRECTION ( 'NONE',  ( 0.7071067811865486830, 8.659560562354947649E-17, -0.7071067811865462405 ) ) ;
#36 = CARTESIAN_POINT ( 'NONE',  ( 0.0000000000000000000, 0.0000000000000000000, 0.0000000000000000000 ) ) ;
#37 = DIRECTION ( 'NONE',  ( -0.09001749462147055902, 1.102396366554480072E-17, 0.9959401842791932857 ) ) ;
#38 = CARTESIAN_POINT ( 'NONE',  ( 0.0000000000000000000, 0.0000000000000000000, 0.06928860975630385388 ) ) ;
#39 = DIRECTION ( 'NONE',  ( 0.0000000000000000000, 0.0000000000000000000, 1.000000000000000000 ) ) ;
#40 = AXIS2_PLACEMENT_3D ( 'NONE', #115, #7, #13 ) ;
#41 = AXIS2_PLACEMENT_3D ( 'NONE', #186, #267, #322 ) ;
#42 = CARTESIAN_POINT ( 'NONE',  ( -0.1181100000000000344, 0.0000000000000000000, 2.952755999999999936 ) ) ;
#43 = ADVANCED_FACE ( 'NONE', ( #331 ), #328, .T. ) ;
#44 = CIRCLE ( 'NONE', #124, 0.02559049999999998132 ) ;
#45 = CIRCLE ( 'NONE', #41, 0.03936999999999999528 ) ;
#46 = LINE ( 'NONE', #17, #202 ) ;
#47 = EDGE_CURVE ( 'NONE', #67, #309, #77, .T. ) ;
#48 = CLOSED_SHELL ( 'NONE', ( #93, #284, #229, #76, #163, #214, #21, #170, #43, #220, #237 ) ) ;
#49 = AXIS2_PLACEMENT_3D ( 'NONE', #142, #271, #195 ) ;
#50 = CARTESIAN_POINT ( 'NONE',  ( 0.0000000000000000000, 0.0000000000000000000, 0.03937000000000000915 ) ) ;
#51 = AXIS2_PLACEMENT_3D ( 'NONE', #38, #144, #345 ) ;
#52 = ORIENTED_EDGE ( 'NONE', *, *, #47, .F. ) ;
#53 = FACE_OUTER_BOUND ( 'NONE', #81, .T. ) ;
#54 = ORIENTED_EDGE ( 'NONE', *, *, #275, .T. ) ;
#55 =( NAMED_UNIT ( * ) PLANE_ANGLE_UNIT ( ) SI_UNIT ( $, .RADIAN. ) );
#56 = DIRECTION ( 'NONE',  ( -1.000000000000000000, 0.0000000000000000000, 0.0000000000000000000 ) ) ;
#57 = ORIENTED_EDGE ( 'NONE', *, *, #244, .F. ) ;
#58 = AXIS2_PLACEMENT_3D ( 'NONE', #36, #217, #323 ) ;
#59 = CIRCLE ( 'NONE', #154, 0.1181100000000000344 ) ;
#60 = APPLICATION_PROTOCOL_DEFINITION ( 'draft international standard', 'automotive_design', 1998, #110 ) ;
#61 = CARTESIAN_POINT ( 'NONE',  ( -0.1181100000000000344, 0.0000000000000000000, 1.653542999999999985 ) ) ;
#62 = ORIENTED_EDGE ( 'NONE', *, *, #295, .F. ) ;
#63 = CARTESIAN_POINT ( 'NONE',  ( 0.0000000000000000000, 0.0000000000000000000, 0.0000000000000000000 ) ) ;
#64 = FACE_OUTER_BOUND ( 'NONE', #160, .T. ) ;
#65 = ORIENTED_EDGE ( 'NONE', *, *, #270, .F. ) ;
#66 = FACE_OUTER_BOUND ( 'NONE', #343, .T. ) ;
#67 = VERTEX_POINT ( 'NONE', #122 ) ;
#68 = AXIS2_PLACEMENT_3D ( 'NONE', #307, #104, #233 ) ;
#69 = VERTEX_POINT ( 'NONE', #246 ) ;
#70 = CARTESIAN_POINT ( 'NONE',  ( 0.0000000000000000000, 0.0000000000000000000, 2.952755999999999936 ) ) ;
#71 = DIRECTION ( 'NONE',  ( -1.224646799147352961E-16, 1.000000000000000000, 0.0000000000000000000 ) ) ;
#72 = CONICAL_SURFACE ( 'NONE', #269, 0.1031099999999991745, 0.7853981633974500554 ) ;
#73 = AXIS2_PLACEMENT_3D ( 'NONE', #203, #191, #136 ) ;
#74 = FACE_OUTER_BOUND ( 'NONE', #1, .T. ) ;
#75 = SPHERICAL_SURFACE ( 'NONE', #301, 0.03936999999999999528 ) ;
#76 = ADVANCED_FACE ( 'NONE', ( #9 ), #72, .T. ) ;
#77 = CIRCLE ( 'NONE', #193, 0.03936999999999999528 ) ;
#78 = EDGE_LOOP ( 'NONE', ( #341, #241, #158, #62 ) ) ;
#79 = UNCERTAINTY_MEASURE_WITH_UNIT (LENGTH_MEASURE( 1.000000000000000082E-05 ), #156, 'distance_accuracy_value', 'NONE');
#80 = VERTEX_POINT ( 'NONE', #279 ) ;
#81 = EDGE_LOOP ( 'NONE', ( #216, #33, #182, #339 ) ) ;
#82 = EDGE_CURVE ( 'NONE', #187, #294, #272, .T. ) ;
#83 = DIRECTION ( 'NONE',  ( -1.000000000000000000, 0.0000000000000000000, 0.0000000000000000000 ) ) ;
#84 = CONICAL_SURFACE ( 'NONE', #277, 0.1031099999999991745, 0.7853981633974500554 ) ;
#85 = MECHANICAL_DESIGN_GEOMETRIC_PRESENTATION_REPRESENTATION (  '', ( #138 ), #249 ) ;
#86 = ORIENTED_EDGE ( 'NONE', *, *, #321, .F. ) ;
#87 = CARTESIAN_POINT ( 'NONE',  ( 0.0000000000000000000, 0.0000000000000000000, 2.937755999999999368 ) ) ;
#88 = DIRECTION ( 'NONE',  ( -0.0000000000000000000, -0.0000000000000000000, -1.000000000000000000 ) ) ;
#89 = DIRECTION ( 'NONE',  ( -1.000000000000000000, 0.0000000000000000000, 0.0000000000000000000 ) ) ;
#90 = EDGE_CURVE ( 'NONE', #69, #294, #118, .T. ) ;
#91 = DIRECTION ( 'NONE',  ( 1.000000000000000000, 0.0000000000000000000, 0.0000000000000000000 ) ) ;
#92 = VERTEX_POINT ( 'NONE', #190 ) ;
#93 = ADVANCED_FACE ( 'NONE', ( #292 ), #196, .T. ) ;
#94 = DIRECTION ( 'NONE',  ( 0.0000000000000000000, 0.0000000000000000000, 1.000000000000000000 ) ) ;
#95 = EDGE_CURVE ( 'NONE', #67, #23, #44, .T. ) ;
#96 = EDGE_LOOP ( 'NONE', ( #198, #232, #266, #86 ) ) ;
#97 = AXIS2_PLACEMENT_3D ( 'NONE', #283, #157, #231 ) ;
#98 = DIRECTION ( 'NONE',  ( 0.0000000000000000000, 1.000000000000000000, 0.0000000000000000000 ) ) ;
#99 = PRESENTATION_STYLE_ASSIGNMENT (( #2 ) ) ;
#100 = CARTESIAN_POINT ( 'NONE',  ( -0.1181100000000000344, 0.0000000000000000000, 2.937755999999999368 ) ) ;
#101 = PRODUCT_RELATED_PRODUCT_CATEGORY ( 'part', '', ( #150 ) ) ;
#102 = COLOUR_RGB ( '',0.7921568627450980005, 0.8196078431372548767, 0.9333333333333333481 ) ;
#103 = ORIENTED_EDGE ( 'NONE', *, *, #244, .T. ) ;
#104 = DIRECTION ( 'NONE',  ( 0.0000000000000000000, 0.0000000000000000000, 1.000000000000000000 ) ) ;
#105 = SURFACE_SIDE_STYLE ('',( #306 ) ) ;
#106 = CARTESIAN_POINT ( 'NONE',  ( 0.0000000000000000000, 0.0000000000000000000, 1.653542999999999985 ) ) ;
#107 = LENGTH_MEASURE_WITH_UNIT ( LENGTH_MEASURE( 0.02539999999999999897 ), #333 );
#108 = ORIENTED_EDGE ( 'NONE', *, *, #227, .T. ) ;
#109 = FILL_AREA_STYLE_COLOUR ( '', #102 ) ;
#110 = APPLICATION_CONTEXT ( 'automotive_design' ) ;
#111 = AXIS2_PLACEMENT_3D ( 'NONE', #166, #39, #224 ) ;
#112 = ORIENTED_EDGE ( 'NONE', *, *, #113, .T. ) ;
#113 = EDGE_CURVE ( 'NONE', #223, #261, #228, .T. ) ;
#114 = CARTESIAN_POINT ( 'NONE',  ( -0.02559049999999998132, 0.0000000000000000000, 0.06928860975630385388 ) ) ;
#115 = CARTESIAN_POINT ( 'NONE',  ( 0.0000000000000000000, 0.0000000000000000000, 1.653542999999999985 ) ) ;
#116 = DIRECTION ( 'NONE',  ( 1.000000000000000000, 0.0000000000000000000, 0.0000000000000000000 ) ) ;
#117 = CIRCLE ( 'NONE', #40, 0.1181100000000000344 ) ;
#118 = LINE ( 'NONE', #221, #262 ) ;
#119 = AXIS2_PLACEMENT_3D ( 'NONE', #70, #171, #250 ) ;
#120 = AXIS2_PLACEMENT_3D ( 'NONE', #31, #4, #188 ) ;
#121 = VERTEX_POINT ( 'NONE', #199 ) ;
#122 = CARTESIAN_POINT ( 'NONE',  ( 3.133932391358032860E-18, -0.02559049999999999173, 0.06928860975630385388 ) ) ;
#123 = FACE_OUTER_BOUND ( 'NONE', #179, .T. ) ;
#124 = AXIS2_PLACEMENT_3D ( 'NONE', #143, #330, #297 ) ;
#125 = CIRCLE ( 'NONE', #51, 0.02559049999999998132 ) ;
#126 = COLOUR_RGB ( '',0.7921568627450980005, 0.8196078431372548767, 0.9333333333333333481 ) ;
#127 = CARTESIAN_POINT ( 'NONE',  ( 0.1031099999999991745, 1.354581824536882559E-17, 2.952755999999999936 ) ) ;
#128 = ORIENTED_EDGE ( 'NONE', *, *, #201, .F. ) ;
#129 = CARTESIAN_POINT ( 'NONE',  ( 0.0000000000000000000, 0.0000000000000000000, 2.952755999999999936 ) ) ;
#130 =( CONVERSION_BASED_UNIT ( 'INCH', #107 ) LENGTH_UNIT ( ) NAMED_UNIT ( #172 ) );
#131 = DIRECTION ( 'NONE',  ( -0.0000000000000000000, -0.0000000000000000000, -1.000000000000000000 ) ) ;
#132 = ORIENTED_EDGE ( 'NONE', *, *, #230, .T. ) ;
#133 =( NAMED_UNIT ( * ) PLANE_ANGLE_UNIT ( ) SI_UNIT ( $, .RADIAN. ) );
#134 = DIRECTION ( 'NONE',  ( 0.0000000000000000000, 0.0000000000000000000, -1.000000000000000000 ) ) ;
#135 = ORIENTED_EDGE ( 'NONE', *, *, #321, .T. ) ;
#136 = DIRECTION ( 'NONE',  ( -1.000000000000000000, 0.0000000000000000000, 0.0000000000000000000 ) ) ;
#137 = AXIS2_PLACEMENT_3D ( 'NONE', #268, #94, #251 ) ;
#138 = STYLED_ITEM ( 'NONE', ( #99 ), #204 ) ;
#139 = CARTESIAN_POINT ( 'NONE',  ( 0.1031099999999991745, 1.262733314600825725E-17, 2.952755999999999936 ) ) ;
#140 = APPLICATION_CONTEXT ( 'automotive_design' ) ;
#141 = CARTESIAN_POINT ( 'NONE',  ( 0.0000000000000000000, 0.0000000000000000000, 0.0000000000000000000 ) ) ;
#142 = CARTESIAN_POINT ( 'NONE',  ( 0.0000000000000000000, 0.0000000000000000000, 2.952755999999999936 ) ) ;
#143 = CARTESIAN_POINT ( 'NONE',  ( 0.0000000000000000000, 0.0000000000000000000, 0.06928860975630385388 ) ) ;
#144 = DIRECTION ( 'NONE',  ( -0.0000000000000000000, -0.0000000000000000000, -1.000000000000000000 ) ) ;
#145 = ORIENTED_EDGE ( 'NONE', *, *, #239, .T. ) ;
#146 = VECTOR ( 'NONE', #88, 39.37007874015748143 ) ;
#147 = ORIENTED_EDGE ( 'NONE', *, *, #258, .F. ) ;
#148 = FILL_AREA_STYLE_COLOUR ( '', #126 ) ;
#149 = STYLED_ITEM ( 'NONE', ( #240 ), #178 ) ;
#150 = PRODUCT ( 'Micro_SBMM-020-216', 'Micro_SBMM-020-216', '', ( #310 ) ) ;
#151 = DIRECTION ( 'NONE',  ( 1.000000000000000000, 0.0000000000000000000, 0.0000000000000000000 ) ) ;
#152 = CARTESIAN_POINT ( 'NONE',  ( 0.0000000000000000000, 2.410717224121564242E-18, 1.707404996040164512E-17 ) ) ;
#153 = CONICAL_SURFACE ( 'NONE', #68, 0.1299209999999997867, 0.09013951093658498226 ) ;
#154 = AXIS2_PLACEMENT_3D ( 'NONE', #87, #134, #300 ) ;
#155 = ORIENTED_EDGE ( 'NONE', *, *, #270, .T. ) ;
#156 =( CONVERSION_BASED_UNIT ( 'INCH', #316 ) LENGTH_UNIT ( ) NAMED_UNIT ( #197 ) );
#157 = DIRECTION ( 'NONE',  ( -0.0000000000000000000, -0.0000000000000000000, -1.000000000000000000 ) ) ;
#158 = ORIENTED_EDGE ( 'NONE', *, *, #338, .F. ) ;
#159 = ORIENTED_EDGE ( 'NONE', *, *, #47, .T. ) ;
#160 = EDGE_LOOP ( 'NONE', ( #108, #155, #159, #318 ) ) ;
#161 = CARTESIAN_POINT ( 'NONE',  ( 0.0000000000000000000, 0.02559049999999999173, 0.06928860975630385388 ) ) ;
#162 = FACE_OUTER_BOUND ( 'NONE', #225, .T. ) ;
#163 = ADVANCED_FACE ( 'NONE', ( #123 ), #252, .T. ) ;
#164 = LINE ( 'NONE', #6, #248 ) ;
#165 = VECTOR ( 'NONE', #337, 39.37007874015748854 ) ;
#166 = CARTESIAN_POINT ( 'NONE',  ( 0.0000000000000000000, 0.0000000000000000000, 2.952755999999999936 ) ) ;
#167 = DIRECTION ( 'NONE',  ( -0.0000000000000000000, -0.0000000000000000000, -1.000000000000000000 ) ) ;
#168 = LINE ( 'NONE', #139, #174 ) ;
#169 = CARTESIAN_POINT ( 'NONE',  ( -0.1031099999999991745, 0.0000000000000000000, 2.952755999999999936 ) ) ;
#170 = ADVANCED_FACE ( 'NONE', ( #74 ), #84, .T. ) ;
#171 = DIRECTION ( 'NONE',  ( 0.0000000000000000000, 0.0000000000000000000, 1.000000000000000000 ) ) ;
#172 = DIMENSIONAL_EXPONENTS ( 1.000000000000000000, 0.0000000000000000000, 0.0000000000000000000, 0.0000000000000000000, 0.0000000000000000000, 0.0000000000000000000, 0.0000000000000000000 ) ;
#173 = CARTESIAN_POINT ( 'NONE',  ( 0.0000000000000000000, 0.0000000000000000000, 2.952755999999999936 ) ) ;
#174 = VECTOR ( 'NONE', #35, 39.37007874015748854 ) ;
#175 = AXIS2_PLACEMENT_3D ( 'NONE', #325, #274, #91 ) ;
#176 = DIRECTION ( 'NONE',  ( 0.0000000000000000000, 0.0000000000000000000, -1.000000000000000000 ) ) ;
#177 = VECTOR ( 'NONE', #245, 39.37007874015748143 ) ;
#178 = MANIFOLD_SOLID_BREP ( 'Cut-Revolve3', #48 ) ;
#179 = EDGE_LOOP ( 'NONE', ( #259, #145, #263, #332 ) ) ;
#180 = FILL_AREA_STYLE ('',( #109 ) ) ;
#181 =( CONVERSION_BASED_UNIT ( 'INCH', #254 ) LENGTH_UNIT ( ) NAMED_UNIT ( #298 ) );
#182 = ORIENTED_EDGE ( 'NONE', *, *, #82, .T. ) ;
#183 = SHAPE_DEFINITION_REPRESENTATION ( #206, #204 ) ;
#184 = ORIENTED_EDGE ( 'NONE', *, *, #281, .T. ) ;
#185 = CIRCLE ( 'NONE', #175, 0.1181100000000000344 ) ;
#186 = CARTESIAN_POINT ( 'NONE',  ( 0.0000000000000000000, 0.0000000000000000000, 0.03937000000000000915 ) ) ;
#187 = VERTEX_POINT ( 'NONE', #100 ) ;
#188 = DIRECTION ( 'NONE',  ( 0.0000000000000000000, 1.000000000000000000, 0.0000000000000000000 ) ) ;
#189 = ORIENTED_EDGE ( 'NONE', *, *, #295, .T. ) ;
#190 = CARTESIAN_POINT ( 'NONE',  ( 0.02559049999999992234, 0.0000000000000000000, 0.6299209999999999532 ) ) ;
#191 = DIRECTION ( 'NONE',  ( -0.0000000000000000000, -0.0000000000000000000, -1.000000000000000000 ) ) ;
#192 = CARTESIAN_POINT ( 'NONE',  ( 0.02559049999999998132, 3.133932391358031704E-18, 0.06928860975630385388 ) ) ;
#193 = AXIS2_PLACEMENT_3D ( 'NONE', #276, #299, #71 ) ;
#194 = ORIENTED_EDGE ( 'NONE', *, *, #34, .F. ) ;
#195 = DIRECTION ( 'NONE',  ( 1.000000000000000000, 0.0000000000000000000, 0.0000000000000000000 ) ) ;
#196 = CYLINDRICAL_SURFACE ( 'NONE', #282, 0.02559049999999995356 ) ;
#197 = DIMENSIONAL_EXPONENTS ( 1.000000000000000000, 0.0000000000000000000, 0.0000000000000000000, 0.0000000000000000000, 0.0000000000000000000, 0.0000000000000000000, 0.0000000000000000000 ) ;
#198 = ORIENTED_EDGE ( 'NONE', *, *, #305, .F. ) ;
#199 = CARTESIAN_POINT ( 'NONE',  ( 0.1181100000000000344, 1.446430334472939084E-17, 1.653542999999999985 ) ) ;
#200 = VECTOR ( 'NONE', #205, 39.37007874015748143 ) ;
#201 = EDGE_CURVE ( 'NONE', #69, #23, #342, .T. ) ;
#202 = VECTOR ( 'NONE', #8, 39.37007874015748854 ) ;
#203 = CARTESIAN_POINT ( 'NONE',  ( 0.0000000000000000000, 0.0000000000000000000, 0.6299209999999999532 ) ) ;
#204 = ADVANCED_BREP_SHAPE_REPRESENTATION ( 'Micro_SBMM-020-216', ( #178, #16 ), #293 ) ;
#205 = DIRECTION ( 'NONE',  ( -0.0000000000000000000, -0.0000000000000000000, -1.000000000000000000 ) ) ;
#206 = PRODUCT_DEFINITION_SHAPE ( 'NONE', 'NONE',  #278 ) ;
#207 = AXIS2_PLACEMENT_3D ( 'NONE', #129, #131, #56 ) ;
#208 = AXIS2_PLACEMENT_3D ( 'NONE', #215, #317, #83 ) ;
#209 = EDGE_LOOP ( 'NONE', ( #257, #32, #247, #11, #128 ) ) ;
#210 = APPLICATION_PROTOCOL_DEFINITION ( 'draft international standard', 'automotive_design', 1998, #140 ) ;
#211 = UNCERTAINTY_MEASURE_WITH_UNIT (LENGTH_MEASURE( 1.000000000000000082E-05 ), #181, 'distance_accuracy_value', 'NONE');
#212 = DIRECTION ( 'NONE',  ( -0.0000000000000000000, -0.0000000000000000000, -1.000000000000000000 ) ) ;
#213 = ORIENTED_EDGE ( 'NONE', *, *, #95, .F. ) ;
#214 = ADVANCED_FACE ( 'NONE', ( #53 ), #22, .T. ) ;
#215 = CARTESIAN_POINT ( 'NONE',  ( 0.0000000000000000000, 0.0000000000000000000, 0.6299209999999999532 ) ) ;
#216 = ORIENTED_EDGE ( 'NONE', *, *, #239, .F. ) ;
#217 = DIRECTION ( 'NONE',  ( -0.0000000000000000000, -0.0000000000000000000, -1.000000000000000000 ) ) ;
#218 = ORIENTED_EDGE ( 'NONE', *, *, #90, .F. ) ;
#219 = DIRECTION ( 'NONE',  ( -1.000000000000000000, 0.0000000000000000000, 0.0000000000000000000 ) ) ;
#220 = ADVANCED_FACE ( 'NONE', ( #29 ), #75, .T. ) ;
#221 = CARTESIAN_POINT ( 'NONE',  ( -0.1299209999999997867, 1.591073367920230343E-17, 1.784218148936167481 ) ) ;
#222 = LINE ( 'NONE', #329, #177 ) ;
#223 = VERTEX_POINT ( 'NONE', #127 ) ;
#224 = DIRECTION ( 'NONE',  ( 1.000000000000000000, 0.0000000000000000000, -0.0000000000000000000 ) ) ;
#225 = EDGE_LOOP ( 'NONE', ( #103, #112 ) ) ;
#226 = DIRECTION ( 'NONE',  ( -0.0000000000000000000, -0.0000000000000000000, -1.000000000000000000 ) ) ;
#227 = EDGE_CURVE ( 'NONE', #289, #234, #334, .T. ) ;
#228 = CIRCLE ( 'NONE', #119, 0.1031099999999991745 ) ;
#229 = ADVANCED_FACE ( 'NONE', ( #26 ), #153, .T. ) ;
#230 = EDGE_CURVE ( 'NONE', #23, #289, #236, .T. ) ;
#231 = DIRECTION ( 'NONE',  ( -1.000000000000000000, 0.0000000000000000000, 0.0000000000000000000 ) ) ;
#232 = ORIENTED_EDGE ( 'NONE', *, *, #90, .T. ) ;
#233 = DIRECTION ( 'NONE',  ( 1.000000000000000000, 0.0000000000000000000, 0.0000000000000000000 ) ) ;
#234 = VERTEX_POINT ( 'NONE', #192 ) ;
#235 =( NAMED_UNIT ( * ) SI_UNIT ( $, .STERADIAN. ) SOLID_ANGLE_UNIT ( ) );
#236 = CIRCLE ( 'NONE', #5, 0.02559049999999998132 ) ;
#237 = ADVANCED_FACE ( 'NONE', ( #66 ), #10, .T. ) ;
#238 = ORIENTED_EDGE ( 'NONE', *, *, #255, .F. ) ;
#239 = EDGE_CURVE ( 'NONE', #80, #121, #164, .T. ) ;
#240 = PRESENTATION_STYLE_ASSIGNMENT (( #18 ) ) ;
#241 = ORIENTED_EDGE ( 'NONE', *, *, #34, .T. ) ;
#242 = PRESENTATION_LAYER_ASSIGNMENT (  '', '', ( #149 ) ) ;
#243 = DIRECTION ( 'NONE',  ( 0.0000000000000000000, 0.0000000000000000000, -1.000000000000000000 ) ) ;
#244 = EDGE_CURVE ( 'NONE', #261, #223, #290, .T. ) ;
#245 = DIRECTION ( 'NONE',  ( -0.0000000000000000000, -0.0000000000000000000, -1.000000000000000000 ) ) ;
#246 = CARTESIAN_POINT ( 'NONE',  ( -0.02559049999999992234, 8.799117868043706652E-18, 0.6299209999999999532 ) ) ;
#247 = ORIENTED_EDGE ( 'NONE', *, *, #227, .F. ) ;
#248 = VECTOR ( 'NONE', #167, 39.37007874015748143 ) ;
#249 =( GEOMETRIC_REPRESENTATION_CONTEXT ( 3 ) GLOBAL_UNCERTAINTY_ASSIGNED_CONTEXT ( ( #79 ) ) GLOBAL_UNIT_ASSIGNED_CONTEXT ( ( #156, #133, #264 ) ) REPRESENTATION_CONTEXT ( 'NONE', 'WORKASPACE' ) );
#250 = DIRECTION ( 'NONE',  ( 1.000000000000000000, 0.0000000000000000000, 0.0000000000000000000 ) ) ;
#251 = DIRECTION ( 'NONE',  ( 1.000000000000000000, 0.0000000000000000000, 0.0000000000000000000 ) ) ;
#252 = CYLINDRICAL_SURFACE ( 'NONE', #19, 0.1181100000000000344 ) ;
#253 = SURFACE_SIDE_STYLE ('',( #327 ) ) ;
#254 = LENGTH_MEASURE_WITH_UNIT ( LENGTH_MEASURE( 0.02539999999999999897 ), #320 );
#255 = EDGE_CURVE ( 'NONE', #294, #121, #336, .T. ) ;
#256 = EDGE_CURVE ( 'NONE', #92, #234, #222, .T. ) ;
#257 = ORIENTED_EDGE ( 'NONE', *, *, #305, .T. ) ;
#258 = EDGE_CURVE ( 'NONE', #80, #187, #185, .T. ) ;
#259 = ORIENTED_EDGE ( 'NONE', *, *, #338, .T. ) ;
#260 =( LENGTH_UNIT ( ) NAMED_UNIT ( * ) SI_UNIT ( $, .METRE. ) );
#261 = VERTEX_POINT ( 'NONE', #169 ) ;
#262 = VECTOR ( 'NONE', #37, 39.37007874015748854 ) ;
#263 = ORIENTED_EDGE ( 'NONE', *, *, #3, .T. ) ;
#264 =( NAMED_UNIT ( * ) SI_UNIT ( $, .STERADIAN. ) SOLID_ANGLE_UNIT ( ) );
#265 = SPHERICAL_SURFACE ( 'NONE', #120, 0.03936999999999999528 ) ;
#266 = ORIENTED_EDGE ( 'NONE', *, *, #3, .F. ) ;
#267 = DIRECTION ( 'NONE',  ( -1.000000000000000000, 0.0000000000000000000, 0.0000000000000000000 ) ) ;
#268 = CARTESIAN_POINT ( 'NONE',  ( 0.0000000000000000000, 0.0000000000000000000, 1.784218148936167481 ) ) ;
#269 = AXIS2_PLACEMENT_3D ( 'NONE', #173, #243, #219 ) ;
#270 = EDGE_CURVE ( 'NONE', #234, #67, #125, .T. ) ;
#271 = DIRECTION ( 'NONE',  ( 0.0000000000000000000, 0.0000000000000000000, 1.000000000000000000 ) ) ;
#272 = LINE ( 'NONE', #42, #146 ) ;
#273 = EDGE_LOOP ( 'NONE', ( #218, #291, #135, #238 ) ) ;
#274 = DIRECTION ( 'NONE',  ( 0.0000000000000000000, 0.0000000000000000000, -1.000000000000000000 ) ) ;
#275 = EDGE_CURVE ( 'NONE', #92, #69, #311, .T. ) ;
#276 = CARTESIAN_POINT ( 'NONE',  ( 0.0000000000000000000, 0.0000000000000000000, 0.03937000000000000915 ) ) ;
#277 = AXIS2_PLACEMENT_3D ( 'NONE', #280, #176, #335 ) ;
#278 = PRODUCT_DEFINITION ( 'UNKNOWN', '', #27, #287 ) ;
#279 = CARTESIAN_POINT ( 'NONE',  ( 0.1181100000000000344, 1.446430334472939084E-17, 2.937755999999999368 ) ) ;
#280 = CARTESIAN_POINT ( 'NONE',  ( 0.0000000000000000000, 0.0000000000000000000, 2.952755999999999936 ) ) ;
#281 = EDGE_CURVE ( 'NONE', #289, #309, #45, .T. ) ;
#282 = AXIS2_PLACEMENT_3D ( 'NONE', #141, #326, #89 ) ;
#283 = CARTESIAN_POINT ( 'NONE',  ( 0.0000000000000000000, 0.0000000000000000000, 0.06928860975630385388 ) ) ;
#284 = ADVANCED_FACE ( 'NONE', ( #64 ), #265, .T. ) ;
#285 = ORIENTED_EDGE ( 'NONE', *, *, #201, .T. ) ;
#286 =( NAMED_UNIT ( * ) PLANE_ANGLE_UNIT ( ) SI_UNIT ( $, .RADIAN. ) );
#287 = PRODUCT_DEFINITION_CONTEXT ( 'detailed design', #140, 'design' ) ;
#288 = UNCERTAINTY_MEASURE_WITH_UNIT (LENGTH_MEASURE( 1.000000000000000082E-05 ), #130, 'distance_accuracy_value', 'NONE');
#289 = VERTEX_POINT ( 'NONE', #161 ) ;
#290 = CIRCLE ( 'NONE', #49, 0.1031099999999991745 ) ;
#291 = ORIENTED_EDGE ( 'NONE', *, *, #275, .F. ) ;
#292 = FACE_OUTER_BOUND ( 'NONE', #209, .T. ) ;
#293 =( GEOMETRIC_REPRESENTATION_CONTEXT ( 3 ) GLOBAL_UNCERTAINTY_ASSIGNED_CONTEXT ( ( #288 ) ) GLOBAL_UNIT_ASSIGNED_CONTEXT ( ( #130, #55, #235 ) ) REPRESENTATION_CONTEXT ( 'NONE', 'WORKASPACE' ) );
#294 = VERTEX_POINT ( 'NONE', #61 ) ;
#295 = EDGE_CURVE ( 'NONE', #261, #187, #302, .T. ) ;
#296 = DIRECTION ( 'NONE',  ( 0.0000000000000000000, 0.0000000000000000000, 1.000000000000000000 ) ) ;
#297 = DIRECTION ( 'NONE',  ( -1.000000000000000000, 0.0000000000000000000, 0.0000000000000000000 ) ) ;
#298 = DIMENSIONAL_EXPONENTS ( 1.000000000000000000, 0.0000000000000000000, 0.0000000000000000000, 0.0000000000000000000, 0.0000000000000000000, 0.0000000000000000000, 0.0000000000000000000 ) ;
#299 = DIRECTION ( 'NONE',  ( 1.000000000000000000, 1.224646799147353207E-16, -0.0000000000000000000 ) ) ;
#300 = DIRECTION ( 'NONE',  ( 1.000000000000000000, 0.0000000000000000000, 0.0000000000000000000 ) ) ;
#301 = AXIS2_PLACEMENT_3D ( 'NONE', #50, #151, #98 ) ;
#302 = LINE ( 'NONE', #344, #165 ) ;
#303 = PRESENTATION_LAYER_ASSIGNMENT (  '', '', ( #138 ) ) ;
#304 = CARTESIAN_POINT ( 'NONE',  ( 0.0000000000000000000, 0.0000000000000000000, 2.952755999999999936 ) ) ;
#305 = EDGE_CURVE ( 'NONE', #69, #92, #20, .T. ) ;
#306 = SURFACE_STYLE_FILL_AREA ( #180 ) ;
#307 = CARTESIAN_POINT ( 'NONE',  ( 0.0000000000000000000, 0.0000000000000000000, 1.784218148936167481 ) ) ;
#308 =( GEOMETRIC_REPRESENTATION_CONTEXT ( 3 ) GLOBAL_UNCERTAINTY_ASSIGNED_CONTEXT ( ( #211 ) ) GLOBAL_UNIT_ASSIGNED_CONTEXT ( ( #181, #286, #28 ) ) REPRESENTATION_CONTEXT ( 'NONE', 'WORKASPACE' ) );
#309 = VERTEX_POINT ( 'NONE', #152 ) ;
#310 = PRODUCT_CONTEXT ( 'NONE', #110, 'mechanical' ) ;
#311 = CIRCLE ( 'NONE', #208, 0.02559049999999992234 ) ;
#312 = FILL_AREA_STYLE ('',( #148 ) ) ;
#313 = ORIENTED_EDGE ( 'NONE', *, *, #95, .T. ) ;
#314 = DIRECTION ( 'NONE',  ( -1.000000000000000000, 0.0000000000000000000, 0.0000000000000000000 ) ) ;
#315 = EDGE_LOOP ( 'NONE', ( #52, #313, #132, #184 ) ) ;
#316 = LENGTH_MEASURE_WITH_UNIT ( LENGTH_MEASURE( 0.02539999999999999897 ), #260 );
#317 = DIRECTION ( 'NONE',  ( -0.0000000000000000000, -0.0000000000000000000, -1.000000000000000000 ) ) ;
#318 = ORIENTED_EDGE ( 'NONE', *, *, #281, .F. ) ;
#319 = AXIS2_PLACEMENT_3D ( 'NONE', #106, #296, #116 ) ;
#320 =( LENGTH_UNIT ( ) NAMED_UNIT ( * ) SI_UNIT ( $, .METRE. ) );
#321 = EDGE_CURVE ( 'NONE', #92, #121, #46, .T. ) ;
#322 = DIRECTION ( 'NONE',  ( 0.0000000000000000000, 0.0000000000000000000, 1.000000000000000000 ) ) ;
#323 = DIRECTION ( 'NONE',  ( -1.000000000000000000, 0.0000000000000000000, 0.0000000000000000000 ) ) ;
#324 = PLANE ( 'NONE',  #111 ) ;
#325 = CARTESIAN_POINT ( 'NONE',  ( 0.0000000000000000000, 0.0000000000000000000, 2.937755999999999368 ) ) ;
#326 = DIRECTION ( 'NONE',  ( -0.0000000000000000000, -0.0000000000000000000, -1.000000000000000000 ) ) ;
#327 = SURFACE_STYLE_FILL_AREA ( #312 ) ;
#328 = CONICAL_SURFACE ( 'NONE', #137, 0.1299209999999997867, 0.09013951093658498226 ) ;
#329 = CARTESIAN_POINT ( 'NONE',  ( 0.02559049999999995356, 3.133932391358028623E-18, 0.0000000000000000000 ) ) ;
#330 = DIRECTION ( 'NONE',  ( -0.0000000000000000000, -0.0000000000000000000, -1.000000000000000000 ) ) ;
#331 = FACE_OUTER_BOUND ( 'NONE', #273, .T. ) ;
#332 = ORIENTED_EDGE ( 'NONE', *, *, #82, .F. ) ;
#333 =( LENGTH_UNIT ( ) NAMED_UNIT ( * ) SI_UNIT ( $, .METRE. ) );
#334 = CIRCLE ( 'NONE', #97, 0.02559049999999998132 ) ;
#335 = DIRECTION ( 'NONE',  ( -1.000000000000000000, 0.0000000000000000000, 0.0000000000000000000 ) ) ;
#336 = CIRCLE ( 'NONE', #319, 0.1181100000000000344 ) ;
#337 = DIRECTION ( 'NONE',  ( -0.7071067811865486830, 0.0000000000000000000, -0.7071067811865462405 ) ) ;
#338 = EDGE_CURVE ( 'NONE', #187, #80, #59, .T. ) ;
#339 = ORIENTED_EDGE ( 'NONE', *, *, #255, .T. ) ;
#340 = CARTESIAN_POINT ( 'NONE',  ( 0.0000000000000000000, 0.0000000000000000000, 0.06928860975630385388 ) ) ;
#341 = ORIENTED_EDGE ( 'NONE', *, *, #113, .F. ) ;
#342 = LINE ( 'NONE', #25, #200 ) ;
#343 = EDGE_LOOP ( 'NONE', ( #12, #54, #285, #213, #65 ) ) ;
#344 = CARTESIAN_POINT ( 'NONE',  ( -0.1031099999999991745, 0.0000000000000000000, 2.952755999999999936 ) ) ;
#345 = DIRECTION ( 'NONE',  ( -1.000000000000000000, 0.0000000000000000000, 0.0000000000000000000 ) ) ;
ENDSEC;
END-ISO-10303-21;
