ISO-10303-21;
HEADER;
FILE_DESCRIPTION (( 'STEP AP214' ),
    '1' );
FILE_NAME ('Micro_RME-012-2.STEP',
    '2021-09-01T22:25:05',
    ( '' ),
    ( '' ),
    'SwSTEP 2.0',
    'SolidWorks 2020',
    '' );
FILE_SCHEMA (( 'AUTOMOTIVE_DESIGN' ));
ENDSEC;

DATA;
#1 = DIRECTION ( 'NONE',  ( 1.000000000000000000, 0.0000000000000000000, -0.0000000000000000000 ) ) ;
#2 = SURFACE_STYLE_USAGE ( .BOTH. , #253 ) ;
#3 = VECTOR ( 'NONE', #295, 39.37007874015748143 ) ;
#4 = PRODUCT_DEFINITION_FORMATION_WITH_SPECIFIED_SOURCE ( 'ANY', '', #237, .NOT_KNOWN. ) ;
#5 = SURFACE_STYLE_FILL_AREA ( #281 ) ;
#6 = ORIENTED_EDGE ( 'NONE', *, *, #23, .T. ) ;
#7 = APPLICATION_PROTOCOL_DEFINITION ( 'draft international standard', 'automotive_design', 1998, #37 ) ;
#8 = EDGE_LOOP ( 'NONE', ( #14, #79, #127, #170 ) ) ;
#9 = UNCERTAINTY_MEASURE_WITH_UNIT (LENGTH_MEASURE( 1.000000000000000082E-05 ), #195, 'distance_accuracy_value', 'NONE');
#10 =( LENGTH_UNIT ( ) NAMED_UNIT ( * ) SI_UNIT ( $, .METRE. ) );
#11 = EDGE_LOOP ( 'NONE', ( #242, #168, #217, #63 ) ) ;
#12 = CARTESIAN_POINT ( 'NONE',  ( 0.0000000000000000000, 0.0000000000000000000, 0.0000000000000000000 ) ) ;
#13 = LENGTH_MEASURE_WITH_UNIT ( LENGTH_MEASURE( 0.02539999999999999897 ), #234 );
#14 = ORIENTED_EDGE ( 'NONE', *, *, #80, .T. ) ;
#15 = SHAPE_DEFINITION_REPRESENTATION ( #56, #84 ) ;
#16 = CYLINDRICAL_SURFACE ( 'NONE', #235, 0.005994000000000001931 ) ;
#17 = VECTOR ( 'NONE', #120, 39.37007874015748143 ) ;
#18 = CARTESIAN_POINT ( 'NONE',  ( -0.06249999999999997918, 0.0000000000000000000, 0.3564614504993167121 ) ) ;
#19 = APPLICATION_PROTOCOL_DEFINITION ( 'draft international standard', 'automotive_design', 1998, #58 ) ;
#20 = DIRECTION ( 'NONE',  ( -1.000000000000000000, 0.0000000000000000000, 0.0000000000000000000 ) ) ;
#21 = AXIS2_PLACEMENT_3D ( 'NONE', #297, #51, #232 ) ;
#22 = CARTESIAN_POINT ( 'NONE',  ( 0.0000000000000000000, 0.0000000000000000000, 1.500000000000000222 ) ) ;
#23 = EDGE_CURVE ( 'NONE', #174, #100, #196, .T. ) ;
#24 = CARTESIAN_POINT ( 'NONE',  ( 4.365393743734110901E-17, 0.0000000000000000000, 0.3564614504993167121 ) ) ;
#25 = CARTESIAN_POINT ( 'NONE',  ( 0.0000000000000000000, 0.0000000000000000000, 0.0000000000000000000 ) ) ;
#26 = EDGE_CURVE ( 'NONE', #36, #100, #190, .T. ) ;
#27 = CARTESIAN_POINT ( 'NONE',  ( 4.408728476930471799E-18, 0.0000000000000000000, 0.03599999999999999728 ) ) ;
#28 = CIRCLE ( 'NONE', #90, 0.06250000000000002776 ) ;
#29 = DIRECTION ( 'NONE',  ( 0.0000000000000000000, 0.0000000000000000000, -1.000000000000000000 ) ) ;
#30 =( CONVERSION_BASED_UNIT ( 'INCH', #13 ) LENGTH_UNIT ( ) NAMED_UNIT ( #53 ) );
#31 = ORIENTED_EDGE ( 'NONE', *, *, #255, .F. ) ;
#32 = ORIENTED_EDGE ( 'NONE', *, *, #260, .T. ) ;
#33 = DIRECTION ( 'NONE',  ( 1.224646799147353454E-16, 0.0000000000000000000, 1.000000000000000000 ) ) ;
#34 = VERTEX_POINT ( 'NONE', #185 ) ;
#35 = FACE_OUTER_BOUND ( 'NONE', #74, .T. ) ;
#36 = VERTEX_POINT ( 'NONE', #67 ) ;
#37 = APPLICATION_CONTEXT ( 'automotive_design' ) ;
#38 = ORIENTED_EDGE ( 'NONE', *, *, #72, .F. ) ;
#39 = FACE_OUTER_BOUND ( 'NONE', #8, .T. ) ;
#40 = DIRECTION ( 'NONE',  ( 0.0000000000000000000, 0.0000000000000000000, 1.000000000000000000 ) ) ;
#41 = VECTOR ( 'NONE', #274, 39.37007874015748143 ) ;
#42 = LINE ( 'NONE', #203, #102 ) ;
#43 = CARTESIAN_POINT ( 'NONE',  ( 4.408728476930471799E-18, 0.0000000000000000000, 0.03599999999999999728 ) ) ;
#44 = FACE_OUTER_BOUND ( 'NONE', #54, .T. ) ;
#45 = AXIS2_PLACEMENT_3D ( 'NONE', #147, #33, #99 ) ;
#46 = PLANE ( 'NONE',  #153 ) ;
#47 = ADVANCED_FACE ( 'NONE', ( #44 ), #16, .T. ) ;
#48 = CIRCLE ( 'NONE', #275, 0.06250000000000002776 ) ;
#49 = LINE ( 'NONE', #278, #17 ) ;
#50 =( GEOMETRIC_REPRESENTATION_CONTEXT ( 3 ) GLOBAL_UNCERTAINTY_ASSIGNED_CONTEXT ( ( #9 ) ) GLOBAL_UNIT_ASSIGNED_CONTEXT ( ( #195, #258, #125 ) ) REPRESENTATION_CONTEXT ( 'NONE', 'WORKASPACE' ) );
#51 = DIRECTION ( 'NONE',  ( 0.0000000000000000000, 0.0000000000000000000, -1.000000000000000000 ) ) ;
#52 = ADVANCED_FACE ( 'NONE', ( #111 ), #243, .T. ) ;
#53 = DIMENSIONAL_EXPONENTS ( 1.000000000000000000, 0.0000000000000000000, 0.0000000000000000000, 0.0000000000000000000, 0.0000000000000000000, 0.0000000000000000000, 0.0000000000000000000 ) ;
#54 = EDGE_LOOP ( 'NONE', ( #156, #262, #266, #282 ) ) ;
#55 = CIRCLE ( 'NONE', #264, 0.06250000000000002776 ) ;
#56 = PRODUCT_DEFINITION_SHAPE ( 'NONE', 'NONE',  #132 ) ;
#57 = ORIENTED_EDGE ( 'NONE', *, *, #184, .T. ) ;
#58 = APPLICATION_CONTEXT ( 'automotive_design' ) ;
#59 = EDGE_CURVE ( 'NONE', #194, #34, #106, .T. ) ;
#60 = ORIENTED_EDGE ( 'NONE', *, *, #251, .T. ) ;
#61 = DIRECTION ( 'NONE',  ( 0.0000000000000000000, 0.0000000000000000000, 1.000000000000000000 ) ) ;
#62 = ORIENTED_EDGE ( 'NONE', *, *, #158, .T. ) ;
#63 = ORIENTED_EDGE ( 'NONE', *, *, #59, .F. ) ;
#64 = DIRECTION ( 'NONE',  ( 0.0000000000000000000, 0.0000000000000000000, 1.000000000000000000 ) ) ;
#65 = VECTOR ( 'NONE', #134, 39.37007874015748854 ) ;
#66 = CARTESIAN_POINT ( 'NONE',  ( 0.0000000000000000000, 0.0000000000000000000, 1.485000000000000764 ) ) ;
#67 = CARTESIAN_POINT ( 'NONE',  ( 0.06250000000000006939, 7.654042494670963708E-18, 0.3564614504993167121 ) ) ;
#68 = DIRECTION ( 'NONE',  ( 0.7071067811865462405, 8.659560562354916834E-17, -0.7071067811865486830 ) ) ;
#69 = FACE_OUTER_BOUND ( 'NONE', #11, .T. ) ;
#70 = DIRECTION ( 'NONE',  ( -1.224646799147353454E-16, -0.0000000000000000000, -1.000000000000000000 ) ) ;
#71 = CARTESIAN_POINT ( 'NONE',  ( 8.989560137275184424E-35, 0.0000000000000000000, 7.340532914089242004E-19 ) ) ;
#72 = EDGE_CURVE ( 'NONE', #194, #236, #187, .T. ) ;
#73 = VECTOR ( 'NONE', #222, 39.37007874015747433 ) ;
#74 = EDGE_LOOP ( 'NONE', ( #177, #6, #57, #171 ) ) ;
#75 = DIRECTION ( 'NONE',  ( 1.000000000000000000, 0.0000000000000000000, 0.0000000000000000000 ) ) ;
#76 = AXIS2_PLACEMENT_3D ( 'NONE', #25, #193, #139 ) ;
#77 = DIRECTION ( 'NONE',  ( 1.000000000000000000, 0.0000000000000000000, -0.0000000000000000000 ) ) ;
#78 = ORIENTED_EDGE ( 'NONE', *, *, #233, .T. ) ;
#79 = ORIENTED_EDGE ( 'NONE', *, *, #163, .T. ) ;
#80 = EDGE_CURVE ( 'NONE', #34, #81, #55, .T. ) ;
#81 = VERTEX_POINT ( 'NONE', #136 ) ;
#82 = DIRECTION ( 'NONE',  ( 1.224646799147353454E-16, 0.0000000000000000000, 1.000000000000000000 ) ) ;
#83 = CARTESIAN_POINT ( 'NONE',  ( -0.005994000000000001931, 0.0000000000000000000, 7.340532914089238152E-19 ) ) ;
#84 = ADVANCED_BREP_SHAPE_REPRESENTATION ( 'Micro_RME-012-2', ( #257, #211 ), #192 ) ;
#85 = DIRECTION ( 'NONE',  ( 1.000000000000000000, 0.0000000000000000000, 0.0000000000000000000 ) ) ;
#86 = CONICAL_SURFACE ( 'NONE', #45, 0.005993999999999999329, 0.1745329251994338637 ) ;
#87 = CARTESIAN_POINT ( 'NONE',  ( 0.06250000000000002776, 7.654042494670959086E-18, 1.500000000000000222 ) ) ;
#88 = LINE ( 'NONE', #83, #3 ) ;
#89 = DIRECTION ( 'NONE',  ( -0.0000000000000000000, -0.0000000000000000000, -1.000000000000000000 ) ) ;
#90 = AXIS2_PLACEMENT_3D ( 'NONE', #241, #130, #75 ) ;
#91 = CYLINDRICAL_SURFACE ( 'NONE', #76, 0.005994000000000001931 ) ;
#92 = UNCERTAINTY_MEASURE_WITH_UNIT (LENGTH_MEASURE( 1.000000000000000082E-05 ), #165, 'distance_accuracy_value', 'NONE');
#93 = LENGTH_MEASURE_WITH_UNIT ( LENGTH_MEASURE( 0.02539999999999999897 ), #298 );
#94 = DIRECTION ( 'NONE',  ( -1.000000000000000000, 0.0000000000000000000, 0.0000000000000000000 ) ) ;
#95 = AXIS2_PLACEMENT_3D ( 'NONE', #162, #40, #107 ) ;
#96 = DIRECTION ( 'NONE',  ( -1.000000000000000000, 0.0000000000000000000, 0.0000000000000000000 ) ) ;
#97 = VERTEX_POINT ( 'NONE', #204 ) ;
#98 = EDGE_CURVE ( 'NONE', #236, #81, #42, .T. ) ;
#99 = DIRECTION ( 'NONE',  ( 1.000000000000000000, 0.0000000000000000000, 0.0000000000000000000 ) ) ;
#100 = VERTEX_POINT ( 'NONE', #18 ) ;
#101 = ORIENTED_EDGE ( 'NONE', *, *, #292, .F. ) ;
#102 = VECTOR ( 'NONE', #68, 39.37007874015748854 ) ;
#103 = ORIENTED_EDGE ( 'NONE', *, *, #260, .F. ) ;
#104 = DIMENSIONAL_EXPONENTS ( 1.000000000000000000, 0.0000000000000000000, 0.0000000000000000000, 0.0000000000000000000, 0.0000000000000000000, 0.0000000000000000000, 0.0000000000000000000 ) ;
#105 =( NAMED_UNIT ( * ) SI_UNIT ( $, .STERADIAN. ) SOLID_ANGLE_UNIT ( ) );
#106 = LINE ( 'NONE', #246, #65 ) ;
#107 = DIRECTION ( 'NONE',  ( 1.000000000000000000, 0.0000000000000000000, 0.0000000000000000000 ) ) ;
#108 = PRODUCT_CONTEXT ( 'NONE', #37, 'mechanical' ) ;
#109 = PRODUCT_RELATED_PRODUCT_CATEGORY ( 'part', '', ( #237 ) ) ;
#110 = CARTESIAN_POINT ( 'NONE',  ( 0.005994000000000003665, 0.0000000000000000000, 0.03599999999999999728 ) ) ;
#111 = FACE_OUTER_BOUND ( 'NONE', #126, .T. ) ;
#112 = VECTOR ( 'NONE', #89, 39.37007874015748143 ) ;
#113 = DIRECTION ( 'NONE',  ( -1.000000000000000000, 0.0000000000000000000, 1.224646799147353207E-16 ) ) ;
#114 = CARTESIAN_POINT ( 'NONE',  ( 0.0000000000000000000, 0.0000000000000000000, 1.500000000000000222 ) ) ;
#115 = LINE ( 'NONE', #189, #112 ) ;
#116 = PRESENTATION_LAYER_ASSIGNMENT (  '', '', ( #240 ) ) ;
#117 = PRESENTATION_STYLE_ASSIGNMENT (( #2 ) ) ;
#118 = SURFACE_STYLE_FILL_AREA ( #140 ) ;
#119 = ADVANCED_FACE ( 'NONE', ( #39 ), #205, .T. ) ;
#120 = DIRECTION ( 'NONE',  ( -1.224646799147353454E-16, -0.0000000000000000000, -1.000000000000000000 ) ) ;
#121 = AXIS2_PLACEMENT_3D ( 'NONE', #22, #291, #20 ) ;
#122 = PRESENTATION_STYLE_ASSIGNMENT (( #145 ) ) ;
#123 = COLOUR_RGB ( '',0.7921568627450980005, 0.8196078431372548767, 0.9333333333333333481 ) ;
#124 = EDGE_LOOP ( 'NONE', ( #31, #60, #62, #103 ) ) ;
#125 =( NAMED_UNIT ( * ) SI_UNIT ( $, .STERADIAN. ) SOLID_ANGLE_UNIT ( ) );
#126 = EDGE_LOOP ( 'NONE', ( #288, #220, #78, #221 ) ) ;
#127 = ORIENTED_EDGE ( 'NONE', *, *, #184, .F. ) ;
#128 = AXIS2_PLACEMENT_3D ( 'NONE', #180, #293, #270 ) ;
#129 = VERTEX_POINT ( 'NONE', #161 ) ;
#130 = DIRECTION ( 'NONE',  ( 0.0000000000000000000, 0.0000000000000000000, -1.000000000000000000 ) ) ;
#131 = VERTEX_POINT ( 'NONE', #110 ) ;
#132 = PRODUCT_DEFINITION ( 'UNKNOWN', '', #4, #249 ) ;
#133 = CARTESIAN_POINT ( 'NONE',  ( 4.365393743734110901E-17, 0.0000000000000000000, 0.3564614504993167121 ) ) ;
#134 = DIRECTION ( 'NONE',  ( -0.7071067811865462405, 0.0000000000000000000, -0.7071067811865486830 ) ) ;
#135 = CARTESIAN_POINT ( 'NONE',  ( 0.0000000000000000000, 0.0000000000000000000, 0.0000000000000000000 ) ) ;
#136 = CARTESIAN_POINT ( 'NONE',  ( 0.06250000000000002776, 7.654042494670959086E-18, 1.485000000000000764 ) ) ;
#137 = EDGE_CURVE ( 'NONE', #236, #194, #223, .T. ) ;
#138 = AXIS2_PLACEMENT_3D ( 'NONE', #224, #244, #181 ) ;
#139 = DIRECTION ( 'NONE',  ( -1.000000000000000000, 0.0000000000000000000, 1.224646799147353207E-16 ) ) ;
#140 = FILL_AREA_STYLE ('',( #231 ) ) ;
#141 = DIRECTION ( 'NONE',  ( -1.000000000000000000, 0.0000000000000000000, 0.0000000000000000000 ) ) ;
#142 = AXIS2_PLACEMENT_3D ( 'NONE', #202, #248, #85 ) ;
#143 = DIRECTION ( 'NONE',  ( -1.224646799147353454E-16, -0.0000000000000000000, -1.000000000000000000 ) ) ;
#144 = LINE ( 'NONE', #276, #41 ) ;
#145 = SURFACE_STYLE_USAGE ( .BOTH. , #218 ) ;
#146 = CONICAL_SURFACE ( 'NONE', #182, 0.04750000000000064587, 0.7853981633974466137 ) ;
#147 = CARTESIAN_POINT ( 'NONE',  ( 4.408728476930471799E-18, 0.0000000000000000000, 0.03599999999999999728 ) ) ;
#148 = MECHANICAL_DESIGN_GEOMETRIC_PRESENTATION_REPRESENTATION (  '', ( #290 ), #50 ) ;
#149 = ORIENTED_EDGE ( 'NONE', *, *, #137, .T. ) ;
#150 = EDGE_LOOP ( 'NONE', ( #219, #38, #259, #101 ) ) ;
#151 = ORIENTED_EDGE ( 'NONE', *, *, #72, .T. ) ;
#152 = EDGE_CURVE ( 'NONE', #97, #129, #215, .T. ) ;
#153 = AXIS2_PLACEMENT_3D ( 'NONE', #12, #61, #77 ) ;
#154 = ORIENTED_EDGE ( 'NONE', *, *, #23, .F. ) ;
#155 = DIMENSIONAL_EXPONENTS ( 1.000000000000000000, 0.0000000000000000000, 0.0000000000000000000, 0.0000000000000000000, 0.0000000000000000000, 0.0000000000000000000, 0.0000000000000000000 ) ;
#156 = ORIENTED_EDGE ( 'NONE', *, *, #214, .T. ) ;
#157 = CARTESIAN_POINT ( 'NONE',  ( -0.005993999999999994992, 7.340532914089234300E-19, 0.03599999999999999728 ) ) ;
#158 = EDGE_CURVE ( 'NONE', #174, #97, #88, .T. ) ;
#159 = DIRECTION ( 'NONE',  ( -1.224646799147353454E-16, -0.0000000000000000000, -1.000000000000000000 ) ) ;
#160 = CONICAL_SURFACE ( 'NONE', #21, 0.04750000000000064587, 0.7853981633974466137 ) ;
#161 = CARTESIAN_POINT ( 'NONE',  ( 0.005994000000000003665, 7.340532914089238152E-19, -1.184750211852384294E-34 ) ) ;
#162 = CARTESIAN_POINT ( 'NONE',  ( 0.0000000000000000000, 0.0000000000000000000, 1.500000000000000222 ) ) ;
#163 = EDGE_CURVE ( 'NONE', #81, #36, #247, .T. ) ;
#164 = PRESENTATION_LAYER_ASSIGNMENT (  '', '', ( #290 ) ) ;
#165 =( CONVERSION_BASED_UNIT ( 'INCH', #93 ) LENGTH_UNIT ( ) NAMED_UNIT ( #155 ) );
#166 = DIRECTION ( 'NONE',  ( -1.224646799147353454E-16, -0.0000000000000000000, -1.000000000000000000 ) ) ;
#167 = CLOSED_SHELL ( 'NONE', ( #47, #286, #206, #119, #52, #178, #265, #172, #209, #272 ) ) ;
#168 = ORIENTED_EDGE ( 'NONE', *, *, #98, .T. ) ;
#169 = AXIS2_PLACEMENT_3D ( 'NONE', #27, #166, #94 ) ;
#170 = ORIENTED_EDGE ( 'NONE', *, *, #233, .F. ) ;
#171 = ORIENTED_EDGE ( 'NONE', *, *, #228, .F. ) ;
#172 = ADVANCED_FACE ( 'NONE', ( #207 ), #289, .T. ) ;
#173 = DIRECTION ( 'NONE',  ( 0.0000000000000000000, 0.0000000000000000000, 1.000000000000000000 ) ) ;
#174 = VERTEX_POINT ( 'NONE', #296 ) ;
#175 = AXIS2_PLACEMENT_3D ( 'NONE', #133, #225, #271 ) ;
#176 = COLOUR_RGB ( '',0.7921568627450980005, 0.8196078431372548767, 0.9333333333333333481 ) ;
#177 = ORIENTED_EDGE ( 'NONE', *, *, #214, .F. ) ;
#178 = ADVANCED_FACE ( 'NONE', ( #179 ), #226, .T. ) ;
#179 = FACE_OUTER_BOUND ( 'NONE', #199, .T. ) ;
#180 = CARTESIAN_POINT ( 'NONE',  ( 8.989560137275184424E-35, 0.0000000000000000000, 7.340532914089242004E-19 ) ) ;
#181 = DIRECTION ( 'NONE',  ( -1.000000000000000000, 0.0000000000000000000, 0.0000000000000000000 ) ) ;
#182 = AXIS2_PLACEMENT_3D ( 'NONE', #114, #29, #141 ) ;
#183 = DIRECTION ( 'NONE',  ( 1.000000000000000000, 0.0000000000000000000, 0.0000000000000000000 ) ) ;
#184 = EDGE_CURVE ( 'NONE', #100, #36, #48, .T. ) ;
#185 = CARTESIAN_POINT ( 'NONE',  ( -0.06250000000000002776, 0.0000000000000000000, 1.485000000000000764 ) ) ;
#186 = FACE_OUTER_BOUND ( 'NONE', #124, .T. ) ;
#187 = CIRCLE ( 'NONE', #95, 0.04750000000000064587 ) ;
#188 =( NAMED_UNIT ( * ) SI_UNIT ( $, .STERADIAN. ) SOLID_ANGLE_UNIT ( ) );
#189 = CARTESIAN_POINT ( 'NONE',  ( -0.06250000000000002776, 0.0000000000000000000, 1.500000000000000222 ) ) ;
#190 = CIRCLE ( 'NONE', #175, 0.06250000000000002776 ) ;
#191 = CIRCLE ( 'NONE', #283, 0.005994000000000003665 ) ;
#192 =( GEOMETRIC_REPRESENTATION_CONTEXT ( 3 ) GLOBAL_UNCERTAINTY_ASSIGNED_CONTEXT ( ( #197 ) ) GLOBAL_UNIT_ASSIGNED_CONTEXT ( ( #30, #200, #105 ) ) REPRESENTATION_CONTEXT ( 'NONE', 'WORKASPACE' ) );
#193 = DIRECTION ( 'NONE',  ( -1.224646799147353454E-16, -0.0000000000000000000, -1.000000000000000000 ) ) ;
#194 = VERTEX_POINT ( 'NONE', #277 ) ;
#195 =( CONVERSION_BASED_UNIT ( 'INCH', #238 ) LENGTH_UNIT ( ) NAMED_UNIT ( #104 ) );
#196 = LINE ( 'NONE', #157, #73 ) ;
#197 = UNCERTAINTY_MEASURE_WITH_UNIT (LENGTH_MEASURE( 1.000000000000000082E-05 ), #30, 'distance_accuracy_value', 'NONE');
#198 = ORIENTED_EDGE ( 'NONE', *, *, #228, .T. ) ;
#199 = EDGE_LOOP ( 'NONE', ( #151, #149 ) ) ;
#200 =( NAMED_UNIT ( * ) PLANE_ANGLE_UNIT ( ) SI_UNIT ( $, .RADIAN. ) );
#201 = ORIENTED_EDGE ( 'NONE', *, *, #251, .F. ) ;
#202 = CARTESIAN_POINT ( 'NONE',  ( 0.0000000000000000000, 0.0000000000000000000, 1.500000000000000222 ) ) ;
#203 = CARTESIAN_POINT ( 'NONE',  ( 0.04750000000000064587, 5.817072295950006528E-18, 1.500000000000000222 ) ) ;
#204 = CARTESIAN_POINT ( 'NONE',  ( -0.005994000000000003665, 0.0000000000000000000, 1.468106582817848401E-18 ) ) ;
#205 = CYLINDRICAL_SURFACE ( 'NONE', #138, 0.06250000000000002776 ) ;
#206 = ADVANCED_FACE ( 'NONE', ( #69 ), #146, .T. ) ;
#207 = FACE_OUTER_BOUND ( 'NONE', #284, .T. ) ;
#208 = FACE_OUTER_BOUND ( 'NONE', #150, .T. ) ;
#209 = ADVANCED_FACE ( 'NONE', ( #186 ), #91, .T. ) ;
#210 = CIRCLE ( 'NONE', #245, 0.005993999999999999329 ) ;
#211 = AXIS2_PLACEMENT_3D ( 'NONE', #263, #173, #287 ) ;
#212 =( NAMED_UNIT ( * ) PLANE_ANGLE_UNIT ( ) SI_UNIT ( $, .RADIAN. ) );
#213 = CARTESIAN_POINT ( 'NONE',  ( 0.04750000000000064587, 6.735557395310483192E-18, 1.500000000000000222 ) ) ;
#214 = EDGE_CURVE ( 'NONE', #174, #131, #269, .T. ) ;
#215 = CIRCLE ( 'NONE', #128, 0.005994000000000003665 ) ;
#216 = FILL_AREA_STYLE_COLOUR ( '', #123 ) ;
#217 = ORIENTED_EDGE ( 'NONE', *, *, #80, .F. ) ;
#218 = SURFACE_SIDE_STYLE ('',( #5 ) ) ;
#219 = ORIENTED_EDGE ( 'NONE', *, *, #98, .F. ) ;
#220 = ORIENTED_EDGE ( 'NONE', *, *, #292, .T. ) ;
#221 = ORIENTED_EDGE ( 'NONE', *, *, #26, .F. ) ;
#222 = DIRECTION ( 'NONE',  ( -0.1736481776669311639, 2.126576849575783008E-17, 0.9848077530122080203 ) ) ;
#223 = CIRCLE ( 'NONE', #142, 0.04750000000000064587 ) ;
#224 = CARTESIAN_POINT ( 'NONE',  ( 0.0000000000000000000, 0.0000000000000000000, 1.500000000000000222 ) ) ;
#225 = DIRECTION ( 'NONE',  ( -1.224646799147353454E-16, -0.0000000000000000000, -1.000000000000000000 ) ) ;
#226 = PLANE ( 'NONE',  #299 ) ;
#227 = CARTESIAN_POINT ( 'NONE',  ( 4.408728476930471799E-18, 0.0000000000000000000, 0.03599999999999999728 ) ) ;
#228 = EDGE_CURVE ( 'NONE', #131, #36, #144, .T. ) ;
#229 = DIRECTION ( 'NONE',  ( 1.000000000000000000, 0.0000000000000000000, 0.0000000000000000000 ) ) ;
#230 = MECHANICAL_DESIGN_GEOMETRIC_PRESENTATION_REPRESENTATION (  '', ( #240 ), #254 ) ;
#231 = FILL_AREA_STYLE_COLOUR ( '', #176 ) ;
#232 = DIRECTION ( 'NONE',  ( -1.000000000000000000, 0.0000000000000000000, 0.0000000000000000000 ) ) ;
#233 = EDGE_CURVE ( 'NONE', #34, #100, #115, .T. ) ;
#234 =( LENGTH_UNIT ( ) NAMED_UNIT ( * ) SI_UNIT ( $, .METRE. ) );
#235 = AXIS2_PLACEMENT_3D ( 'NONE', #135, #159, #113 ) ;
#236 = VERTEX_POINT ( 'NONE', #213 ) ;
#237 = PRODUCT ( 'Micro_RME-012-2', 'Micro_RME-012-2', '', ( #108 ) ) ;
#238 = LENGTH_MEASURE_WITH_UNIT ( LENGTH_MEASURE( 0.02539999999999999897 ), #10 );
#239 = ORIENTED_EDGE ( 'NONE', *, *, #26, .T. ) ;
#240 = STYLED_ITEM ( 'NONE', ( #117 ), #257 ) ;
#241 = CARTESIAN_POINT ( 'NONE',  ( 0.0000000000000000000, 0.0000000000000000000, 1.485000000000000764 ) ) ;
#242 = ORIENTED_EDGE ( 'NONE', *, *, #137, .F. ) ;
#243 = CYLINDRICAL_SURFACE ( 'NONE', #121, 0.06250000000000002776 ) ;
#244 = DIRECTION ( 'NONE',  ( -0.0000000000000000000, -0.0000000000000000000, -1.000000000000000000 ) ) ;
#245 = AXIS2_PLACEMENT_3D ( 'NONE', #227, #70, #96 ) ;
#246 = CARTESIAN_POINT ( 'NONE',  ( -0.04750000000000064587, 0.0000000000000000000, 1.500000000000000222 ) ) ;
#247 = LINE ( 'NONE', #87, #250 ) ;
#248 = DIRECTION ( 'NONE',  ( 0.0000000000000000000, 0.0000000000000000000, 1.000000000000000000 ) ) ;
#249 = PRODUCT_DEFINITION_CONTEXT ( 'detailed design', #58, 'design' ) ;
#250 = VECTOR ( 'NONE', #268, 39.37007874015748143 ) ;
#251 = EDGE_CURVE ( 'NONE', #131, #174, #210, .T. ) ;
#252 = FACE_OUTER_BOUND ( 'NONE', #285, .T. ) ;
#253 = SURFACE_SIDE_STYLE ('',( #118 ) ) ;
#254 =( GEOMETRIC_REPRESENTATION_CONTEXT ( 3 ) GLOBAL_UNCERTAINTY_ASSIGNED_CONTEXT ( ( #92 ) ) GLOBAL_UNIT_ASSIGNED_CONTEXT ( ( #165, #212, #188 ) ) REPRESENTATION_CONTEXT ( 'NONE', 'WORKASPACE' ) );
#255 = EDGE_CURVE ( 'NONE', #131, #129, #49, .T. ) ;
#256 = DIRECTION ( 'NONE',  ( -1.000000000000000000, 0.0000000000000000000, 1.224646799147353700E-16 ) ) ;
#257 = MANIFOLD_SOLID_BREP ( 'Cut-Revolve1', #167 ) ;
#258 =( NAMED_UNIT ( * ) PLANE_ANGLE_UNIT ( ) SI_UNIT ( $, .RADIAN. ) );
#259 = ORIENTED_EDGE ( 'NONE', *, *, #59, .T. ) ;
#260 = EDGE_CURVE ( 'NONE', #129, #97, #191, .T. ) ;
#261 = AXIS2_PLACEMENT_3D ( 'NONE', #43, #82, #183 ) ;
#262 = ORIENTED_EDGE ( 'NONE', *, *, #255, .T. ) ;
#263 = CARTESIAN_POINT ( 'NONE',  ( 0.0000000000000000000, 0.0000000000000000000, 0.0000000000000000000 ) ) ;
#264 = AXIS2_PLACEMENT_3D ( 'NONE', #66, #273, #294 ) ;
#265 = ADVANCED_FACE ( 'NONE', ( #208 ), #160, .T. ) ;
#266 = ORIENTED_EDGE ( 'NONE', *, *, #152, .F. ) ;
#267 = CARTESIAN_POINT ( 'NONE',  ( 0.0000000000000000000, 0.0000000000000000000, 1.500000000000000222 ) ) ;
#268 = DIRECTION ( 'NONE',  ( -0.0000000000000000000, -0.0000000000000000000, -1.000000000000000000 ) ) ;
#269 = CIRCLE ( 'NONE', #169, 0.005993999999999999329 ) ;
#270 = DIRECTION ( 'NONE',  ( -1.000000000000000000, 0.0000000000000000000, 1.224646799147353700E-16 ) ) ;
#271 = DIRECTION ( 'NONE',  ( 1.000000000000000000, 0.0000000000000000000, 0.0000000000000000000 ) ) ;
#272 = ADVANCED_FACE ( 'NONE', ( #252 ), #46, .F. ) ;
#273 = DIRECTION ( 'NONE',  ( 0.0000000000000000000, 0.0000000000000000000, -1.000000000000000000 ) ) ;
#274 = DIRECTION ( 'NONE',  ( 0.1736481776669313581, 0.0000000000000000000, 0.9848077530122077983 ) ) ;
#275 = AXIS2_PLACEMENT_3D ( 'NONE', #24, #279, #229 ) ;
#276 = CARTESIAN_POINT ( 'NONE',  ( 0.005994000000000003665, 0.0000000000000000000, 0.03599999999999999728 ) ) ;
#277 = CARTESIAN_POINT ( 'NONE',  ( -0.04750000000000064587, 0.0000000000000000000, 1.500000000000000222 ) ) ;
#278 = CARTESIAN_POINT ( 'NONE',  ( 0.005994000000000001931, 7.340532914089237189E-19, -7.340532914089238152E-19 ) ) ;
#279 = DIRECTION ( 'NONE',  ( -1.224646799147353454E-16, -0.0000000000000000000, -1.000000000000000000 ) ) ;
#280 = ORIENTED_EDGE ( 'NONE', *, *, #152, .T. ) ;
#281 = FILL_AREA_STYLE ('',( #216 ) ) ;
#282 = ORIENTED_EDGE ( 'NONE', *, *, #158, .F. ) ;
#283 = AXIS2_PLACEMENT_3D ( 'NONE', #71, #143, #256 ) ;
#284 = EDGE_LOOP ( 'NONE', ( #154, #201, #198, #239 ) ) ;
#285 = EDGE_LOOP ( 'NONE', ( #280, #32 ) ) ;
#286 = ADVANCED_FACE ( 'NONE', ( #35 ), #86, .T. ) ;
#287 = DIRECTION ( 'NONE',  ( 1.000000000000000000, 0.0000000000000000000, 0.0000000000000000000 ) ) ;
#288 = ORIENTED_EDGE ( 'NONE', *, *, #163, .F. ) ;
#289 = CONICAL_SURFACE ( 'NONE', #261, 0.005993999999999999329, 0.1745329251994338637 ) ;
#290 = STYLED_ITEM ( 'NONE', ( #122 ), #84 ) ;
#291 = DIRECTION ( 'NONE',  ( -0.0000000000000000000, -0.0000000000000000000, -1.000000000000000000 ) ) ;
#292 = EDGE_CURVE ( 'NONE', #81, #34, #28, .T. ) ;
#293 = DIRECTION ( 'NONE',  ( -1.224646799147353454E-16, -0.0000000000000000000, -1.000000000000000000 ) ) ;
#294 = DIRECTION ( 'NONE',  ( 1.000000000000000000, 0.0000000000000000000, 0.0000000000000000000 ) ) ;
#295 = DIRECTION ( 'NONE',  ( -1.224646799147353454E-16, -0.0000000000000000000, -1.000000000000000000 ) ) ;
#296 = CARTESIAN_POINT ( 'NONE',  ( -0.005993999999999994992, 4.194047893039942847E-18, 0.03599999999999999728 ) ) ;
#297 = CARTESIAN_POINT ( 'NONE',  ( 0.0000000000000000000, 0.0000000000000000000, 1.500000000000000222 ) ) ;
#298 =( LENGTH_UNIT ( ) NAMED_UNIT ( * ) SI_UNIT ( $, .METRE. ) );
#299 = AXIS2_PLACEMENT_3D ( 'NONE', #267, #64, #1 ) ;
ENDSEC;
END-ISO-10303-21;
