ISO-10303-21;
HEADER;
FILE_DESCRIPTION (( 'STEP AP214' ),
    '1' );
FILE_NAME ('49255.STEP',
    '2023-06-30T21:59:06',
    ( '' ),
    ( '' ),
    'SwSTEP 2.0',
    'SolidWorks 2023',
    '' );
FILE_SCHEMA (( 'AUTOMOTIVE_DESIGN' ));
ENDSEC;

DATA;
#1 = VECTOR ( 'NONE', #225, 39.37007874015748143 ) ;
#2 = VERTEX_POINT ( 'NONE', #71 ) ;
#3 = ORIENTED_EDGE ( 'NONE', *, *, #66, .F. ) ;
#4 = EDGE_LOOP ( 'NONE', ( #240, #324, #348, #204 ) ) ;
#5 = CYLINDRICAL_SURFACE ( 'NONE', #26, 0.2499999999999999722 ) ;
#6 = MECHANICAL_DESIGN_GEOMETRIC_PRESENTATION_REPRESENTATION (  '', ( #194 ), #242 ) ;
#7 = SURFACE_STYLE_USAGE ( .BOTH. , #95 ) ;
#8 = DIRECTION ( 'NONE',  ( -0.000000000000000000, -1.000000000000000000, -0.000000000000000000 ) ) ;
#9 = FILL_AREA_STYLE ('',( #277 ) ) ;
#10 = CIRCLE ( 'NONE', #332, 0.2500000000000000000 ) ;
#11 =( NAMED_UNIT ( * ) SI_UNIT ( $, .STERADIAN. ) SOLID_ANGLE_UNIT ( ) );
#12 = DIRECTION ( 'NONE',  ( -1.000000000000000000, -1.229331597148918448E-16, 0.000000000000000000 ) ) ;
#13 = EDGE_CURVE ( 'NONE', #347, #90, #112, .T. ) ;
#14 =( CONVERSION_BASED_UNIT ( 'INCH', #17 ) LENGTH_UNIT ( ) NAMED_UNIT ( #19 ) );
#15 =( LENGTH_UNIT ( ) NAMED_UNIT ( * ) SI_UNIT ( $, .METRE. ) );
#16 = PRESENTATION_LAYER_ASSIGNMENT (  '', '', ( #363 ) ) ;
#17 = LENGTH_MEASURE_WITH_UNIT ( LENGTH_MEASURE( 0.02539999999999999897 ), #315 );
#18 = DIRECTION ( 'NONE',  ( -1.000000000000000000, 0.000000000000000000, 0.000000000000000000 ) ) ;
#19 = DIMENSIONAL_EXPONENTS ( 1.000000000000000000, 0.000000000000000000, 0.000000000000000000, 0.000000000000000000, 0.000000000000000000, 0.000000000000000000, 0.000000000000000000 ) ;
#20 = CARTESIAN_POINT ( 'NONE',  ( -0.2499999999999992228, 0.6250000000000000000, 0.000000000000000000 ) ) ;
#21 = EDGE_CURVE ( 'NONE', #120, #268, #350, .T. ) ;
#22 = DIRECTION ( 'NONE',  ( -0.000000000000000000, -1.000000000000000000, -0.000000000000000000 ) ) ;
#23 = APPLICATION_PROTOCOL_DEFINITION ( 'draft international standard', 'automotive_design', 1998, #43 ) ;
#24 = CARTESIAN_POINT ( 'NONE',  ( 3.061616997868383634E-17, 0.2500000000000000555, 0.2500000000000000555 ) ) ;
#25 =( GEOMETRIC_REPRESENTATION_CONTEXT ( 3 ) GLOBAL_UNCERTAINTY_ASSIGNED_CONTEXT ( ( #197 ) ) GLOBAL_UNIT_ASSIGNED_CONTEXT ( ( #336, #274, #129 ) ) REPRESENTATION_CONTEXT ( 'NONE', 'WORKASPACE' ) );
#26 = AXIS2_PLACEMENT_3D ( 'NONE', #42, #8, #126 ) ;
#27 = DIRECTION ( 'NONE',  ( 0.000000000000000000, 0.000000000000000000, -1.000000000000000000 ) ) ;
#28 = ORIENTED_EDGE ( 'NONE', *, *, #237, .F. ) ;
#29 = EDGE_CURVE ( 'NONE', #176, #373, #320, .T. ) ;
#30 = DIRECTION ( 'NONE',  ( -0.000000000000000000, -1.000000000000000000, -0.000000000000000000 ) ) ;
#31 = EDGE_LOOP ( 'NONE', ( #231, #122, #63, #3 ) ) ;
#32 = AXIS2_PLACEMENT_3D ( 'NONE', #257, #230, #224 ) ;
#33 = CIRCLE ( 'NONE', #143, 0.2500000000000000000 ) ;
#34 = ORIENTED_EDGE ( 'NONE', *, *, #304, .F. ) ;
#35 = PRODUCT_RELATED_PRODUCT_CATEGORY ( 'part', '', ( #355 ) ) ;
#36 = DIRECTION ( 'NONE',  ( -0.000000000000000000, -1.000000000000000000, -0.000000000000000000 ) ) ;
#37 = ORIENTED_EDGE ( 'NONE', *, *, #155, .T. ) ;
#38 = AXIS2_PLACEMENT_3D ( 'NONE', #372, #236, #207 ) ;
#39 = SURFACE_STYLE_FILL_AREA ( #9 ) ;
#40 = AXIS2_PLACEMENT_3D ( 'NONE', #339, #159, #365 ) ;
#41 = ADVANCED_FACE ( 'NONE', ( #115 ), #202, .T. ) ;
#42 = CARTESIAN_POINT ( 'NONE',  ( 0.000000000000000000, 0.000000000000000000, 0.000000000000000000 ) ) ;
#43 = APPLICATION_CONTEXT ( 'automotive_design' ) ;
#44 = SURFACE_STYLE_FILL_AREA ( #301 ) ;
#45 = SURFACE_STYLE_FILL_AREA ( #183 ) ;
#46 = LENGTH_MEASURE_WITH_UNIT ( LENGTH_MEASURE( 0.02539999999999999897 ), #217 );
#47 = COLOUR_RGB ( '',1.000000000000000000, 0.000000000000000000, 0.000000000000000000 ) ;
#48 = SURFACE_SIDE_STYLE ('',( #44 ) ) ;
#49 = SURFACE_SIDE_STYLE ('',( #45 ) ) ;
#50 = DIRECTION ( 'NONE',  ( 0.000000000000000000, 0.000000000000000000, -1.000000000000000000 ) ) ;
#51 = CARTESIAN_POINT ( 'NONE',  ( 0.000000000000000000, 0.2500000000000000555, 0.000000000000000000 ) ) ;
#52 = CARTESIAN_POINT ( 'NONE',  ( 3.529643543801575483E-16, 0.6250000000000000000, 0.000000000000000000 ) ) ;
#53 = STYLED_ITEM ( 'NONE', ( #130 ), #41 ) ;
#54 = CIRCLE ( 'NONE', #119, 0.2499999999999995559 ) ;
#55 = ADVANCED_FACE ( 'NONE', ( #272 ), #184, .F. ) ;
#56 = DIRECTION ( 'NONE',  ( -1.229331597148918448E-16, 1.000000000000000000, -0.000000000000000000 ) ) ;
#57 = PRODUCT_DEFINITION_CONTEXT ( 'detailed design', #181, 'design' ) ;
#58 = DIRECTION ( 'NONE',  ( -1.229331597148918448E-16, 1.000000000000000000, -0.000000000000000000 ) ) ;
#59 = PRESENTATION_LAYER_ASSIGNMENT (  '', '', ( #93 ) ) ;
#60 = AXIS2_PLACEMENT_3D ( 'NONE', #291, #164, #287 ) ;
#61 = PRESENTATION_STYLE_ASSIGNMENT (( #200 ) ) ;
#62 = EDGE_LOOP ( 'NONE', ( #266, #210 ) ) ;
#63 = ORIENTED_EDGE ( 'NONE', *, *, #106, .T. ) ;
#64 =( CONVERSION_BASED_UNIT ( 'INCH', #206 ) LENGTH_UNIT ( ) NAMED_UNIT ( #312 ) );
#65 = ORIENTED_EDGE ( 'NONE', *, *, #66, .T. ) ;
#66 = EDGE_CURVE ( 'NONE', #294, #2, #313, .T. ) ;
#67 = AXIS2_PLACEMENT_3D ( 'NONE', #108, #56, #289 ) ;
#68 =( GEOMETRIC_REPRESENTATION_CONTEXT ( 3 ) GLOBAL_UNCERTAINTY_ASSIGNED_CONTEXT ( ( #264 ) ) GLOBAL_UNIT_ASSIGNED_CONTEXT ( ( #229, #161, #168 ) ) REPRESENTATION_CONTEXT ( 'NONE', 'WORKASPACE' ) );
#69 = MANIFOLD_SOLID_BREP ( 'Revolve - Cutting Edge', #307 ) ;
#70 = FACE_OUTER_BOUND ( 'NONE', #299, .T. ) ;
#71 = CARTESIAN_POINT ( 'NONE',  ( -0.2499999999999996669, 2.500000000000000000, 0.000000000000000000 ) ) ;
#72 = ORIENTED_EDGE ( 'NONE', *, *, #232, .T. ) ;
#73 = DIMENSIONAL_EXPONENTS ( 1.000000000000000000, 0.000000000000000000, 0.000000000000000000, 0.000000000000000000, 0.000000000000000000, 0.000000000000000000, 0.000000000000000000 ) ;
#74 =( LENGTH_UNIT ( ) NAMED_UNIT ( * ) SI_UNIT ( $, .METRE. ) );
#75 = MECHANICAL_DESIGN_GEOMETRIC_PRESENTATION_REPRESENTATION (  '', ( #165 ), #25 ) ;
#76 =( CONVERSION_BASED_UNIT ( 'INCH', #180 ) LENGTH_UNIT ( ) NAMED_UNIT ( #241 ) );
#77 = FILL_AREA_STYLE_COLOUR ( '', #262 ) ;
#78 = FILL_AREA_STYLE_COLOUR ( '', #314 ) ;
#79 = SURFACE_STYLE_USAGE ( .BOTH. , #49 ) ;
#80 = CARTESIAN_POINT ( 'NONE',  ( 0.000000000000000000, 0.6250000000000000000, -0.2499999999999999167 ) ) ;
#81 = LINE ( 'NONE', #111, #1 ) ;
#82 = DIRECTION ( 'NONE',  ( -0.000000000000000000, -1.000000000000000000, -0.000000000000000000 ) ) ;
#83 = DIRECTION ( 'NONE',  ( -1.229331597148918448E-16, 1.000000000000000000, -0.000000000000000000 ) ) ;
#84 = CARTESIAN_POINT ( 'NONE',  ( -0.2500000000000000000, 0.2500000000000000555, 3.061616997868382402E-17 ) ) ;
#85 = FACE_OUTER_BOUND ( 'NONE', #31, .T. ) ;
#86 = CARTESIAN_POINT ( 'NONE',  ( 3.061616997868382402E-17, 0.6250000000000000000, 0.2499999999999999167 ) ) ;
#87 = ADVANCED_FACE ( 'NONE', ( #306 ), #338, .T. ) ;
#88 = FACE_OUTER_BOUND ( 'NONE', #4, .T. ) ;
#89 = CARTESIAN_POINT ( 'NONE',  ( 0.000000000000000000, 0.2500000000000000555, 0.000000000000000000 ) ) ;
#90 = VERTEX_POINT ( 'NONE', #135 ) ;
#91 = ORIENTED_EDGE ( 'NONE', *, *, #21, .F. ) ;
#92 = EDGE_LOOP ( 'NONE', ( #142, #295 ) ) ;
#93 = STYLED_ITEM ( 'NONE', ( #247 ), #87 ) ;
#94 = DIRECTION ( 'NONE',  ( 0.000000000000000000, 0.000000000000000000, -1.000000000000000000 ) ) ;
#95 = SURFACE_SIDE_STYLE ('',( #252 ) ) ;
#96 =( NAMED_UNIT ( * ) PLANE_ANGLE_UNIT ( ) SI_UNIT ( $, .RADIAN. ) );
#97 = AXIS2_PLACEMENT_3D ( 'NONE', #154, #359, #189 ) ;
#98 = DIRECTION ( 'NONE',  ( 1.224646799147353207E-16, -0.000000000000000000, 1.000000000000000000 ) ) ;
#99 = CIRCLE ( 'NONE', #249, 0.2500000000000000000 ) ;
#100 = LENGTH_MEASURE_WITH_UNIT ( LENGTH_MEASURE( 0.02539999999999999897 ), #74 );
#101 = UNCERTAINTY_MEASURE_WITH_UNIT (LENGTH_MEASURE( 1.000000000000000082E-05 ), #64, 'distance_accuracy_value', 'NONE');
#102 = APPLICATION_PROTOCOL_DEFINITION ( 'draft international standard', 'automotive_design', 1998, #181 ) ;
#103 =( LENGTH_UNIT ( ) NAMED_UNIT ( * ) SI_UNIT ( $, .METRE. ) );
#104 = CIRCLE ( 'NONE', #134, 0.2499999999999998057 ) ;
#105 =( LENGTH_UNIT ( ) NAMED_UNIT ( * ) SI_UNIT ( $, .METRE. ) );
#106 = EDGE_CURVE ( 'NONE', #347, #2, #259, .T. ) ;
#107 = DIRECTION ( 'NONE',  ( -1.229331597148918448E-16, 1.000000000000000000, 0.000000000000000000 ) ) ;
#108 = CARTESIAN_POINT ( 'NONE',  ( 1.224646799147353207E-16, 2.500000000000000000, 0.000000000000000000 ) ) ;
#109 = UNCERTAINTY_MEASURE_WITH_UNIT (LENGTH_MEASURE( 1.000000000000000082E-05 ), #162, 'distance_accuracy_value', 'NONE');
#110 = PRESENTATION_STYLE_ASSIGNMENT (( #79 ) ) ;
#111 = CARTESIAN_POINT ( 'NONE',  ( 0.2499999999999998335, 2.500000000000000000, 3.061616997868379320E-17 ) ) ;
#112 = CIRCLE ( 'NONE', #38, 0.2499999999999995559 ) ;
#113 = CIRCLE ( 'NONE', #40, 0.2499999999999999167 ) ;
#114 = LENGTH_MEASURE_WITH_UNIT ( LENGTH_MEASURE( 0.02539999999999999897 ), #15 );
#115 = FACE_OUTER_BOUND ( 'NONE', #92, .T. ) ;
#116 = CARTESIAN_POINT ( 'NONE',  ( 0.000000000000000000, 0.2500000000000000555, -0.2500000000000000000 ) ) ;
#117 = VERTEX_POINT ( 'NONE', #86 ) ;
#118 =( GEOMETRIC_REPRESENTATION_CONTEXT ( 3 ) GLOBAL_UNCERTAINTY_ASSIGNED_CONTEXT ( ( #258 ) ) GLOBAL_UNIT_ASSIGNED_CONTEXT ( ( #76, #158, #354 ) ) REPRESENTATION_CONTEXT ( 'NONE', 'WORKASPACE' ) );
#119 = AXIS2_PLACEMENT_3D ( 'NONE', #52, #171, #166 ) ;
#120 = VERTEX_POINT ( 'NONE', #80 ) ;
#121 = ORIENTED_EDGE ( 'NONE', *, *, #209, .T. ) ;
#122 = ORIENTED_EDGE ( 'NONE', *, *, #190, .T. ) ;
#123 = MECHANICAL_DESIGN_GEOMETRIC_PRESENTATION_REPRESENTATION (  '', ( #261 ), #308 ) ;
#124 = DIRECTION ( 'NONE',  ( 1.000000000000000000, 0.000000000000000000, 0.000000000000000000 ) ) ;
#125 = PRESENTATION_STYLE_ASSIGNMENT (( #7 ) ) ;
#126 = DIRECTION ( 'NONE',  ( 0.000000000000000000, 0.000000000000000000, -1.000000000000000000 ) ) ;
#127 = SURFACE_STYLE_USAGE ( .BOTH. , #48 ) ;
#128 = CIRCLE ( 'NONE', #346, 0.2499999999999999167 ) ;
#129 =( NAMED_UNIT ( * ) SI_UNIT ( $, .STERADIAN. ) SOLID_ANGLE_UNIT ( ) );
#130 = PRESENTATION_STYLE_ASSIGNMENT (( #303 ) ) ;
#131 =( NAMED_UNIT ( * ) PLANE_ANGLE_UNIT ( ) SI_UNIT ( $, .RADIAN. ) );
#132 = CARTESIAN_POINT ( 'NONE',  ( 0.000000000000000000, 0.6250000000000000000, 0.000000000000000000 ) ) ;
#133 = CARTESIAN_POINT ( 'NONE',  ( -3.061616997868383018E-17, 0.2500000000000000000, 0.000000000000000000 ) ) ;
#134 = AXIS2_PLACEMENT_3D ( 'NONE', #227, #83, #169 ) ;
#135 = CARTESIAN_POINT ( 'NONE',  ( 0.2499999999999999167, 0.6250000000000000000, 3.061616997868379936E-17 ) ) ;
#136 = MECHANICAL_DESIGN_GEOMETRIC_PRESENTATION_REPRESENTATION (  '', ( #215 ), #68 ) ;
#137 = CYLINDRICAL_SURFACE ( 'NONE', #67, 0.2499999999999996947 ) ;
#138 = CARTESIAN_POINT ( 'NONE',  ( 3.061616997868382402E-17, 0.000000000000000000, 0.2499999999999999722 ) ) ;
#139 =( NAMED_UNIT ( * ) PLANE_ANGLE_UNIT ( ) SI_UNIT ( $, .RADIAN. ) );
#140 = CARTESIAN_POINT ( 'NONE',  ( -3.061616997868383018E-17, 0.2500000000000000000, 0.000000000000000000 ) ) ;
#141 = ORIENTED_EDGE ( 'NONE', *, *, #106, .F. ) ;
#142 = ORIENTED_EDGE ( 'NONE', *, *, #232, .F. ) ;
#143 = AXIS2_PLACEMENT_3D ( 'NONE', #342, #82, #222 ) ;
#144 =( NAMED_UNIT ( * ) SI_UNIT ( $, .STERADIAN. ) SOLID_ANGLE_UNIT ( ) );
#145 = ORIENTED_EDGE ( 'NONE', *, *, #29, .F. ) ;
#146 = SURFACE_STYLE_FILL_AREA ( #203 ) ;
#147 = DIRECTION ( 'NONE',  ( -0.000000000000000000, -1.000000000000000000, -0.000000000000000000 ) ) ;
#148 = SURFACE_STYLE_FILL_AREA ( #337 ) ;
#149 = ADVANCED_FACE ( 'NONE', ( #343 ), #283, .T. ) ;
#150 = AXIS2_PLACEMENT_3D ( 'NONE', #275, #331, #360 ) ;
#151 = COLOUR_RGB ( '',1.000000000000000000, 0.000000000000000000, 0.000000000000000000 ) ;
#152 = FILL_AREA_STYLE_COLOUR ( '', #362 ) ;
#153 = FILL_AREA_STYLE_COLOUR ( '', #357 ) ;
#154 = CARTESIAN_POINT ( 'NONE',  ( 1.224646799147353207E-16, 2.500000000000000000, 0.000000000000000000 ) ) ;
#155 = EDGE_CURVE ( 'NONE', #90, #294, #81, .T. ) ;
#156 = PRESENTATION_LAYER_ASSIGNMENT (  '', '', ( #261 ) ) ;
#157 = CARTESIAN_POINT ( 'NONE',  ( -3.061616997868383018E-17, 0.2500000000000000000, 0.000000000000000000 ) ) ;
#158 =( NAMED_UNIT ( * ) PLANE_ANGLE_UNIT ( ) SI_UNIT ( $, .RADIAN. ) );
#159 = DIRECTION ( 'NONE',  ( -0.000000000000000000, -1.000000000000000000, -0.000000000000000000 ) ) ;
#160 = UNCERTAINTY_MEASURE_WITH_UNIT (LENGTH_MEASURE( 1.000000000000000082E-05 ), #244, 'distance_accuracy_value', 'NONE');
#161 =( NAMED_UNIT ( * ) PLANE_ANGLE_UNIT ( ) SI_UNIT ( $, .RADIAN. ) );
#162 =( CONVERSION_BASED_UNIT ( 'INCH', #114 ) LENGTH_UNIT ( ) NAMED_UNIT ( #73 ) );
#163 = PRODUCT_DEFINITION ( 'UNKNOWN', '', #273, #57 ) ;
#164 = DIRECTION ( 'NONE',  ( 0.000000000000000000, 0.000000000000000000, 1.000000000000000000 ) ) ;
#165 = STYLED_ITEM ( 'NONE', ( #218 ), #284 ) ;
#166 = DIRECTION ( 'NONE',  ( -1.000000000000000000, 0.000000000000000000, 0.000000000000000000 ) ) ;
#167 = VERTEX_POINT ( 'NONE', #317 ) ;
#168 =( NAMED_UNIT ( * ) SI_UNIT ( $, .STERADIAN. ) SOLID_ANGLE_UNIT ( ) );
#169 = DIRECTION ( 'NONE',  ( -1.000000000000000000, 0.000000000000000000, 0.000000000000000000 ) ) ;
#170 = EDGE_LOOP ( 'NONE', ( #205, #65 ) ) ;
#171 = DIRECTION ( 'NONE',  ( -1.229331597148918448E-16, 1.000000000000000000, -0.000000000000000000 ) ) ;
#172 = MECHANICAL_DESIGN_GEOMETRIC_PRESENTATION_REPRESENTATION (  '', ( #363 ), #208 ) ;
#173 = EDGE_LOOP ( 'NONE', ( #345, #37, #179, #141 ) ) ;
#174 = ORIENTED_EDGE ( 'NONE', *, *, #370, .F. ) ;
#175 = VERTEX_POINT ( 'NONE', #191 ) ;
#176 = VERTEX_POINT ( 'NONE', #24 ) ;
#177 = EDGE_CURVE ( 'NONE', #117, #120, #113, .T. ) ;
#178 = SURFACE_STYLE_USAGE ( .BOTH. , #271 ) ;
#179 = ORIENTED_EDGE ( 'NONE', *, *, #228, .F. ) ;
#180 = LENGTH_MEASURE_WITH_UNIT ( LENGTH_MEASURE( 0.02539999999999999897 ), #103 );
#181 = APPLICATION_CONTEXT ( 'automotive_design' ) ;
#182 = ADVANCED_FACE ( 'NONE', ( #311 ), #368, .F. ) ;
#183 = FILL_AREA_STYLE ('',( #77 ) ) ;
#184 = PLANE ( 'NONE',  #150 ) ;
#185 = UNCERTAINTY_MEASURE_WITH_UNIT (LENGTH_MEASURE( 1.000000000000000082E-05 ), #211, 'distance_accuracy_value', 'NONE');
#186 = PRESENTATION_LAYER_ASSIGNMENT (  '', '', ( #53 ) ) ;
#187 = AXIS2_PLACEMENT_3D ( 'NONE', #140, #250, #124 ) ;
#188 = SHAPE_DEFINITION_REPRESENTATION ( #243, #309 ) ;
#189 = DIRECTION ( 'NONE',  ( -1.000000000000000000, 0.000000000000000000, 0.000000000000000000 ) ) ;
#190 = EDGE_CURVE ( 'NONE', #90, #347, #54, .T. ) ;
#191 = CARTESIAN_POINT ( 'NONE',  ( -1.530808498934191509E-17, 0.000000000000000000, 0.000000000000000000 ) ) ;
#192 = DIRECTION ( 'NONE',  ( -1.229331597148918448E-16, 1.000000000000000000, -0.000000000000000000 ) ) ;
#193 = LENGTH_MEASURE_WITH_UNIT ( LENGTH_MEASURE( 0.02539999999999999897 ), #105 );
#194 = STYLED_ITEM ( 'NONE', ( #125 ), #293 ) ;
#195 =( GEOMETRIC_REPRESENTATION_CONTEXT ( 3 ) GLOBAL_UNCERTAINTY_ASSIGNED_CONTEXT ( ( #223 ) ) GLOBAL_UNIT_ASSIGNED_CONTEXT ( ( #14, #366, #254 ) ) REPRESENTATION_CONTEXT ( 'NONE', 'WORKASPACE' ) );
#196 =( NAMED_UNIT ( * ) SI_UNIT ( $, .STERADIAN. ) SOLID_ANGLE_UNIT ( ) );
#197 = UNCERTAINTY_MEASURE_WITH_UNIT (LENGTH_MEASURE( 1.000000000000000082E-05 ), #336, 'distance_accuracy_value', 'NONE');
#198 = CARTESIAN_POINT ( 'NONE',  ( 0.000000000000000000, 0.6250000000000000000, 0.000000000000000000 ) ) ;
#199 = CARTESIAN_POINT ( 'NONE',  ( -0.2499999999999995559, 2.500000000000000000, 0.000000000000000000 ) ) ;
#200 = SURFACE_STYLE_USAGE ( .BOTH. , #344 ) ;
#201 = AXIS2_PLACEMENT_3D ( 'NONE', #132, #251, #253 ) ;
#202 = PLANE ( 'NONE',  #201 ) ;
#203 = FILL_AREA_STYLE ('',( #233 ) ) ;
#204 = ORIENTED_EDGE ( 'NONE', *, *, #370, .T. ) ;
#205 = ORIENTED_EDGE ( 'NONE', *, *, #228, .T. ) ;
#206 = LENGTH_MEASURE_WITH_UNIT ( LENGTH_MEASURE( 0.02539999999999999897 ), #292 );
#207 = DIRECTION ( 'NONE',  ( -1.000000000000000000, 0.000000000000000000, 0.000000000000000000 ) ) ;
#208 =( GEOMETRIC_REPRESENTATION_CONTEXT ( 3 ) GLOBAL_UNCERTAINTY_ASSIGNED_CONTEXT ( ( #101 ) ) GLOBAL_UNIT_ASSIGNED_CONTEXT ( ( #64, #139, #144 ) ) REPRESENTATION_CONTEXT ( 'NONE', 'WORKASPACE' ) );
#209 = EDGE_CURVE ( 'NONE', #167, #175, #300, .T. ) ;
#210 = ORIENTED_EDGE ( 'NONE', *, *, #190, .F. ) ;
#211 =( CONVERSION_BASED_UNIT ( 'INCH', #100 ) LENGTH_UNIT ( ) NAMED_UNIT ( #290 ) );
#212 =( LENGTH_UNIT ( ) NAMED_UNIT ( * ) SI_UNIT ( $, .METRE. ) );
#213 = ADVANCED_FACE ( 'NONE', ( #85 ), #137, .T. ) ;
#214 = AXIS2_PLACEMENT_3D ( 'NONE', #281, #107, #12 ) ;
#215 = STYLED_ITEM ( 'NONE', ( #110 ), #318 ) ;
#216 = DIRECTION ( 'NONE',  ( 1.000000000000000000, 0.000000000000000000, -1.224646799147353207E-16 ) ) ;
#217 =( LENGTH_UNIT ( ) NAMED_UNIT ( * ) SI_UNIT ( $, .METRE. ) );
#218 = PRESENTATION_STYLE_ASSIGNMENT (( #178 ) ) ;
#219 = SURFACE_SIDE_STYLE ('',( #148 ) ) ;
#220 = SURFACE_STYLE_FILL_AREA ( #310 ) ;
#221 = CIRCLE ( 'NONE', #316, 0.2500000000000000000 ) ;
#222 = DIRECTION ( 'NONE',  ( 0.000000000000000000, 0.000000000000000000, -1.000000000000000000 ) ) ;
#223 = UNCERTAINTY_MEASURE_WITH_UNIT (LENGTH_MEASURE( 1.000000000000000082E-05 ), #14, 'distance_accuracy_value', 'NONE');
#224 = DIRECTION ( 'NONE',  ( 0.000000000000000000, 0.000000000000000000, -1.000000000000000000 ) ) ;
#225 = DIRECTION ( 'NONE',  ( -1.229331597148918448E-16, 1.000000000000000000, -0.000000000000000000 ) ) ;
#226 = PRODUCT_CONTEXT ( 'NONE', #43, 'mechanical' ) ;
#227 = CARTESIAN_POINT ( 'NONE',  ( 1.224646799147353207E-16, 2.500000000000000000, 0.000000000000000000 ) ) ;
#228 = EDGE_CURVE ( 'NONE', #2, #294, #104, .T. ) ;
#229 =( CONVERSION_BASED_UNIT ( 'INCH', #193 ) LENGTH_UNIT ( ) NAMED_UNIT ( #367 ) );
#230 = DIRECTION ( 'NONE',  ( -0.000000000000000000, -1.000000000000000000, -0.000000000000000000 ) ) ;
#231 = ORIENTED_EDGE ( 'NONE', *, *, #155, .F. ) ;
#232 = EDGE_CURVE ( 'NONE', #120, #117, #128, .T. ) ;
#233 = FILL_AREA_STYLE_COLOUR ( '', #151 ) ;
#234 = EDGE_LOOP ( 'NONE', ( #72, #265, #174, #297, #91 ) ) ;
#235 = ORIENTED_EDGE ( 'NONE', *, *, #325, .F. ) ;
#236 = DIRECTION ( 'NONE',  ( -1.229331597148918448E-16, 1.000000000000000000, -0.000000000000000000 ) ) ;
#237 = EDGE_CURVE ( 'NONE', #373, #268, #10, .T. ) ;
#238 = SPHERICAL_SURFACE ( 'NONE', #187, 0.2500000000000000000 ) ;
#239 = MECHANICAL_DESIGN_GEOMETRIC_PRESENTATION_REPRESENTATION (  '', ( #53 ), #118 ) ;
#240 = ORIENTED_EDGE ( 'NONE', *, *, #29, .T. ) ;
#241 = DIMENSIONAL_EXPONENTS ( 1.000000000000000000, 0.000000000000000000, 0.000000000000000000, 0.000000000000000000, 0.000000000000000000, 0.000000000000000000, 0.000000000000000000 ) ;
#242 =( GEOMETRIC_REPRESENTATION_CONTEXT ( 3 ) GLOBAL_UNCERTAINTY_ASSIGNED_CONTEXT ( ( #185 ) ) GLOBAL_UNIT_ASSIGNED_CONTEXT ( ( #211, #131, #11 ) ) REPRESENTATION_CONTEXT ( 'NONE', 'WORKASPACE' ) );
#243 = PRODUCT_DEFINITION_SHAPE ( 'NONE', 'NONE',  #163 ) ;
#244 =( CONVERSION_BASED_UNIT ( 'INCH', #46 ) LENGTH_UNIT ( ) NAMED_UNIT ( #270 ) );
#245 = PRESENTATION_STYLE_ASSIGNMENT (( #276 ) ) ;
#246 = CARTESIAN_POINT ( 'NONE',  ( 0.2499999999999999167, 2.500000000000000000, 3.061616997868379936E-17 ) ) ;
#247 = PRESENTATION_STYLE_ASSIGNMENT (( #127 ) ) ;
#248 = PRESENTATION_LAYER_ASSIGNMENT (  '', '', ( #194 ) ) ;
#249 = AXIS2_PLACEMENT_3D ( 'NONE', #51, #282, #50 ) ;
#250 = DIRECTION ( 'NONE',  ( 0.000000000000000000, 0.000000000000000000, 1.000000000000000000 ) ) ;
#251 = DIRECTION ( 'NONE',  ( 0.000000000000000000, 1.000000000000000000, 0.000000000000000000 ) ) ;
#252 = SURFACE_STYLE_FILL_AREA ( #305 ) ;
#253 = DIRECTION ( 'NONE',  ( 0.000000000000000000, -0.000000000000000000, 1.000000000000000000 ) ) ;
#254 =( NAMED_UNIT ( * ) SI_UNIT ( $, .STERADIAN. ) SOLID_ANGLE_UNIT ( ) );
#255 = CLOSED_SHELL ( 'NONE', ( #149, #182, #213, #55 ) ) ;
#256 = AXIS2_PLACEMENT_3D ( 'NONE', #133, #361, #18 ) ;
#257 = CARTESIAN_POINT ( 'NONE',  ( 0.000000000000000000, 0.000000000000000000, 0.000000000000000000 ) ) ;
#258 = UNCERTAINTY_MEASURE_WITH_UNIT (LENGTH_MEASURE( 1.000000000000000082E-05 ), #76, 'distance_accuracy_value', 'NONE');
#259 = LINE ( 'NONE', #199, #321 ) ;
#260 = AXIS2_PLACEMENT_3D ( 'NONE', #89, #147, #94 ) ;
#261 = STYLED_ITEM ( 'NONE', ( #245 ), #69 ) ;
#262 = COLOUR_RGB ( '',0.7921568627450980005, 0.8196078431372548767, 0.9333333333333333481 ) ;
#263 =( NAMED_UNIT ( * ) PLANE_ANGLE_UNIT ( ) SI_UNIT ( $, .RADIAN. ) );
#264 = UNCERTAINTY_MEASURE_WITH_UNIT (LENGTH_MEASURE( 1.000000000000000082E-05 ), #229, 'distance_accuracy_value', 'NONE');
#265 = ORIENTED_EDGE ( 'NONE', *, *, #325, .T. ) ;
#266 = ORIENTED_EDGE ( 'NONE', *, *, #13, .F. ) ;
#267 = PRESENTATION_LAYER_ASSIGNMENT (  '', '', ( #165 ) ) ;
#268 = VERTEX_POINT ( 'NONE', #116 ) ;
#269 = ORIENTED_EDGE ( 'NONE', *, *, #237, .T. ) ;
#270 = DIMENSIONAL_EXPONENTS ( 1.000000000000000000, 0.000000000000000000, 0.000000000000000000, 0.000000000000000000, 0.000000000000000000, 0.000000000000000000, 0.000000000000000000 ) ;
#271 = SURFACE_SIDE_STYLE ('',( #39 ) ) ;
#272 = FACE_OUTER_BOUND ( 'NONE', #170, .T. ) ;
#273 = PRODUCT_DEFINITION_FORMATION_WITH_SPECIFIED_SOURCE ( 'ANY', '', #355, .NOT_KNOWN. ) ;
#274 =( NAMED_UNIT ( * ) PLANE_ANGLE_UNIT ( ) SI_UNIT ( $, .RADIAN. ) );
#275 = CARTESIAN_POINT ( 'NONE',  ( 0.2499999999999999167, 2.500000000000000000, 0.000000000000000000 ) ) ;
#276 = SURFACE_STYLE_USAGE ( .BOTH. , #219 ) ;
#277 = FILL_AREA_STYLE_COLOUR ( '', #47 ) ;
#278 = DIRECTION ( 'NONE',  ( 0.000000000000000000, 0.000000000000000000, 1.000000000000000000 ) ) ;
#279 = ADVANCED_FACE ( 'NONE', ( #88 ), #238, .T. ) ;
#280 = SURFACE_SIDE_STYLE ('',( #220 ) ) ;
#281 = CARTESIAN_POINT ( 'NONE',  ( 3.529643543801575483E-16, 0.6250000000000000000, 0.000000000000000000 ) ) ;
#282 = DIRECTION ( 'NONE',  ( -0.000000000000000000, -1.000000000000000000, -0.000000000000000000 ) ) ;
#283 = CYLINDRICAL_SURFACE ( 'NONE', #351, 0.2499999999999996947 ) ;
#284 = ADVANCED_FACE ( 'NONE', ( #70 ), #298, .T. ) ;
#285 = COLOUR_RGB ( '',1.000000000000000000, 0.000000000000000000, 0.000000000000000000 ) ;
#286 = MECHANICAL_DESIGN_GEOMETRIC_PRESENTATION_REPRESENTATION (  '', ( #93 ), #327 ) ;
#287 = DIRECTION ( 'NONE',  ( 1.000000000000000000, 0.000000000000000000, 0.000000000000000000 ) ) ;
#288 = DIRECTION ( 'NONE',  ( -0.000000000000000000, -1.000000000000000000, -0.000000000000000000 ) ) ;
#289 = DIRECTION ( 'NONE',  ( -1.000000000000000000, 0.000000000000000000, 0.000000000000000000 ) ) ;
#290 = DIMENSIONAL_EXPONENTS ( 1.000000000000000000, 0.000000000000000000, 0.000000000000000000, 0.000000000000000000, 0.000000000000000000, 0.000000000000000000, 0.000000000000000000 ) ;
#291 = CARTESIAN_POINT ( 'NONE',  ( 0.000000000000000000, 0.000000000000000000, 0.000000000000000000 ) ) ;
#292 =( LENGTH_UNIT ( ) NAMED_UNIT ( * ) SI_UNIT ( $, .METRE. ) );
#293 = ADVANCED_FACE ( 'NONE', ( #353 ), #5, .T. ) ;
#294 = VERTEX_POINT ( 'NONE', #246 ) ;
#295 = ORIENTED_EDGE ( 'NONE', *, *, #177, .F. ) ;
#296 = ORIENTED_EDGE ( 'NONE', *, *, #21, .T. ) ;
#297 = ORIENTED_EDGE ( 'NONE', *, *, #364, .F. ) ;
#298 = SPHERICAL_SURFACE ( 'NONE', #358, 0.2500000000000000000 ) ;
#299 = EDGE_LOOP ( 'NONE', ( #34, #269, #329, #121 ) ) ;
#300 = CIRCLE ( 'NONE', #256, 0.2500000000000000000 ) ;
#301 = FILL_AREA_STYLE ('',( #78 ) ) ;
#302 = LENGTH_MEASURE_WITH_UNIT ( LENGTH_MEASURE( 0.02539999999999999897 ), #212 );
#303 = SURFACE_STYLE_USAGE ( .BOTH. , #280 ) ;
#304 = EDGE_CURVE ( 'NONE', #373, #175, #221, .T. ) ;
#305 = FILL_AREA_STYLE ('',( #153 ) ) ;
#306 = FACE_OUTER_BOUND ( 'NONE', #352, .T. ) ;
#307 = CLOSED_SHELL ( 'NONE', ( #279, #293, #41, #87, #284 ) ) ;
#308 =( GEOMETRIC_REPRESENTATION_CONTEXT ( 3 ) GLOBAL_UNCERTAINTY_ASSIGNED_CONTEXT ( ( #160 ) ) GLOBAL_UNIT_ASSIGNED_CONTEXT ( ( #244, #96, #335 ) ) REPRESENTATION_CONTEXT ( 'NONE', 'WORKASPACE' ) );
#309 = ADVANCED_BREP_SHAPE_REPRESENTATION ( '49255', ( #69, #318, #60 ), #195 ) ;
#310 = FILL_AREA_STYLE ('',( #323 ) ) ;
#311 = FACE_OUTER_BOUND ( 'NONE', #62, .T. ) ;
#312 = DIMENSIONAL_EXPONENTS ( 1.000000000000000000, 0.000000000000000000, 0.000000000000000000, 0.000000000000000000, 0.000000000000000000, 0.000000000000000000, 0.000000000000000000 ) ;
#313 = CIRCLE ( 'NONE', #97, 0.2499999999999998057 ) ;
#314 = COLOUR_RGB ( '',1.000000000000000000, 0.000000000000000000, 0.000000000000000000 ) ;
#315 =( LENGTH_UNIT ( ) NAMED_UNIT ( * ) SI_UNIT ( $, .METRE. ) );
#316 = AXIS2_PLACEMENT_3D ( 'NONE', #356, #98, #216 ) ;
#317 = CARTESIAN_POINT ( 'NONE',  ( 0.2500000000000000000, 0.2500000000000000555, 0.000000000000000000 ) ) ;
#318 = MANIFOLD_SOLID_BREP ( 'Revolve - Tool Body (Straight Shanked)', #255 ) ;
#319 = DIRECTION ( 'NONE',  ( 0.000000000000000000, 0.000000000000000000, -1.000000000000000000 ) ) ;
#320 = CIRCLE ( 'NONE', #260, 0.2500000000000000000 ) ;
#321 = VECTOR ( 'NONE', #192, 39.37007874015748143 ) ;
#322 = VECTOR ( 'NONE', #288, 39.37007874015748143 ) ;
#323 = FILL_AREA_STYLE_COLOUR ( '', #285 ) ;
#324 = ORIENTED_EDGE ( 'NONE', *, *, #304, .T. ) ;
#325 = EDGE_CURVE ( 'NONE', #117, #176, #334, .T. ) ;
#326 = ORIENTED_EDGE ( 'NONE', *, *, #177, .T. ) ;
#327 =( GEOMETRIC_REPRESENTATION_CONTEXT ( 3 ) GLOBAL_UNCERTAINTY_ASSIGNED_CONTEXT ( ( #109 ) ) GLOBAL_UNIT_ASSIGNED_CONTEXT ( ( #162, #263, #196 ) ) REPRESENTATION_CONTEXT ( 'NONE', 'WORKASPACE' ) );
#328 = CARTESIAN_POINT ( 'NONE',  ( 0.000000000000000000, 0.000000000000000000, -0.2499999999999999722 ) ) ;
#329 = ORIENTED_EDGE ( 'NONE', *, *, #364, .T. ) ;
#330 = DIRECTION ( 'NONE',  ( 1.000000000000000000, 0.000000000000000000, 0.000000000000000000 ) ) ;
#331 = DIRECTION ( 'NONE',  ( 1.229331597148918448E-16, -1.000000000000000000, 0.000000000000000000 ) ) ;
#332 = AXIS2_PLACEMENT_3D ( 'NONE', #349, #30, #27 ) ;
#333 = PRESENTATION_LAYER_ASSIGNMENT (  '', '', ( #215 ) ) ;
#334 = LINE ( 'NONE', #138, #322 ) ;
#335 =( NAMED_UNIT ( * ) SI_UNIT ( $, .STERADIAN. ) SOLID_ANGLE_UNIT ( ) );
#336 =( CONVERSION_BASED_UNIT ( 'INCH', #302 ) LENGTH_UNIT ( ) NAMED_UNIT ( #341 ) );
#337 = FILL_AREA_STYLE ('',( #152 ) ) ;
#338 = CYLINDRICAL_SURFACE ( 'NONE', #32, 0.2499999999999999722 ) ;
#339 = CARTESIAN_POINT ( 'NONE',  ( 0.000000000000000000, 0.6250000000000000000, 0.000000000000000000 ) ) ;
#340 = DIRECTION ( 'NONE',  ( -1.000000000000000000, 0.000000000000000000, 0.000000000000000000 ) ) ;
#341 = DIMENSIONAL_EXPONENTS ( 1.000000000000000000, 0.000000000000000000, 0.000000000000000000, 0.000000000000000000, 0.000000000000000000, 0.000000000000000000, 0.000000000000000000 ) ;
#342 = CARTESIAN_POINT ( 'NONE',  ( 0.000000000000000000, 0.2500000000000000555, 0.000000000000000000 ) ) ;
#343 = FACE_OUTER_BOUND ( 'NONE', #173, .T. ) ;
#344 = SURFACE_SIDE_STYLE ('',( #146 ) ) ;
#345 = ORIENTED_EDGE ( 'NONE', *, *, #13, .T. ) ;
#346 = AXIS2_PLACEMENT_3D ( 'NONE', #198, #22, #319 ) ;
#347 = VERTEX_POINT ( 'NONE', #20 ) ;
#348 = ORIENTED_EDGE ( 'NONE', *, *, #209, .F. ) ;
#349 = CARTESIAN_POINT ( 'NONE',  ( 0.000000000000000000, 0.2500000000000000555, 0.000000000000000000 ) ) ;
#350 = LINE ( 'NONE', #328, #371 ) ;
#351 = AXIS2_PLACEMENT_3D ( 'NONE', #369, #58, #340 ) ;
#352 = EDGE_LOOP ( 'NONE', ( #235, #326, #296, #28, #145 ) ) ;
#353 = FACE_OUTER_BOUND ( 'NONE', #234, .T. ) ;
#354 =( NAMED_UNIT ( * ) SI_UNIT ( $, .STERADIAN. ) SOLID_ANGLE_UNIT ( ) );
#355 = PRODUCT ( '49255', '49255', '', ( #226 ) ) ;
#356 = CARTESIAN_POINT ( 'NONE',  ( -3.061616997868383018E-17, 0.2500000000000000000, 0.000000000000000000 ) ) ;
#357 = COLOUR_RGB ( '',1.000000000000000000, 0.000000000000000000, 0.000000000000000000 ) ;
#358 = AXIS2_PLACEMENT_3D ( 'NONE', #157, #278, #330 ) ;
#359 = DIRECTION ( 'NONE',  ( -1.229331597148918448E-16, 1.000000000000000000, -0.000000000000000000 ) ) ;
#360 = DIRECTION ( 'NONE',  ( 1.000000000000000000, 1.229331597148918448E-16, 0.000000000000000000 ) ) ;
#361 = DIRECTION ( 'NONE',  ( 0.000000000000000000, 0.000000000000000000, -1.000000000000000000 ) ) ;
#362 = COLOUR_RGB ( '',0.7921568627450980005, 0.8196078431372548767, 0.9333333333333333481 ) ;
#363 = STYLED_ITEM ( 'NONE', ( #61 ), #279 ) ;
#364 = EDGE_CURVE ( 'NONE', #268, #167, #33, .T. ) ;
#365 = DIRECTION ( 'NONE',  ( 0.000000000000000000, 0.000000000000000000, -1.000000000000000000 ) ) ;
#366 =( NAMED_UNIT ( * ) PLANE_ANGLE_UNIT ( ) SI_UNIT ( $, .RADIAN. ) );
#367 = DIMENSIONAL_EXPONENTS ( 1.000000000000000000, 0.000000000000000000, 0.000000000000000000, 0.000000000000000000, 0.000000000000000000, 0.000000000000000000, 0.000000000000000000 ) ;
#368 = PLANE ( 'NONE',  #214 ) ;
#369 = CARTESIAN_POINT ( 'NONE',  ( 1.224646799147353207E-16, 2.500000000000000000, 0.000000000000000000 ) ) ;
#370 = EDGE_CURVE ( 'NONE', #167, #176, #99, .T. ) ;
#371 = VECTOR ( 'NONE', #36, 39.37007874015748143 ) ;
#372 = CARTESIAN_POINT ( 'NONE',  ( 3.529643543801575483E-16, 0.6250000000000000000, 0.000000000000000000 ) ) ;
#373 = VERTEX_POINT ( 'NONE', #84 ) ;
ENDSEC;
END-ISO-10303-21;
