ISO-10303-21;
HEADER;
FILE_DESCRIPTION (( 'STEP AP214' ),
    '1' );
FILE_NAME ('59435.STEP',
    '2023-06-30T22:14:55',
    ( '' ),
    ( '' ),
    'SwSTEP 2.0',
    'SolidWorks 2023',
    '' );
FILE_SCHEMA (( 'AUTOMOTIVE_DESIGN' ));
ENDSEC;

DATA;
#1 = VERTEX_POINT ( 'NONE', #70 ) ;
#2 = FILL_AREA_STYLE_COLOUR ( '', #79 ) ;
#3 = VECTOR ( 'NONE', #340, 39.37007874015748143 ) ;
#4 = AXIS2_PLACEMENT_3D ( 'NONE', #208, #350, #173 ) ;
#5 = CARTESIAN_POINT ( 'NONE',  ( 0.1249999999999999306, 2.500000000000000000, 0.000000000000000000 ) ) ;
#6 = ORIENTED_EDGE ( 'NONE', *, *, #212, .F. ) ;
#7 = CARTESIAN_POINT ( 'NONE',  ( 0.000000000000000000, 0.5000000000000000000, 0.000000000000000000 ) ) ;
#8 = STYLED_ITEM ( 'NONE', ( #120 ), #24 ) ;
#9 =( CONVERSION_BASED_UNIT ( 'INCH', #50 ) LENGTH_UNIT ( ) NAMED_UNIT ( #18 ) );
#10 = CARTESIAN_POINT ( 'NONE',  ( -6.123233995736772199E-17, 2.500000000000000000, 0.000000000000000000 ) ) ;
#11 = STYLED_ITEM ( 'NONE', ( #140 ), #196 ) ;
#12 = EDGE_LOOP ( 'NONE', ( #6, #34, #318, #148, #283 ) ) ;
#13 = ADVANCED_FACE ( 'NONE', ( #99 ), #104, .T. ) ;
#14 =( LENGTH_UNIT ( ) NAMED_UNIT ( * ) SI_UNIT ( $, .METRE. ) );
#15 = ORIENTED_EDGE ( 'NONE', *, *, #102, .F. ) ;
#16 = CARTESIAN_POINT ( 'NONE',  ( 0.000000000000000000, 0.5000000000000000000, 0.000000000000000000 ) ) ;
#17 = VERTEX_POINT ( 'NONE', #189 ) ;
#18 = DIMENSIONAL_EXPONENTS ( 1.000000000000000000, 0.000000000000000000, 0.000000000000000000, 0.000000000000000000, 0.000000000000000000, 0.000000000000000000, 0.000000000000000000 ) ;
#19 = CIRCLE ( 'NONE', #234, 0.1249999999999997641 ) ;
#20 = CIRCLE ( 'NONE', #4, 0.1249999999999999029 ) ;
#21 = DIRECTION ( 'NONE',  ( 0.000000000000000000, 0.000000000000000000, -1.000000000000000000 ) ) ;
#22 = CARTESIAN_POINT ( 'NONE',  ( -0.1249999999999999029, 0.1249999999999999029, 1.530808498934189968E-17 ) ) ;
#23 = DIRECTION ( 'NONE',  ( -1.224646799147353207E-16, 1.000000000000000000, -0.000000000000000000 ) ) ;
#24 = ADVANCED_FACE ( 'NONE', ( #72 ), #93, .T. ) ;
#25 = CIRCLE ( 'NONE', #362, 0.1249999999999999029 ) ;
#26 = CARTESIAN_POINT ( 'NONE',  ( -0.1249999999999999306, 2.500000000000000000, 0.000000000000000000 ) ) ;
#27 = PRODUCT_DEFINITION_SHAPE ( 'NONE', 'NONE',  #195 ) ;
#28 = FILL_AREA_STYLE_COLOUR ( '', #365 ) ;
#29 = ORIENTED_EDGE ( 'NONE', *, *, #162, .T. ) ;
#30 = MECHANICAL_DESIGN_GEOMETRIC_PRESENTATION_REPRESENTATION (  '', ( #8 ), #59 ) ;
#31 = STYLED_ITEM ( 'NONE', ( #133 ), #266 ) ;
#32 = SURFACE_SIDE_STYLE ('',( #315 ) ) ;
#33 = APPLICATION_CONTEXT ( 'automotive_design' ) ;
#34 = ORIENTED_EDGE ( 'NONE', *, *, #111, .T. ) ;
#35 = CARTESIAN_POINT ( 'NONE',  ( 0.1249999999999999029, 0.1249999999999999029, 0.000000000000000000 ) ) ;
#36 = CARTESIAN_POINT ( 'NONE',  ( 1.530808498934190276E-17, 0.1249999999999999029, 0.1249999999999999029 ) ) ;
#37 = EDGE_LOOP ( 'NONE', ( #346, #320, #75, #312 ) ) ;
#38 = SURFACE_STYLE_USAGE ( .BOTH. , #32 ) ;
#39 =( NAMED_UNIT ( * ) SI_UNIT ( $, .STERADIAN. ) SOLID_ANGLE_UNIT ( ) );
#40 = FILL_AREA_STYLE_COLOUR ( '', #41 ) ;
#41 = COLOUR_RGB ( '',1.000000000000000000, 0.000000000000000000, 0.000000000000000000 ) ;
#42 = DIRECTION ( 'NONE',  ( -0.000000000000000000, -1.000000000000000000, -0.000000000000000000 ) ) ;
#43 = UNCERTAINTY_MEASURE_WITH_UNIT (LENGTH_MEASURE( 1.000000000000000082E-05 ), #186, 'distance_accuracy_value', 'NONE');
#44 = SPHERICAL_SURFACE ( 'NONE', #348, 0.1249999999999999029 ) ;
#45 = DIRECTION ( 'NONE',  ( 0.000000000000000000, -0.000000000000000000, 1.000000000000000000 ) ) ;
#46 = CYLINDRICAL_SURFACE ( 'NONE', #359, 0.1249999999999998612 ) ;
#47 = UNCERTAINTY_MEASURE_WITH_UNIT (LENGTH_MEASURE( 1.000000000000000082E-05 ), #136, 'distance_accuracy_value', 'NONE');
#48 = SURFACE_STYLE_FILL_AREA ( #115 ) ;
#49 = DIRECTION ( 'NONE',  ( 1.000000000000000000, 0.000000000000000000, -1.224646799147353207E-16 ) ) ;
#50 = LENGTH_MEASURE_WITH_UNIT ( LENGTH_MEASURE( 0.02539999999999999897 ), #225 );
#51 = DIMENSIONAL_EXPONENTS ( 1.000000000000000000, 0.000000000000000000, 0.000000000000000000, 0.000000000000000000, 0.000000000000000000, 0.000000000000000000, 0.000000000000000000 ) ;
#52 = ADVANCED_FACE ( 'NONE', ( #91 ), #151, .F. ) ;
#53 =( CONVERSION_BASED_UNIT ( 'INCH', #368 ) LENGTH_UNIT ( ) NAMED_UNIT ( #51 ) );
#54 = ADVANCED_BREP_SHAPE_REPRESENTATION ( '59435', ( #196, #328, #371 ), #171 ) ;
#55 = PRESENTATION_LAYER_ASSIGNMENT (  '', '', ( #11 ) ) ;
#56 = AXIS2_PLACEMENT_3D ( 'NONE', #289, #67, #178 ) ;
#57 = DIRECTION ( 'NONE',  ( -1.000000000000000000, -1.224646799147353207E-16, 0.000000000000000000 ) ) ;
#58 = ADVANCED_FACE ( 'NONE', ( #261 ), #351, .T. ) ;
#59 =( GEOMETRIC_REPRESENTATION_CONTEXT ( 3 ) GLOBAL_UNCERTAINTY_ASSIGNED_CONTEXT ( ( #180 ) ) GLOBAL_UNIT_ASSIGNED_CONTEXT ( ( #311, #282, #118 ) ) REPRESENTATION_CONTEXT ( 'NONE', 'WORKASPACE' ) );
#60 = DIRECTION ( 'NONE',  ( -1.224646799147353207E-16, 1.000000000000000000, -0.000000000000000000 ) ) ;
#61 = EDGE_CURVE ( 'NONE', #17, #1, #284, .T. ) ;
#62 = ORIENTED_EDGE ( 'NONE', *, *, #71, .F. ) ;
#63 = AXIS2_PLACEMENT_3D ( 'NONE', #135, #252, #101 ) ;
#64 = VERTEX_POINT ( 'NONE', #355 ) ;
#65 = DIRECTION ( 'NONE',  ( -1.000000000000000000, 0.000000000000000000, 0.000000000000000000 ) ) ;
#66 =( NAMED_UNIT ( * ) PLANE_ANGLE_UNIT ( ) SI_UNIT ( $, .RADIAN. ) );
#67 = DIRECTION ( 'NONE',  ( -1.224646799147353207E-16, 1.000000000000000000, -0.000000000000000000 ) ) ;
#68 = FACE_OUTER_BOUND ( 'NONE', #37, .T. ) ;
#69 = VECTOR ( 'NONE', #60, 39.37007874015748143 ) ;
#70 = CARTESIAN_POINT ( 'NONE',  ( -0.1249999999999995698, 0.5000000000000001110, 0.000000000000000000 ) ) ;
#71 = EDGE_CURVE ( 'NONE', #263, #298, #342, .T. ) ;
#72 = FACE_OUTER_BOUND ( 'NONE', #176, .T. ) ;
#73 =( LENGTH_UNIT ( ) NAMED_UNIT ( * ) SI_UNIT ( $, .METRE. ) );
#74 =( NAMED_UNIT ( * ) SI_UNIT ( $, .STERADIAN. ) SOLID_ANGLE_UNIT ( ) );
#75 = ORIENTED_EDGE ( 'NONE', *, *, #372, .F. ) ;
#76 =( NAMED_UNIT ( * ) SI_UNIT ( $, .STERADIAN. ) SOLID_ANGLE_UNIT ( ) );
#77 = AXIS2_PLACEMENT_3D ( 'NONE', #278, #279, #88 ) ;
#78 = EDGE_LOOP ( 'NONE', ( #239, #240, #288, #344 ) ) ;
#79 = COLOUR_RGB ( '',1.000000000000000000, 0.000000000000000000, 0.000000000000000000 ) ;
#80 = CARTESIAN_POINT ( 'NONE',  ( 0.000000000000000000, 0.1249999999999999029, 0.000000000000000000 ) ) ;
#81 = DIMENSIONAL_EXPONENTS ( 1.000000000000000000, 0.000000000000000000, 0.000000000000000000, 0.000000000000000000, 0.000000000000000000, 0.000000000000000000, 0.000000000000000000 ) ;
#82 = DIMENSIONAL_EXPONENTS ( 1.000000000000000000, 0.000000000000000000, 0.000000000000000000, 0.000000000000000000, 0.000000000000000000, 0.000000000000000000, 0.000000000000000000 ) ;
#83 = MECHANICAL_DESIGN_GEOMETRIC_PRESENTATION_REPRESENTATION (  '', ( #122 ), #192 ) ;
#84 = SURFACE_SIDE_STYLE ('',( #197 ) ) ;
#85 = UNCERTAINTY_MEASURE_WITH_UNIT (LENGTH_MEASURE( 1.000000000000000082E-05 ), #9, 'distance_accuracy_value', 'NONE');
#86 = DIMENSIONAL_EXPONENTS ( 1.000000000000000000, 0.000000000000000000, 0.000000000000000000, 0.000000000000000000, 0.000000000000000000, 0.000000000000000000, 0.000000000000000000 ) ;
#87 = ADVANCED_FACE ( 'NONE', ( #155 ), #46, .T. ) ;
#88 = DIRECTION ( 'NONE',  ( -1.000000000000000000, 0.000000000000000000, 0.000000000000000000 ) ) ;
#89 = DIMENSIONAL_EXPONENTS ( 1.000000000000000000, 0.000000000000000000, 0.000000000000000000, 0.000000000000000000, 0.000000000000000000, 0.000000000000000000, 0.000000000000000000 ) ;
#90 = PLANE ( 'NONE',  #326 ) ;
#91 = FACE_OUTER_BOUND ( 'NONE', #213, .T. ) ;
#92 = EDGE_CURVE ( 'NONE', #1, #17, #19, .T. ) ;
#93 = CYLINDRICAL_SURFACE ( 'NONE', #347, 0.1249999999999999167 ) ;
#94 = EDGE_LOOP ( 'NONE', ( #360, #202 ) ) ;
#95 = VERTEX_POINT ( 'NONE', #22 ) ;
#96 = CIRCLE ( 'NONE', #300, 0.1249999999999999029 ) ;
#97 = FILL_AREA_STYLE_COLOUR ( '', #141 ) ;
#98 = AXIS2_PLACEMENT_3D ( 'NONE', #5, #242, #316 ) ;
#99 = FACE_OUTER_BOUND ( 'NONE', #78, .T. ) ;
#100 = CYLINDRICAL_SURFACE ( 'NONE', #327, 0.1249999999999998612 ) ;
#101 = DIRECTION ( 'NONE',  ( -1.000000000000000000, 0.000000000000000000, 0.000000000000000000 ) ) ;
#102 = EDGE_CURVE ( 'NONE', #17, #64, #166, .T. ) ;
#103 = CLOSED_SHELL ( 'NONE', ( #281, #124, #87, #52 ) ) ;
#104 = SPHERICAL_SURFACE ( 'NONE', #248, 0.1249999999999999029 ) ;
#105 = COLOUR_RGB ( '',0.7921568627450980005, 0.8196078431372548767, 0.9333333333333333481 ) ;
#106 = PRODUCT ( '59435', '59435', '', ( #356 ) ) ;
#107 = SURFACE_SIDE_STYLE ('',( #309 ) ) ;
#108 = CARTESIAN_POINT ( 'NONE',  ( 0.000000000000000000, 0.1249999999999999029, 0.000000000000000000 ) ) ;
#109 = CARTESIAN_POINT ( 'NONE',  ( 1.836970198721029194E-16, 0.5000000000000000000, 0.000000000000000000 ) ) ;
#110 = PRESENTATION_STYLE_ASSIGNMENT (( #308 ) ) ;
#111 = EDGE_CURVE ( 'NONE', #205, #121, #159, .T. ) ;
#112 = SURFACE_STYLE_USAGE ( .BOTH. , #107 ) ;
#113 = DIRECTION ( 'NONE',  ( -1.224646799147353207E-16, 1.000000000000000000, 0.000000000000000000 ) ) ;
#114 = CARTESIAN_POINT ( 'NONE',  ( 0.000000000000000000, 0.000000000000000000, 0.000000000000000000 ) ) ;
#115 = FILL_AREA_STYLE ('',( #40 ) ) ;
#116 = PRESENTATION_LAYER_ASSIGNMENT (  '', '', ( #8 ) ) ;
#117 =( GEOMETRIC_REPRESENTATION_CONTEXT ( 3 ) GLOBAL_UNCERTAINTY_ASSIGNED_CONTEXT ( ( #301 ) ) GLOBAL_UNIT_ASSIGNED_CONTEXT ( ( #232, #339, #259 ) ) REPRESENTATION_CONTEXT ( 'NONE', 'WORKASPACE' ) );
#118 =( NAMED_UNIT ( * ) SI_UNIT ( $, .STERADIAN. ) SOLID_ANGLE_UNIT ( ) );
#119 =( NAMED_UNIT ( * ) PLANE_ANGLE_UNIT ( ) SI_UNIT ( $, .RADIAN. ) );
#120 = PRESENTATION_STYLE_ASSIGNMENT (( #345 ) ) ;
#121 = VERTEX_POINT ( 'NONE', #137 ) ;
#122 = STYLED_ITEM ( 'NONE', ( #364 ), #13 ) ;
#123 = SURFACE_SIDE_STYLE ('',( #126 ) ) ;
#124 = ADVANCED_FACE ( 'NONE', ( #272 ), #90, .F. ) ;
#125 = LENGTH_MEASURE_WITH_UNIT ( LENGTH_MEASURE( 0.02539999999999999897 ), #218 );
#126 = SURFACE_STYLE_FILL_AREA ( #210 ) ;
#127 = DIRECTION ( 'NONE',  ( -1.224646799147353207E-16, 1.000000000000000000, -0.000000000000000000 ) ) ;
#128 = CARTESIAN_POINT ( 'NONE',  ( -1.530808498934190893E-17, 0.1249999999999999029, 0.000000000000000000 ) ) ;
#129 = DIRECTION ( 'NONE',  ( -0.000000000000000000, -1.000000000000000000, -0.000000000000000000 ) ) ;
#130 = CIRCLE ( 'NONE', #77, 0.1250000000000000000 ) ;
#131 = CIRCLE ( 'NONE', #221, 0.1249999999999999306 ) ;
#132 = SURFACE_STYLE_FILL_AREA ( #271 ) ;
#133 = PRESENTATION_STYLE_ASSIGNMENT (( #331 ) ) ;
#134 = ORIENTED_EDGE ( 'NONE', *, *, #92, .F. ) ;
#135 = CARTESIAN_POINT ( 'NONE',  ( -1.530808498934190893E-17, 0.1249999999999999029, 0.000000000000000000 ) ) ;
#136 =( CONVERSION_BASED_UNIT ( 'INCH', #297 ) LENGTH_UNIT ( ) NAMED_UNIT ( #274 ) );
#137 = CARTESIAN_POINT ( 'NONE',  ( 0.000000000000000000, 0.5000000000000000000, -0.1249999999999999306 ) ) ;
#138 = PRESENTATION_LAYER_ASSIGNMENT (  '', '', ( #122 ) ) ;
#139 = AXIS2_PLACEMENT_3D ( 'NONE', #114, #341, #160 ) ;
#140 = PRESENTATION_STYLE_ASSIGNMENT (( #112 ) ) ;
#141 = COLOUR_RGB ( '',1.000000000000000000, 0.000000000000000000, 0.000000000000000000 ) ;
#142 = LENGTH_MEASURE_WITH_UNIT ( LENGTH_MEASURE( 0.02539999999999999897 ), #236 );
#143 = ORIENTED_EDGE ( 'NONE', *, *, #223, .T. ) ;
#144 = VERTEX_POINT ( 'NONE', #231 ) ;
#145 = CIRCLE ( 'NONE', #63, 0.1249999999999999029 ) ;
#146 = VERTEX_POINT ( 'NONE', #194 ) ;
#147 =( LENGTH_UNIT ( ) NAMED_UNIT ( * ) SI_UNIT ( $, .METRE. ) );
#148 = ORIENTED_EDGE ( 'NONE', *, *, #333, .F. ) ;
#149 = DIRECTION ( 'NONE',  ( 0.000000000000000000, 0.000000000000000000, -1.000000000000000000 ) ) ;
#150 =( LENGTH_UNIT ( ) NAMED_UNIT ( * ) SI_UNIT ( $, .METRE. ) );
#151 = PLANE ( 'NONE',  #98 ) ;
#152 = FILL_AREA_STYLE_COLOUR ( '', #343 ) ;
#153 = PRESENTATION_LAYER_ASSIGNMENT (  '', '', ( #307 ) ) ;
#154 = CARTESIAN_POINT ( 'NONE',  ( -1.530808498934190893E-17, 0.1249999999999999029, 0.000000000000000000 ) ) ;
#155 = FACE_OUTER_BOUND ( 'NONE', #168, .T. ) ;
#156 =( NAMED_UNIT ( * ) SI_UNIT ( $, .STERADIAN. ) SOLID_ANGLE_UNIT ( ) );
#157 = ORIENTED_EDGE ( 'NONE', *, *, #235, .F. ) ;
#158 = CARTESIAN_POINT ( 'NONE',  ( -1.530808498934190893E-17, 0.1249999999999999029, 0.000000000000000000 ) ) ;
#159 = CIRCLE ( 'NONE', #305, 0.1249999999999999306 ) ;
#160 = DIRECTION ( 'NONE',  ( 0.000000000000000000, 0.000000000000000000, -1.000000000000000000 ) ) ;
#161 = SURFACE_SIDE_STYLE ('',( #48 ) ) ;
#162 = EDGE_CURVE ( 'NONE', #1, #217, #370, .T. ) ;
#163 = VECTOR ( 'NONE', #366, 39.37007874015748143 ) ;
#164 = MECHANICAL_DESIGN_GEOMETRIC_PRESENTATION_REPRESENTATION (  '', ( #361 ), #117 ) ;
#165 = CARTESIAN_POINT ( 'NONE',  ( 0.000000000000000000, 0.000000000000000000, -0.1249999999999999167 ) ) ;
#166 = LINE ( 'NONE', #228, #69 ) ;
#167 = SURFACE_STYLE_FILL_AREA ( #322 ) ;
#168 = EDGE_LOOP ( 'NONE', ( #15, #323, #29, #260 ) ) ;
#169 = EDGE_CURVE ( 'NONE', #121, #144, #303, .T. ) ;
#170 = MECHANICAL_DESIGN_GEOMETRIC_PRESENTATION_REPRESENTATION (  '', ( #335 ), #241 ) ;
#171 =( GEOMETRIC_REPRESENTATION_CONTEXT ( 3 ) GLOBAL_UNCERTAINTY_ASSIGNED_CONTEXT ( ( #43 ) ) GLOBAL_UNIT_ASSIGNED_CONTEXT ( ( #186, #209, #74 ) ) REPRESENTATION_CONTEXT ( 'NONE', 'WORKASPACE' ) );
#172 = EDGE_LOOP ( 'NONE', ( #349, #143, #157, #265 ) ) ;
#173 = DIRECTION ( 'NONE',  ( 0.000000000000000000, 0.000000000000000000, -1.000000000000000000 ) ) ;
#174 = SURFACE_SIDE_STYLE ('',( #167 ) ) ;
#175 = DIRECTION ( 'NONE',  ( 0.000000000000000000, 0.000000000000000000, 1.000000000000000000 ) ) ;
#176 = EDGE_LOOP ( 'NONE', ( #206, #243, #62, #357, #314 ) ) ;
#177 =( NAMED_UNIT ( * ) PLANE_ANGLE_UNIT ( ) SI_UNIT ( $, .RADIAN. ) );
#178 = DIRECTION ( 'NONE',  ( -1.000000000000000000, 0.000000000000000000, 0.000000000000000000 ) ) ;
#179 = EDGE_CURVE ( 'NONE', #64, #217, #130, .T. ) ;
#180 = UNCERTAINTY_MEASURE_WITH_UNIT (LENGTH_MEASURE( 1.000000000000000082E-05 ), #311, 'distance_accuracy_value', 'NONE');
#181 = CLOSED_SHELL ( 'NONE', ( #266, #24, #58, #255, #13 ) ) ;
#182 = MECHANICAL_DESIGN_GEOMETRIC_PRESENTATION_REPRESENTATION (  '', ( #307 ), #285 ) ;
#183 = CARTESIAN_POINT ( 'NONE',  ( 1.530808498934190276E-17, 0.000000000000000000, 0.1249999999999999167 ) ) ;
#184 = UNCERTAINTY_MEASURE_WITH_UNIT (LENGTH_MEASURE( 1.000000000000000082E-05 ), #220, 'distance_accuracy_value', 'NONE');
#185 = LENGTH_MEASURE_WITH_UNIT ( LENGTH_MEASURE( 0.02539999999999999897 ), #73 );
#186 =( CONVERSION_BASED_UNIT ( 'INCH', #125 ) LENGTH_UNIT ( ) NAMED_UNIT ( #82 ) );
#187 = VECTOR ( 'NONE', #334, 39.37007874015748143 ) ;
#188 = DIRECTION ( 'NONE',  ( -1.224646799147353207E-16, 1.000000000000000000, -0.000000000000000000 ) ) ;
#189 = CARTESIAN_POINT ( 'NONE',  ( 0.1249999999999999445, 0.5000000000000001110, 1.530808498934190893E-17 ) ) ;
#190 = DIRECTION ( 'NONE',  ( 0.000000000000000000, 0.000000000000000000, -1.000000000000000000 ) ) ;
#191 =( LENGTH_UNIT ( ) NAMED_UNIT ( * ) SI_UNIT ( $, .METRE. ) );
#192 =( GEOMETRIC_REPRESENTATION_CONTEXT ( 3 ) GLOBAL_UNCERTAINTY_ASSIGNED_CONTEXT ( ( #85 ) ) GLOBAL_UNIT_ASSIGNED_CONTEXT ( ( #9, #177, #156 ) ) REPRESENTATION_CONTEXT ( 'NONE', 'WORKASPACE' ) );
#193 = FILL_AREA_STYLE ('',( #198 ) ) ;
#194 = CARTESIAN_POINT ( 'NONE',  ( -7.654042494670956004E-18, 0.000000000000000000, 0.000000000000000000 ) ) ;
#195 = PRODUCT_DEFINITION ( 'UNKNOWN', '', #249, #358 ) ;
#196 = MANIFOLD_SOLID_BREP ( 'Revolve - Cutting Edge', #181 ) ;
#197 = SURFACE_STYLE_FILL_AREA ( #337 ) ;
#198 = FILL_AREA_STYLE_COLOUR ( '', #219 ) ;
#199 = AXIS2_PLACEMENT_3D ( 'NONE', #16, #293, #45 ) ;
#200 = PRESENTATION_LAYER_ASSIGNMENT (  '', '', ( #31 ) ) ;
#201 = LENGTH_MEASURE_WITH_UNIT ( LENGTH_MEASURE( 0.02539999999999999897 ), #150 );
#202 = ORIENTED_EDGE ( 'NONE', *, *, #111, .F. ) ;
#203 = EDGE_CURVE ( 'NONE', #144, #263, #96, .T. ) ;
#204 = CARTESIAN_POINT ( 'NONE',  ( 0.000000000000000000, 0.000000000000000000, 0.000000000000000000 ) ) ;
#205 = VERTEX_POINT ( 'NONE', #277 ) ;
#206 = ORIENTED_EDGE ( 'NONE', *, *, #310, .T. ) ;
#207 =( GEOMETRIC_REPRESENTATION_CONTEXT ( 3 ) GLOBAL_UNCERTAINTY_ASSIGNED_CONTEXT ( ( #253 ) ) GLOBAL_UNIT_ASSIGNED_CONTEXT ( ( #53, #306, #257 ) ) REPRESENTATION_CONTEXT ( 'NONE', 'WORKASPACE' ) );
#208 = CARTESIAN_POINT ( 'NONE',  ( 0.000000000000000000, 0.1249999999999999029, 0.000000000000000000 ) ) ;
#209 =( NAMED_UNIT ( * ) PLANE_ANGLE_UNIT ( ) SI_UNIT ( $, .RADIAN. ) );
#210 = FILL_AREA_STYLE ('',( #152 ) ) ;
#211 = SHAPE_DEFINITION_REPRESENTATION ( #27, #54 ) ;
#212 = EDGE_CURVE ( 'NONE', #205, #298, #227, .T. ) ;
#213 = EDGE_LOOP ( 'NONE', ( #262, #353 ) ) ;
#214 = FILL_AREA_STYLE ('',( #247 ) ) ;
#215 = FACE_OUTER_BOUND ( 'NONE', #172, .T. ) ;
#216 = APPLICATION_PROTOCOL_DEFINITION ( 'draft international standard', 'automotive_design', 1998, #33 ) ;
#217 = VERTEX_POINT ( 'NONE', #295 ) ;
#218 =( LENGTH_UNIT ( ) NAMED_UNIT ( * ) SI_UNIT ( $, .METRE. ) );
#219 = COLOUR_RGB ( '',0.7921568627450980005, 0.8196078431372548767, 0.9333333333333333481 ) ;
#220 =( CONVERSION_BASED_UNIT ( 'INCH', #185 ) LENGTH_UNIT ( ) NAMED_UNIT ( #89 ) );
#221 = AXIS2_PLACEMENT_3D ( 'NONE', #7, #129, #324 ) ;
#222 = SURFACE_SIDE_STYLE ('',( #132 ) ) ;
#223 = EDGE_CURVE ( 'NONE', #95, #146, #25, .T. ) ;
#224 = CARTESIAN_POINT ( 'NONE',  ( 1.836970198721029194E-16, 0.5000000000000001110, 0.000000000000000000 ) ) ;
#225 =( LENGTH_UNIT ( ) NAMED_UNIT ( * ) SI_UNIT ( $, .METRE. ) );
#226 = FACE_OUTER_BOUND ( 'NONE', #12, .T. ) ;
#227 = LINE ( 'NONE', #183, #187 ) ;
#228 = CARTESIAN_POINT ( 'NONE',  ( 0.1249999999999997918, 2.500000000000000000, 1.530808498934189660E-17 ) ) ;
#229 = MECHANICAL_DESIGN_GEOMETRIC_PRESENTATION_REPRESENTATION (  '', ( #11 ), #207 ) ;
#230 = CYLINDRICAL_SURFACE ( 'NONE', #139, 0.1249999999999999167 ) ;
#231 = CARTESIAN_POINT ( 'NONE',  ( 0.000000000000000000, 0.1249999999999999029, -0.1249999999999999029 ) ) ;
#232 =( CONVERSION_BASED_UNIT ( 'INCH', #142 ) LENGTH_UNIT ( ) NAMED_UNIT ( #369 ) );
#233 = DIRECTION ( 'NONE',  ( 0.000000000000000000, 0.000000000000000000, -1.000000000000000000 ) ) ;
#234 = AXIS2_PLACEMENT_3D ( 'NONE', #256, #23, #338 ) ;
#235 = EDGE_CURVE ( 'NONE', #263, #146, #145, .T. ) ;
#236 =( LENGTH_UNIT ( ) NAMED_UNIT ( * ) SI_UNIT ( $, .METRE. ) );
#237 = PRESENTATION_LAYER_ASSIGNMENT (  '', '', ( #361 ) ) ;
#238 = ORIENTED_EDGE ( 'NONE', *, *, #61, .F. ) ;
#239 = ORIENTED_EDGE ( 'NONE', *, *, #223, .F. ) ;
#240 = ORIENTED_EDGE ( 'NONE', *, *, #333, .T. ) ;
#241 =( GEOMETRIC_REPRESENTATION_CONTEXT ( 3 ) GLOBAL_UNCERTAINTY_ASSIGNED_CONTEXT ( ( #47 ) ) GLOBAL_UNIT_ASSIGNED_CONTEXT ( ( #136, #332, #76 ) ) REPRESENTATION_CONTEXT ( 'NONE', 'WORKASPACE' ) );
#242 = DIRECTION ( 'NONE',  ( 1.224646799147353207E-16, -1.000000000000000000, 0.000000000000000000 ) ) ;
#243 = ORIENTED_EDGE ( 'NONE', *, *, #212, .T. ) ;
#244 = CARTESIAN_POINT ( 'NONE',  ( -6.123233995736772199E-17, 2.500000000000000000, 0.000000000000000000 ) ) ;
#245 = DIRECTION ( 'NONE',  ( -1.000000000000000000, 0.000000000000000000, 0.000000000000000000 ) ) ;
#246 = EDGE_LOOP ( 'NONE', ( #134, #238 ) ) ;
#247 = FILL_AREA_STYLE_COLOUR ( '', #105 ) ;
#248 = AXIS2_PLACEMENT_3D ( 'NONE', #128, #329, #294 ) ;
#249 = PRODUCT_DEFINITION_FORMATION_WITH_SPECIFIED_SOURCE ( 'ANY', '', #106, .NOT_KNOWN. ) ;
#250 = SURFACE_STYLE_USAGE ( .BOTH. , #161 ) ;
#251 = SURFACE_STYLE_USAGE ( .BOTH. , #222 ) ;
#252 = DIRECTION ( 'NONE',  ( 0.000000000000000000, 0.000000000000000000, -1.000000000000000000 ) ) ;
#253 = UNCERTAINTY_MEASURE_WITH_UNIT (LENGTH_MEASURE( 1.000000000000000082E-05 ), #53, 'distance_accuracy_value', 'NONE');
#254 = CIRCLE ( 'NONE', #56, 0.1250000000000000000 ) ;
#255 = ADVANCED_FACE ( 'NONE', ( #226 ), #230, .T. ) ;
#256 = CARTESIAN_POINT ( 'NONE',  ( 1.836970198721029194E-16, 0.5000000000000001110, 0.000000000000000000 ) ) ;
#257 =( NAMED_UNIT ( * ) SI_UNIT ( $, .STERADIAN. ) SOLID_ANGLE_UNIT ( ) );
#258 = PRESENTATION_LAYER_ASSIGNMENT (  '', '', ( #335 ) ) ;
#259 =( NAMED_UNIT ( * ) SI_UNIT ( $, .STERADIAN. ) SOLID_ANGLE_UNIT ( ) );
#260 = ORIENTED_EDGE ( 'NONE', *, *, #179, .F. ) ;
#261 = FACE_OUTER_BOUND ( 'NONE', #94, .T. ) ;
#262 = ORIENTED_EDGE ( 'NONE', *, *, #372, .T. ) ;
#263 = VERTEX_POINT ( 'NONE', #35 ) ;
#264 =( CONVERSION_BASED_UNIT ( 'INCH', #319 ) LENGTH_UNIT ( ) NAMED_UNIT ( #81 ) );
#265 = ORIENTED_EDGE ( 'NONE', *, *, #71, .T. ) ;
#266 = ADVANCED_FACE ( 'NONE', ( #215 ), #44, .T. ) ;
#267 = APPLICATION_PROTOCOL_DEFINITION ( 'draft international standard', 'automotive_design', 1998, #273 ) ;
#268 = DIRECTION ( 'NONE',  ( -0.000000000000000000, -1.000000000000000000, -0.000000000000000000 ) ) ;
#269 = DIRECTION ( 'NONE',  ( 1.000000000000000000, 0.000000000000000000, 0.000000000000000000 ) ) ;
#270 = DIRECTION ( 'NONE',  ( -1.000000000000000000, 0.000000000000000000, 0.000000000000000000 ) ) ;
#271 = FILL_AREA_STYLE ('',( #97 ) ) ;
#272 = FACE_OUTER_BOUND ( 'NONE', #246, .T. ) ;
#273 = APPLICATION_CONTEXT ( 'automotive_design' ) ;
#274 = DIMENSIONAL_EXPONENTS ( 1.000000000000000000, 0.000000000000000000, 0.000000000000000000, 0.000000000000000000, 0.000000000000000000, 0.000000000000000000, 0.000000000000000000 ) ;
#275 = AXIS2_PLACEMENT_3D ( 'NONE', #80, #268, #190 ) ;
#276 =( GEOMETRIC_REPRESENTATION_CONTEXT ( 3 ) GLOBAL_UNCERTAINTY_ASSIGNED_CONTEXT ( ( #184 ) ) GLOBAL_UNIT_ASSIGNED_CONTEXT ( ( #220, #66, #39 ) ) REPRESENTATION_CONTEXT ( 'NONE', 'WORKASPACE' ) );
#277 = CARTESIAN_POINT ( 'NONE',  ( 1.530808498934190893E-17, 0.5000000000000000000, 0.1249999999999999445 ) ) ;
#278 = CARTESIAN_POINT ( 'NONE',  ( -6.123233995736772199E-17, 2.500000000000000000, 0.000000000000000000 ) ) ;
#279 = DIRECTION ( 'NONE',  ( -1.224646799147353207E-16, 1.000000000000000000, -0.000000000000000000 ) ) ;
#280 = DIRECTION ( 'NONE',  ( -0.000000000000000000, -1.000000000000000000, -0.000000000000000000 ) ) ;
#281 = ADVANCED_FACE ( 'NONE', ( #68 ), #100, .T. ) ;
#282 =( NAMED_UNIT ( * ) PLANE_ANGLE_UNIT ( ) SI_UNIT ( $, .RADIAN. ) );
#283 = ORIENTED_EDGE ( 'NONE', *, *, #363, .F. ) ;
#284 = CIRCLE ( 'NONE', #290, 0.1249999999999997641 ) ;
#285 =( GEOMETRIC_REPRESENTATION_CONTEXT ( 3 ) GLOBAL_UNCERTAINTY_ASSIGNED_CONTEXT ( ( #325 ) ) GLOBAL_UNIT_ASSIGNED_CONTEXT ( ( #264, #119, #292 ) ) REPRESENTATION_CONTEXT ( 'NONE', 'WORKASPACE' ) );
#286 = CARTESIAN_POINT ( 'NONE',  ( 0.000000000000000000, 0.1249999999999999029, 0.000000000000000000 ) ) ;
#287 = DIRECTION ( 'NONE',  ( 1.000000000000000000, 0.000000000000000000, 0.000000000000000000 ) ) ;
#288 = ORIENTED_EDGE ( 'NONE', *, *, #203, .T. ) ;
#289 = CARTESIAN_POINT ( 'NONE',  ( -6.123233995736772199E-17, 2.500000000000000000, 0.000000000000000000 ) ) ;
#290 = AXIS2_PLACEMENT_3D ( 'NONE', #224, #188, #270 ) ;
#291 = MECHANICAL_DESIGN_GEOMETRIC_PRESENTATION_REPRESENTATION (  '', ( #31 ), #276 ) ;
#292 =( NAMED_UNIT ( * ) SI_UNIT ( $, .STERADIAN. ) SOLID_ANGLE_UNIT ( ) );
#293 = DIRECTION ( 'NONE',  ( 0.000000000000000000, 1.000000000000000000, 0.000000000000000000 ) ) ;
#294 = DIRECTION ( 'NONE',  ( 1.000000000000000000, 0.000000000000000000, 0.000000000000000000 ) ) ;
#295 = CARTESIAN_POINT ( 'NONE',  ( -0.1250000000000000555, 2.500000000000000000, 0.000000000000000000 ) ) ;
#296 = DIRECTION ( 'NONE',  ( 0.000000000000000000, 0.000000000000000000, 1.000000000000000000 ) ) ;
#297 = LENGTH_MEASURE_WITH_UNIT ( LENGTH_MEASURE( 0.02539999999999999897 ), #14 );
#298 = VERTEX_POINT ( 'NONE', #36 ) ;
#299 = DIRECTION ( 'NONE',  ( 1.224646799147353207E-16, -0.000000000000000000, 1.000000000000000000 ) ) ;
#300 = AXIS2_PLACEMENT_3D ( 'NONE', #108, #330, #304 ) ;
#301 = UNCERTAINTY_MEASURE_WITH_UNIT (LENGTH_MEASURE( 1.000000000000000082E-05 ), #232, 'distance_accuracy_value', 'NONE');
#302 = PRESENTATION_STYLE_ASSIGNMENT (( #250 ) ) ;
#303 = LINE ( 'NONE', #165, #3 ) ;
#304 = DIRECTION ( 'NONE',  ( 0.000000000000000000, 0.000000000000000000, -1.000000000000000000 ) ) ;
#305 = AXIS2_PLACEMENT_3D ( 'NONE', #373, #280, #21 ) ;
#306 =( NAMED_UNIT ( * ) PLANE_ANGLE_UNIT ( ) SI_UNIT ( $, .RADIAN. ) );
#307 = STYLED_ITEM ( 'NONE', ( #321 ), #328 ) ;
#308 = SURFACE_STYLE_USAGE ( .BOTH. , #84 ) ;
#309 = SURFACE_STYLE_FILL_AREA ( #193 ) ;
#310 = EDGE_CURVE ( 'NONE', #121, #205, #131, .T. ) ;
#311 =( CONVERSION_BASED_UNIT ( 'INCH', #201 ) LENGTH_UNIT ( ) NAMED_UNIT ( #86 ) );
#312 = ORIENTED_EDGE ( 'NONE', *, *, #162, .F. ) ;
#313 = DIRECTION ( 'NONE',  ( -0.000000000000000000, -1.000000000000000000, -0.000000000000000000 ) ) ;
#314 = ORIENTED_EDGE ( 'NONE', *, *, #169, .F. ) ;
#315 = SURFACE_STYLE_FILL_AREA ( #214 ) ;
#316 = DIRECTION ( 'NONE',  ( 1.000000000000000000, 1.224646799147353207E-16, 0.000000000000000000 ) ) ;
#317 = CIRCLE ( 'NONE', #336, 0.1249999999999999029 ) ;
#318 = ORIENTED_EDGE ( 'NONE', *, *, #169, .T. ) ;
#319 = LENGTH_MEASURE_WITH_UNIT ( LENGTH_MEASURE( 0.02539999999999999897 ), #147 );
#320 = ORIENTED_EDGE ( 'NONE', *, *, #102, .T. ) ;
#321 = PRESENTATION_STYLE_ASSIGNMENT (( #38 ) ) ;
#322 = FILL_AREA_STYLE ('',( #28 ) ) ;
#323 = ORIENTED_EDGE ( 'NONE', *, *, #61, .T. ) ;
#324 = DIRECTION ( 'NONE',  ( 0.000000000000000000, 0.000000000000000000, -1.000000000000000000 ) ) ;
#325 = UNCERTAINTY_MEASURE_WITH_UNIT (LENGTH_MEASURE( 1.000000000000000082E-05 ), #264, 'distance_accuracy_value', 'NONE');
#326 = AXIS2_PLACEMENT_3D ( 'NONE', #109, #113, #57 ) ;
#327 = AXIS2_PLACEMENT_3D ( 'NONE', #244, #354, #65 ) ;
#328 = MANIFOLD_SOLID_BREP ( 'Revolve - Tool Body (Straight Shanked)', #103 ) ;
#329 = DIRECTION ( 'NONE',  ( 0.000000000000000000, 0.000000000000000000, 1.000000000000000000 ) ) ;
#330 = DIRECTION ( 'NONE',  ( -0.000000000000000000, -1.000000000000000000, -0.000000000000000000 ) ) ;
#331 = SURFACE_STYLE_USAGE ( .BOTH. , #123 ) ;
#332 =( NAMED_UNIT ( * ) PLANE_ANGLE_UNIT ( ) SI_UNIT ( $, .RADIAN. ) );
#333 = EDGE_CURVE ( 'NONE', #95, #144, #20, .T. ) ;
#334 = DIRECTION ( 'NONE',  ( -0.000000000000000000, -1.000000000000000000, -0.000000000000000000 ) ) ;
#335 = STYLED_ITEM ( 'NONE', ( #302 ), #58 ) ;
#336 = AXIS2_PLACEMENT_3D ( 'NONE', #286, #42, #149 ) ;
#337 = FILL_AREA_STYLE ('',( #2 ) ) ;
#338 = DIRECTION ( 'NONE',  ( -1.000000000000000000, 0.000000000000000000, 0.000000000000000000 ) ) ;
#339 =( NAMED_UNIT ( * ) PLANE_ANGLE_UNIT ( ) SI_UNIT ( $, .RADIAN. ) );
#340 = DIRECTION ( 'NONE',  ( -0.000000000000000000, -1.000000000000000000, -0.000000000000000000 ) ) ;
#341 = DIRECTION ( 'NONE',  ( -0.000000000000000000, -1.000000000000000000, -0.000000000000000000 ) ) ;
#342 = CIRCLE ( 'NONE', #275, 0.1249999999999999029 ) ;
#343 = COLOUR_RGB ( '',1.000000000000000000, 0.000000000000000000, 0.000000000000000000 ) ;
#344 = ORIENTED_EDGE ( 'NONE', *, *, #235, .T. ) ;
#345 = SURFACE_STYLE_USAGE ( .BOTH. , #174 ) ;
#346 = ORIENTED_EDGE ( 'NONE', *, *, #92, .T. ) ;
#347 = AXIS2_PLACEMENT_3D ( 'NONE', #204, #313, #233 ) ;
#348 = AXIS2_PLACEMENT_3D ( 'NONE', #154, #296, #269 ) ;
#349 = ORIENTED_EDGE ( 'NONE', *, *, #363, .T. ) ;
#350 = DIRECTION ( 'NONE',  ( -0.000000000000000000, -1.000000000000000000, -0.000000000000000000 ) ) ;
#351 = PLANE ( 'NONE',  #199 ) ;
#352 = CARTESIAN_POINT ( 'NONE',  ( 0.000000000000000000, 0.000000000000000000, 0.000000000000000000 ) ) ;
#353 = ORIENTED_EDGE ( 'NONE', *, *, #179, .T. ) ;
#354 = DIRECTION ( 'NONE',  ( -1.224646799147353207E-16, 1.000000000000000000, -0.000000000000000000 ) ) ;
#355 = CARTESIAN_POINT ( 'NONE',  ( 0.1249999999999999167, 2.500000000000000000, 1.530808498934190585E-17 ) ) ;
#356 = PRODUCT_CONTEXT ( 'NONE', #273, 'mechanical' ) ;
#357 = ORIENTED_EDGE ( 'NONE', *, *, #203, .F. ) ;
#358 = PRODUCT_DEFINITION_CONTEXT ( 'detailed design', #33, 'design' ) ;
#359 = AXIS2_PLACEMENT_3D ( 'NONE', #10, #127, #245 ) ;
#360 = ORIENTED_EDGE ( 'NONE', *, *, #310, .F. ) ;
#361 = STYLED_ITEM ( 'NONE', ( #110 ), #255 ) ;
#362 = AXIS2_PLACEMENT_3D ( 'NONE', #158, #299, #49 ) ;
#363 = EDGE_CURVE ( 'NONE', #298, #95, #317, .T. ) ;
#364 = PRESENTATION_STYLE_ASSIGNMENT (( #251 ) ) ;
#365 = COLOUR_RGB ( '',1.000000000000000000, 0.000000000000000000, 0.000000000000000000 ) ;
#366 = DIRECTION ( 'NONE',  ( -1.224646799147353207E-16, 1.000000000000000000, -0.000000000000000000 ) ) ;
#367 = PRODUCT_RELATED_PRODUCT_CATEGORY ( 'part', '', ( #106 ) ) ;
#368 = LENGTH_MEASURE_WITH_UNIT ( LENGTH_MEASURE( 0.02539999999999999897 ), #191 );
#369 = DIMENSIONAL_EXPONENTS ( 1.000000000000000000, 0.000000000000000000, 0.000000000000000000, 0.000000000000000000, 0.000000000000000000, 0.000000000000000000, 0.000000000000000000 ) ;
#370 = LINE ( 'NONE', #26, #163 ) ;
#371 = AXIS2_PLACEMENT_3D ( 'NONE', #352, #175, #287 ) ;
#372 = EDGE_CURVE ( 'NONE', #217, #64, #254, .T. ) ;
#373 = CARTESIAN_POINT ( 'NONE',  ( 0.000000000000000000, 0.5000000000000000000, 0.000000000000000000 ) ) ;
ENDSEC;
END-ISO-10303-21;
