ISO-10303-21;
HEADER;
FILE_DESCRIPTION (( 'STEP AP214' ),
    '1' );
FILE_NAME ('00017.STEP',
    '2023-06-22T14:02:08',
    ( '' ),
    ( '' ),
    'SwSTEP 2.0',
    'SolidWorks 2023',
    '' );
FILE_SCHEMA (( 'AUTOMOTIVE_DESIGN' ));
ENDSEC;

DATA;
#1 = SURFACE_STYLE_FILL_AREA ( #283 ) ;
#2 = LENGTH_MEASURE_WITH_UNIT ( LENGTH_MEASURE( 0.02539999999999999897 ), #128 );
#3 = CARTESIAN_POINT ( 'NONE',  ( 0.06250000000000000000, 1.500000000000000222, 0.000000000000000000 ) ) ;
#4 = PLANE ( 'NONE',  #129 ) ;
#5 = CARTESIAN_POINT ( 'NONE',  ( 0.000000000000000000, 0.2500000000000000000, -0.06250000000000000000 ) ) ;
#6 = LENGTH_MEASURE_WITH_UNIT ( LENGTH_MEASURE( 0.02539999999999999897 ), #224 );
#7 = EDGE_CURVE ( 'NONE', #183, #204, #152, .T. ) ;
#8 = ORIENTED_EDGE ( 'NONE', *, *, #194, .F. ) ;
#9 = ORIENTED_EDGE ( 'NONE', *, *, #179, .T. ) ;
#10 = DIMENSIONAL_EXPONENTS ( 1.000000000000000000, 0.000000000000000000, 0.000000000000000000, 0.000000000000000000, 0.000000000000000000, 0.000000000000000000, 0.000000000000000000 ) ;
#11 = ORIENTED_EDGE ( 'NONE', *, *, #115, .F. ) ;
#12 = ORIENTED_EDGE ( 'NONE', *, *, #121, .T. ) ;
#13 = DIRECTION ( 'NONE',  ( -1.000000000000000000, 0.000000000000000000, 0.000000000000000000 ) ) ;
#14 =( NAMED_UNIT ( * ) PLANE_ANGLE_UNIT ( ) SI_UNIT ( $, .RADIAN. ) );
#15 = COLOUR_RGB ( '',1.000000000000000000, 0.000000000000000000, 0.000000000000000000 ) ;
#16 = AXIS2_PLACEMENT_3D ( 'NONE', #148, #290, #193 ) ;
#17 = CLOSED_SHELL ( 'NONE', ( #158, #229, #184, #168 ) ) ;
#18 = APPLICATION_CONTEXT ( 'automotive_design' ) ;
#19 = PRODUCT_DEFINITION ( 'UNKNOWN', '', #77, #32 ) ;
#20 =( NAMED_UNIT ( * ) PLANE_ANGLE_UNIT ( ) SI_UNIT ( $, .RADIAN. ) );
#21 = CARTESIAN_POINT ( 'NONE',  ( 0.000000000000000000, 0.000000000000000000, -0.06250000000000000000 ) ) ;
#22 = CIRCLE ( 'NONE', #285, 0.06250000000000000000 ) ;
#23 = FILL_AREA_STYLE ('',( #281 ) ) ;
#24 = APPLICATION_PROTOCOL_DEFINITION ( 'draft international standard', 'automotive_design', 1998, #125 ) ;
#25 = CARTESIAN_POINT ( 'NONE',  ( 7.654042494670957545E-18, 0.000000000000000000, 0.06250000000000000000 ) ) ;
#26 = SURFACE_STYLE_FILL_AREA ( #251 ) ;
#27 = DIRECTION ( 'NONE',  ( 9.797174393178826150E-17, 1.000000000000000000, -0.000000000000000000 ) ) ;
#28 = VERTEX_POINT ( 'NONE', #131 ) ;
#29 = CYLINDRICAL_SURFACE ( 'NONE', #256, 0.06250000000000000000 ) ;
#30 = ADVANCED_FACE ( 'NONE', ( #245 ), #29, .T. ) ;
#31 = ORIENTED_EDGE ( 'NONE', *, *, #194, .T. ) ;
#32 = PRODUCT_DEFINITION_CONTEXT ( 'detailed design', #18, 'design' ) ;
#33 = MECHANICAL_DESIGN_GEOMETRIC_PRESENTATION_REPRESENTATION (  '', ( #231 ), #109 ) ;
#34 = CYLINDRICAL_SURFACE ( 'NONE', #154, 0.06250000000000000000 ) ;
#35 = SURFACE_SIDE_STYLE ('',( #112 ) ) ;
#36 = CARTESIAN_POINT ( 'NONE',  ( 0.000000000000000000, 0.000000000000000000, -0.06250000000000000000 ) ) ;
#37 = MANIFOLD_SOLID_BREP ( 'Revolve - Tool Body (Straight Shanked)', #17 ) ;
#38 = UNCERTAINTY_MEASURE_WITH_UNIT (LENGTH_MEASURE( 1.000000000000000082E-05 ), #62, 'distance_accuracy_value', 'NONE');
#39 = ADVANCED_FACE ( 'NONE', ( #165 ), #34, .T. ) ;
#40 =( CONVERSION_BASED_UNIT ( 'INCH', #278 ) LENGTH_UNIT ( ) NAMED_UNIT ( #206 ) );
#41 = DIRECTION ( 'NONE',  ( -9.797174393178824918E-17, -1.000000000000000000, 0.000000000000000000 ) ) ;
#42 = CIRCLE ( 'NONE', #188, 0.06250000000000000000 ) ;
#43 = DIRECTION ( 'NONE',  ( 0.000000000000000000, 0.000000000000000000, 1.000000000000000000 ) ) ;
#44 = FACE_OUTER_BOUND ( 'NONE', #159, .T. ) ;
#45 = ORIENTED_EDGE ( 'NONE', *, *, #73, .F. ) ;
#46 = FILL_AREA_STYLE_COLOUR ( '', #203 ) ;
#47 = ORIENTED_EDGE ( 'NONE', *, *, #115, .T. ) ;
#48 = DIRECTION ( 'NONE',  ( -0.000000000000000000, -1.000000000000000000, -0.000000000000000000 ) ) ;
#49 = AXIS2_PLACEMENT_3D ( 'NONE', #302, #82, #304 ) ;
#50 = VECTOR ( 'NONE', #215, 39.37007874015748143 ) ;
#51 = CYLINDRICAL_SURFACE ( 'NONE', #208, 0.06249999999999993755 ) ;
#52 = ORIENTED_EDGE ( 'NONE', *, *, #89, .T. ) ;
#53 =( CONVERSION_BASED_UNIT ( 'INCH', #2 ) LENGTH_UNIT ( ) NAMED_UNIT ( #157 ) );
#54 = EDGE_LOOP ( 'NONE', ( #45, #8 ) ) ;
#55 =( GEOMETRIC_REPRESENTATION_CONTEXT ( 3 ) GLOBAL_UNCERTAINTY_ASSIGNED_CONTEXT ( ( #57 ) ) GLOBAL_UNIT_ASSIGNED_CONTEXT ( ( #53, #151, #123 ) ) REPRESENTATION_CONTEXT ( 'NONE', 'WORKASPACE' ) );
#56 = ORIENTED_EDGE ( 'NONE', *, *, #277, .F. ) ;
#57 = UNCERTAINTY_MEASURE_WITH_UNIT (LENGTH_MEASURE( 1.000000000000000082E-05 ), #53, 'distance_accuracy_value', 'NONE');
#58 = LENGTH_MEASURE_WITH_UNIT ( LENGTH_MEASURE( 0.02539999999999999897 ), #161 );
#59 = STYLED_ITEM ( 'NONE', ( #127 ), #30 ) ;
#60 = FILL_AREA_STYLE ('',( #111 ) ) ;
#61 = CARTESIAN_POINT ( 'NONE',  ( 0.000000000000000000, 0.000000000000000000, 0.000000000000000000 ) ) ;
#62 =( CONVERSION_BASED_UNIT ( 'INCH', #58 ) LENGTH_UNIT ( ) NAMED_UNIT ( #75 ) );
#63 = COLOUR_RGB ( '',1.000000000000000000, 0.000000000000000000, 0.000000000000000000 ) ;
#64 = DIRECTION ( 'NONE',  ( -0.000000000000000000, -1.000000000000000000, -0.000000000000000000 ) ) ;
#65 =( CONVERSION_BASED_UNIT ( 'INCH', #284 ) LENGTH_UNIT ( ) NAMED_UNIT ( #106 ) );
#66 =( CONVERSION_BASED_UNIT ( 'INCH', #93 ) LENGTH_UNIT ( ) NAMED_UNIT ( #250 ) );
#67 = LINE ( 'NONE', #21, #155 ) ;
#68 = DIRECTION ( 'NONE',  ( -0.000000000000000000, -1.000000000000000000, -0.000000000000000000 ) ) ;
#69 = CARTESIAN_POINT ( 'NONE',  ( 0.000000000000000000, 0.2500000000000000000, 0.000000000000000000 ) ) ;
#70 =( GEOMETRIC_REPRESENTATION_CONTEXT ( 3 ) GLOBAL_UNCERTAINTY_ASSIGNED_CONTEXT ( ( #38 ) ) GLOBAL_UNIT_ASSIGNED_CONTEXT ( ( #62, #14, #163 ) ) REPRESENTATION_CONTEXT ( 'NONE', 'WORKASPACE' ) );
#71 = DIRECTION ( 'NONE',  ( 9.797174393178826150E-17, 1.000000000000000000, -0.000000000000000000 ) ) ;
#72 =( CONVERSION_BASED_UNIT ( 'INCH', #6 ) LENGTH_UNIT ( ) NAMED_UNIT ( #182 ) );
#73 = EDGE_CURVE ( 'NONE', #183, #263, #120, .T. ) ;
#74 = ORIENTED_EDGE ( 'NONE', *, *, #73, .T. ) ;
#75 = DIMENSIONAL_EXPONENTS ( 1.000000000000000000, 0.000000000000000000, 0.000000000000000000, 0.000000000000000000, 0.000000000000000000, 0.000000000000000000, 0.000000000000000000 ) ;
#76 = MECHANICAL_DESIGN_GEOMETRIC_PRESENTATION_REPRESENTATION (  '', ( #190 ), #70 ) ;
#77 = PRODUCT_DEFINITION_FORMATION_WITH_SPECIFIED_SOURCE ( 'ANY', '', #147, .NOT_KNOWN. ) ;
#78 = CARTESIAN_POINT ( 'NONE',  ( -0.06249999999999981959, 1.500000000000000222, 0.000000000000000000 ) ) ;
#79 = CARTESIAN_POINT ( 'NONE',  ( 0.000000000000000000, 0.000000000000000000, 0.000000000000000000 ) ) ;
#80 = ORIENTED_EDGE ( 'NONE', *, *, #7, .T. ) ;
#81 = AXIS2_PLACEMENT_3D ( 'NONE', #167, #258, #139 ) ;
#82 = DIRECTION ( 'NONE',  ( 9.797174393178826150E-17, 1.000000000000000000, -0.000000000000000000 ) ) ;
#83 = FILL_AREA_STYLE ('',( #301 ) ) ;
#84 = DIRECTION ( 'NONE',  ( 0.000000000000000000, 0.000000000000000000, -1.000000000000000000 ) ) ;
#85 = PRESENTATION_LAYER_ASSIGNMENT (  '', '', ( #231 ) ) ;
#86 = PRESENTATION_LAYER_ASSIGNMENT (  '', '', ( #261 ) ) ;
#87 = PRESENTATION_STYLE_ASSIGNMENT (( #233 ) ) ;
#88 =( CONVERSION_BASED_UNIT ( 'INCH', #145 ) LENGTH_UNIT ( ) NAMED_UNIT ( #10 ) );
#89 = EDGE_CURVE ( 'NONE', #204, #181, #299, .T. ) ;
#90 =( LENGTH_UNIT ( ) NAMED_UNIT ( * ) SI_UNIT ( $, .METRE. ) );
#91 =( GEOMETRIC_REPRESENTATION_CONTEXT ( 3 ) GLOBAL_UNCERTAINTY_ASSIGNED_CONTEXT ( ( #146 ) ) GLOBAL_UNIT_ASSIGNED_CONTEXT ( ( #72, #180, #210 ) ) REPRESENTATION_CONTEXT ( 'NONE', 'WORKASPACE' ) );
#92 = MECHANICAL_DESIGN_GEOMETRIC_PRESENTATION_REPRESENTATION (  '', ( #261 ), #55 ) ;
#93 = LENGTH_MEASURE_WITH_UNIT ( LENGTH_MEASURE( 0.02539999999999999897 ), #90 );
#94 = ORIENTED_EDGE ( 'NONE', *, *, #297, .F. ) ;
#95 = SURFACE_SIDE_STYLE ('',( #218 ) ) ;
#96 = DIRECTION ( 'NONE',  ( 1.000000000000000000, -9.797174393178824918E-17, 0.000000000000000000 ) ) ;
#97 = PRODUCT_DEFINITION_SHAPE ( 'NONE', 'NONE',  #19 ) ;
#98 = CARTESIAN_POINT ( 'NONE',  ( 0.06249999999999999306, 0.2500000000000000555, 7.654042494670954463E-18 ) ) ;
#99 = CARTESIAN_POINT ( 'NONE',  ( 0.000000000000000000, 0.000000000000000000, 0.000000000000000000 ) ) ;
#100 = CARTESIAN_POINT ( 'NONE',  ( -1.516480271171051896E-32, 0.2500000000000000555, 0.000000000000000000 ) ) ;
#101 = FACE_OUTER_BOUND ( 'NONE', #143, .T. ) ;
#102 = AXIS2_PLACEMENT_3D ( 'NONE', #170, #124, #173 ) ;
#103 = VECTOR ( 'NONE', #305, 39.37007874015748143 ) ;
#104 = ORIENTED_EDGE ( 'NONE', *, *, #89, .F. ) ;
#105 = ORIENTED_EDGE ( 'NONE', *, *, #253, .F. ) ;
#106 = DIMENSIONAL_EXPONENTS ( 1.000000000000000000, 0.000000000000000000, 0.000000000000000000, 0.000000000000000000, 0.000000000000000000, 0.000000000000000000, 0.000000000000000000 ) ;
#107 = ORIENTED_EDGE ( 'NONE', *, *, #179, .F. ) ;
#108 = ORIENTED_EDGE ( 'NONE', *, *, #300, .T. ) ;
#109 =( GEOMETRIC_REPRESENTATION_CONTEXT ( 3 ) GLOBAL_UNCERTAINTY_ASSIGNED_CONTEXT ( ( #164 ) ) GLOBAL_UNIT_ASSIGNED_CONTEXT ( ( #40, #110, #234 ) ) REPRESENTATION_CONTEXT ( 'NONE', 'WORKASPACE' ) );
#110 =( NAMED_UNIT ( * ) PLANE_ANGLE_UNIT ( ) SI_UNIT ( $, .RADIAN. ) );
#111 = FILL_AREA_STYLE_COLOUR ( '', #136 ) ;
#112 = SURFACE_STYLE_FILL_AREA ( #60 ) ;
#113 = PRESENTATION_LAYER_ASSIGNMENT (  '', '', ( #225 ) ) ;
#114 = CARTESIAN_POINT ( 'NONE',  ( 0.06249999999999999306, 1.500000000000000222, 7.654042494670954463E-18 ) ) ;
#115 = EDGE_CURVE ( 'NONE', #272, #117, #22, .T. ) ;
#116 = CARTESIAN_POINT ( 'NONE',  ( 1.224646799147353207E-16, 1.500000000000000222, 0.000000000000000000 ) ) ;
#117 = VERTEX_POINT ( 'NONE', #36 ) ;
#118 = DIRECTION ( 'NONE',  ( -1.000000000000000000, 0.000000000000000000, 0.000000000000000000 ) ) ;
#119 = LINE ( 'NONE', #174, #50 ) ;
#120 = CIRCLE ( 'NONE', #294, 0.06250000000000000000 ) ;
#121 = EDGE_CURVE ( 'NONE', #117, #272, #160, .T. ) ;
#122 = FACE_OUTER_BOUND ( 'NONE', #271, .T. ) ;
#123 =( NAMED_UNIT ( * ) SI_UNIT ( $, .STERADIAN. ) SOLID_ANGLE_UNIT ( ) );
#124 = DIRECTION ( 'NONE',  ( 0.000000000000000000, 1.000000000000000000, 0.000000000000000000 ) ) ;
#125 = APPLICATION_CONTEXT ( 'automotive_design' ) ;
#126 = DIRECTION ( 'NONE',  ( 0.000000000000000000, 0.000000000000000000, -1.000000000000000000 ) ) ;
#127 = PRESENTATION_STYLE_ASSIGNMENT (( #247 ) ) ;
#128 =( LENGTH_UNIT ( ) NAMED_UNIT ( * ) SI_UNIT ( $, .METRE. ) );
#129 = AXIS2_PLACEMENT_3D ( 'NONE', #144, #199, #291 ) ;
#130 = ORIENTED_EDGE ( 'NONE', *, *, #300, .F. ) ;
#131 = CARTESIAN_POINT ( 'NONE',  ( 7.654042494670957545E-18, 0.2500000000000000000, 0.06250000000000000000 ) ) ;
#132 = SURFACE_SIDE_STYLE ('',( #212 ) ) ;
#133 = UNCERTAINTY_MEASURE_WITH_UNIT (LENGTH_MEASURE( 1.000000000000000082E-05 ), #66, 'distance_accuracy_value', 'NONE');
#134 =( LENGTH_UNIT ( ) NAMED_UNIT ( * ) SI_UNIT ( $, .METRE. ) );
#135 = EDGE_CURVE ( 'NONE', #28, #272, #189, .T. ) ;
#136 = COLOUR_RGB ( '',0.7921568627450980005, 0.8196078431372548767, 0.9333333333333333481 ) ;
#137 = CARTESIAN_POINT ( 'NONE',  ( 7.654042494670957545E-18, 0.000000000000000000, 0.06250000000000000000 ) ) ;
#138 = AXIS2_PLACEMENT_3D ( 'NONE', #309, #27, #238 ) ;
#139 = DIRECTION ( 'NONE',  ( 0.000000000000000000, 0.000000000000000000, -1.000000000000000000 ) ) ;
#140 = DIRECTION ( 'NONE',  ( 0.000000000000000000, 0.000000000000000000, -1.000000000000000000 ) ) ;
#141 = COLOUR_RGB ( '',0.7921568627450980005, 0.8196078431372548767, 0.9333333333333333481 ) ;
#142 = PRESENTATION_STYLE_ASSIGNMENT (( #220 ) ) ;
#143 = EDGE_LOOP ( 'NONE', ( #12, #47 ) ) ;
#144 = CARTESIAN_POINT ( 'NONE',  ( 0.000000000000000000, 0.000000000000000000, 0.000000000000000000 ) ) ;
#145 = LENGTH_MEASURE_WITH_UNIT ( LENGTH_MEASURE( 0.02539999999999999897 ), #307 );
#146 = UNCERTAINTY_MEASURE_WITH_UNIT (LENGTH_MEASURE( 1.000000000000000082E-05 ), #72, 'distance_accuracy_value', 'NONE');
#147 = PRODUCT ( '00017', '00017', '', ( #292 ) ) ;
#148 = CARTESIAN_POINT ( 'NONE',  ( 2.999519565323715729E-34, 0.2500000000000000000, 0.000000000000000000 ) ) ;
#149 = CARTESIAN_POINT ( 'NONE',  ( 0.000000000000000000, 0.2500000000000000000, 0.000000000000000000 ) ) ;
#150 = EDGE_LOOP ( 'NONE', ( #94, #107 ) ) ;
#151 =( NAMED_UNIT ( * ) PLANE_ANGLE_UNIT ( ) SI_UNIT ( $, .RADIAN. ) );
#152 = LINE ( 'NONE', #78, #166 ) ;
#153 = MANIFOLD_SOLID_BREP ( 'Revolve - Cutting Edge', #222 ) ;
#154 = AXIS2_PLACEMENT_3D ( 'NONE', #306, #254, #84 ) ;
#155 = VECTOR ( 'NONE', #48, 39.37007874015748143 ) ;
#156 = ORIENTED_EDGE ( 'NONE', *, *, #121, .F. ) ;
#157 = DIMENSIONAL_EXPONENTS ( 1.000000000000000000, 0.000000000000000000, 0.000000000000000000, 0.000000000000000000, 0.000000000000000000, 0.000000000000000000, 0.000000000000000000 ) ;
#158 = ADVANCED_FACE ( 'NONE', ( #44 ), #51, .T. ) ;
#159 = EDGE_LOOP ( 'NONE', ( #74, #287, #104, #298 ) ) ;
#160 = CIRCLE ( 'NONE', #81, 0.06250000000000000000 ) ;
#161 =( LENGTH_UNIT ( ) NAMED_UNIT ( * ) SI_UNIT ( $, .METRE. ) );
#162 = ADVANCED_FACE ( 'NONE', ( #216 ), #259, .T. ) ;
#163 =( NAMED_UNIT ( * ) SI_UNIT ( $, .STERADIAN. ) SOLID_ANGLE_UNIT ( ) );
#164 = UNCERTAINTY_MEASURE_WITH_UNIT (LENGTH_MEASURE( 1.000000000000000082E-05 ), #40, 'distance_accuracy_value', 'NONE');
#165 = FACE_OUTER_BOUND ( 'NONE', #237, .T. ) ;
#166 = VECTOR ( 'NONE', #296, 39.37007874015748143 ) ;
#167 = CARTESIAN_POINT ( 'NONE',  ( 0.000000000000000000, 0.000000000000000000, 0.000000000000000000 ) ) ;
#168 = ADVANCED_FACE ( 'NONE', ( #122 ), #219, .F. ) ;
#169 = APPLICATION_PROTOCOL_DEFINITION ( 'draft international standard', 'automotive_design', 1998, #18 ) ;
#170 = CARTESIAN_POINT ( 'NONE',  ( 0.000000000000000000, 0.2500000000000000000, 0.000000000000000000 ) ) ;
#171 =( NAMED_UNIT ( * ) SI_UNIT ( $, .STERADIAN. ) SOLID_ANGLE_UNIT ( ) );
#172 = FACE_OUTER_BOUND ( 'NONE', #54, .T. ) ;
#173 = DIRECTION ( 'NONE',  ( 0.000000000000000000, -0.000000000000000000, 1.000000000000000000 ) ) ;
#174 = CARTESIAN_POINT ( 'NONE',  ( 0.06250000000000005551, 1.500000000000000222, 7.654042494670949841E-18 ) ) ;
#175 = DIRECTION ( 'NONE',  ( 9.797174393178826150E-17, 1.000000000000000000, -0.000000000000000000 ) ) ;
#176 = DIRECTION ( 'NONE',  ( -1.000000000000000000, 0.000000000000000000, 0.000000000000000000 ) ) ;
#177 = DIRECTION ( 'NONE',  ( -1.000000000000000000, 0.000000000000000000, 0.000000000000000000 ) ) ;
#178 =( LENGTH_UNIT ( ) NAMED_UNIT ( * ) SI_UNIT ( $, .METRE. ) );
#179 = EDGE_CURVE ( 'NONE', #28, #205, #42, .T. ) ;
#180 =( NAMED_UNIT ( * ) PLANE_ANGLE_UNIT ( ) SI_UNIT ( $, .RADIAN. ) );
#181 = VERTEX_POINT ( 'NONE', #114 ) ;
#182 = DIMENSIONAL_EXPONENTS ( 1.000000000000000000, 0.000000000000000000, 0.000000000000000000, 0.000000000000000000, 0.000000000000000000, 0.000000000000000000, 0.000000000000000000 ) ;
#183 = VERTEX_POINT ( 'NONE', #214 ) ;
#184 = ADVANCED_FACE ( 'NONE', ( #270 ), #200, .T. ) ;
#185 = DIRECTION ( 'NONE',  ( -0.000000000000000000, -1.000000000000000000, -0.000000000000000000 ) ) ;
#186 = ORIENTED_EDGE ( 'NONE', *, *, #135, .F. ) ;
#187 = UNCERTAINTY_MEASURE_WITH_UNIT (LENGTH_MEASURE( 1.000000000000000082E-05 ), #65, 'distance_accuracy_value', 'NONE');
#188 = AXIS2_PLACEMENT_3D ( 'NONE', #149, #68, #140 ) ;
#189 = LINE ( 'NONE', #137, #103 ) ;
#190 = STYLED_ITEM ( 'NONE', ( #87 ), #39 ) ;
#191 = DIRECTION ( 'NONE',  ( 9.797174393178826150E-17, 1.000000000000000000, -0.000000000000000000 ) ) ;
#192 = PRESENTATION_STYLE_ASSIGNMENT (( #262 ) ) ;
#193 = DIRECTION ( 'NONE',  ( -1.000000000000000000, 9.797174393178824918E-17, 0.000000000000000000 ) ) ;
#194 = EDGE_CURVE ( 'NONE', #263, #183, #248, .T. ) ;
#195 = SURFACE_STYLE_FILL_AREA ( #23 ) ;
#196 = EDGE_LOOP ( 'NONE', ( #186, #9, #275, #11 ) ) ;
#197 = ADVANCED_BREP_SHAPE_REPRESENTATION ( '00017', ( #153, #37, #226 ), #286 ) ;
#198 =( NAMED_UNIT ( * ) SI_UNIT ( $, .STERADIAN. ) SOLID_ANGLE_UNIT ( ) );
#199 = DIRECTION ( 'NONE',  ( 0.000000000000000000, -1.000000000000000000, -0.000000000000000000 ) ) ;
#200 = CYLINDRICAL_SURFACE ( 'NONE', #232, 0.06249999999999993755 ) ;
#201 = SURFACE_STYLE_USAGE ( .BOTH. , #95 ) ;
#202 = MECHANICAL_DESIGN_GEOMETRIC_PRESENTATION_REPRESENTATION (  '', ( #59 ), #91 ) ;
#203 = COLOUR_RGB ( '',1.000000000000000000, 0.000000000000000000, 0.000000000000000000 ) ;
#204 = VERTEX_POINT ( 'NONE', #241 ) ;
#205 = VERTEX_POINT ( 'NONE', #5 ) ;
#206 = DIMENSIONAL_EXPONENTS ( 1.000000000000000000, 0.000000000000000000, 0.000000000000000000, 0.000000000000000000, 0.000000000000000000, 0.000000000000000000, 0.000000000000000000 ) ;
#207 = FILL_AREA_STYLE_COLOUR ( '', #260 ) ;
#208 = AXIS2_PLACEMENT_3D ( 'NONE', #116, #175, #118 ) ;
#209 = ORIENTED_EDGE ( 'NONE', *, *, #297, .T. ) ;
#210 =( NAMED_UNIT ( * ) SI_UNIT ( $, .STERADIAN. ) SOLID_ANGLE_UNIT ( ) );
#211 =( GEOMETRIC_REPRESENTATION_CONTEXT ( 3 ) GLOBAL_UNCERTAINTY_ASSIGNED_CONTEXT ( ( #230 ) ) GLOBAL_UNIT_ASSIGNED_CONTEXT ( ( #88, #236, #198 ) ) REPRESENTATION_CONTEXT ( 'NONE', 'WORKASPACE' ) );
#212 = SURFACE_STYLE_FILL_AREA ( #83 ) ;
#213 = SURFACE_STYLE_USAGE ( .BOTH. , #35 ) ;
#214 = CARTESIAN_POINT ( 'NONE',  ( -0.06250000000000000000, 0.2500000000000000555, 0.000000000000000000 ) ) ;
#215 = DIRECTION ( 'NONE',  ( 9.797174393178824918E-17, 1.000000000000000000, -0.000000000000000000 ) ) ;
#216 = FACE_OUTER_BOUND ( 'NONE', #150, .T. ) ;
#217 = PRESENTATION_LAYER_ASSIGNMENT (  '', '', ( #59 ) ) ;
#218 = SURFACE_STYLE_FILL_AREA ( #221 ) ;
#219 = PLANE ( 'NONE',  #276 ) ;
#220 = SURFACE_STYLE_USAGE ( .BOTH. , #242 ) ;
#221 = FILL_AREA_STYLE ('',( #46 ) ) ;
#222 = CLOSED_SHELL ( 'NONE', ( #39, #162, #30, #282 ) ) ;
#223 = ORIENTED_EDGE ( 'NONE', *, *, #135, .T. ) ;
#224 =( LENGTH_UNIT ( ) NAMED_UNIT ( * ) SI_UNIT ( $, .METRE. ) );
#225 = STYLED_ITEM ( 'NONE', ( #192 ), #153 ) ;
#226 = AXIS2_PLACEMENT_3D ( 'NONE', #99, #43, #239 ) ;
#227 = DIRECTION ( 'NONE',  ( 0.000000000000000000, 0.000000000000000000, -1.000000000000000000 ) ) ;
#228 = CARTESIAN_POINT ( 'NONE',  ( -1.516480271171051896E-32, 0.2500000000000000555, 0.000000000000000000 ) ) ;
#229 = ADVANCED_FACE ( 'NONE', ( #172 ), #264, .F. ) ;
#230 = UNCERTAINTY_MEASURE_WITH_UNIT (LENGTH_MEASURE( 1.000000000000000082E-05 ), #88, 'distance_accuracy_value', 'NONE');
#231 = STYLED_ITEM ( 'NONE', ( #257 ), #37 ) ;
#232 = AXIS2_PLACEMENT_3D ( 'NONE', #293, #71, #177 ) ;
#233 = SURFACE_STYLE_USAGE ( .BOTH. , #132 ) ;
#234 =( NAMED_UNIT ( * ) SI_UNIT ( $, .STERADIAN. ) SOLID_ANGLE_UNIT ( ) );
#235 = PRESENTATION_LAYER_ASSIGNMENT (  '', '', ( #190 ) ) ;
#236 =( NAMED_UNIT ( * ) PLANE_ANGLE_UNIT ( ) SI_UNIT ( $, .RADIAN. ) );
#237 = EDGE_LOOP ( 'NONE', ( #209, #223, #156, #105 ) ) ;
#238 = DIRECTION ( 'NONE',  ( -1.000000000000000000, 0.000000000000000000, 0.000000000000000000 ) ) ;
#239 = DIRECTION ( 'NONE',  ( 1.000000000000000000, 0.000000000000000000, 0.000000000000000000 ) ) ;
#240 = FILL_AREA_STYLE_COLOUR ( '', #63 ) ;
#241 = CARTESIAN_POINT ( 'NONE',  ( -0.06249999999999975714, 1.500000000000000222, 0.000000000000000000 ) ) ;
#242 = SURFACE_SIDE_STYLE ('',( #1 ) ) ;
#243 = STYLED_ITEM ( 'NONE', ( #142 ), #162 ) ;
#244 = DIRECTION ( 'NONE',  ( 9.797174393178826150E-17, 1.000000000000000000, -0.000000000000000000 ) ) ;
#245 = FACE_OUTER_BOUND ( 'NONE', #196, .T. ) ;
#246 = DIRECTION ( 'NONE',  ( -0.000000000000000000, -1.000000000000000000, -0.000000000000000000 ) ) ;
#247 = SURFACE_STYLE_USAGE ( .BOTH. , #274 ) ;
#248 = CIRCLE ( 'NONE', #268, 0.06250000000000000000 ) ;
#249 = EDGE_LOOP ( 'NONE', ( #56, #31, #80, #130 ) ) ;
#250 = DIMENSIONAL_EXPONENTS ( 1.000000000000000000, 0.000000000000000000, 0.000000000000000000, 0.000000000000000000, 0.000000000000000000, 0.000000000000000000, 0.000000000000000000 ) ;
#251 = FILL_AREA_STYLE ('',( #207 ) ) ;
#252 =( GEOMETRIC_REPRESENTATION_CONTEXT ( 3 ) GLOBAL_UNCERTAINTY_ASSIGNED_CONTEXT ( ( #133 ) ) GLOBAL_UNIT_ASSIGNED_CONTEXT ( ( #66, #289, #171 ) ) REPRESENTATION_CONTEXT ( 'NONE', 'WORKASPACE' ) );
#253 = EDGE_CURVE ( 'NONE', #205, #117, #67, .T. ) ;
#254 = DIRECTION ( 'NONE',  ( -0.000000000000000000, -1.000000000000000000, -0.000000000000000000 ) ) ;
#255 = DIRECTION ( 'NONE',  ( 0.000000000000000000, 0.000000000000000000, -1.000000000000000000 ) ) ;
#256 = AXIS2_PLACEMENT_3D ( 'NONE', #79, #185, #227 ) ;
#257 = PRESENTATION_STYLE_ASSIGNMENT (( #213 ) ) ;
#258 = DIRECTION ( 'NONE',  ( -0.000000000000000000, -1.000000000000000000, -0.000000000000000000 ) ) ;
#259 = PLANE ( 'NONE',  #102 ) ;
#260 = COLOUR_RGB ( '',1.000000000000000000, 0.000000000000000000, 0.000000000000000000 ) ;
#261 = STYLED_ITEM ( 'NONE', ( #269 ), #282 ) ;
#262 = SURFACE_STYLE_USAGE ( .BOTH. , #265 ) ;
#263 = VERTEX_POINT ( 'NONE', #98 ) ;
#264 = PLANE ( 'NONE',  #16 ) ;
#265 = SURFACE_SIDE_STYLE ('',( #195 ) ) ;
#266 = PRODUCT_RELATED_PRODUCT_CATEGORY ( 'part', '', ( #147 ) ) ;
#267 = MECHANICAL_DESIGN_GEOMETRIC_PRESENTATION_REPRESENTATION (  '', ( #225 ), #211 ) ;
#268 = AXIS2_PLACEMENT_3D ( 'NONE', #100, #244, #176 ) ;
#269 = PRESENTATION_STYLE_ASSIGNMENT (( #201 ) ) ;
#270 = FACE_OUTER_BOUND ( 'NONE', #249, .T. ) ;
#271 = EDGE_LOOP ( 'NONE', ( #52, #108 ) ) ;
#272 = VERTEX_POINT ( 'NONE', #25 ) ;
#273 = AXIS2_PLACEMENT_3D ( 'NONE', #69, #246, #126 ) ;
#274 = SURFACE_SIDE_STYLE ('',( #26 ) ) ;
#275 = ORIENTED_EDGE ( 'NONE', *, *, #253, .T. ) ;
#276 = AXIS2_PLACEMENT_3D ( 'NONE', #3, #41, #96 ) ;
#277 = EDGE_CURVE ( 'NONE', #263, #181, #119, .T. ) ;
#278 = LENGTH_MEASURE_WITH_UNIT ( LENGTH_MEASURE( 0.02539999999999999897 ), #134 );
#279 = MECHANICAL_DESIGN_GEOMETRIC_PRESENTATION_REPRESENTATION (  '', ( #243 ), #252 ) ;
#280 = CIRCLE ( 'NONE', #273, 0.06250000000000000000 ) ;
#281 = FILL_AREA_STYLE_COLOUR ( '', #141 ) ;
#282 = ADVANCED_FACE ( 'NONE', ( #101 ), #4, .T. ) ;
#283 = FILL_AREA_STYLE ('',( #240 ) ) ;
#284 = LENGTH_MEASURE_WITH_UNIT ( LENGTH_MEASURE( 0.02539999999999999897 ), #178 );
#285 = AXIS2_PLACEMENT_3D ( 'NONE', #61, #64, #255 ) ;
#286 =( GEOMETRIC_REPRESENTATION_CONTEXT ( 3 ) GLOBAL_UNCERTAINTY_ASSIGNED_CONTEXT ( ( #187 ) ) GLOBAL_UNIT_ASSIGNED_CONTEXT ( ( #65, #20, #288 ) ) REPRESENTATION_CONTEXT ( 'NONE', 'WORKASPACE' ) );
#287 = ORIENTED_EDGE ( 'NONE', *, *, #277, .T. ) ;
#288 =( NAMED_UNIT ( * ) SI_UNIT ( $, .STERADIAN. ) SOLID_ANGLE_UNIT ( ) );
#289 =( NAMED_UNIT ( * ) PLANE_ANGLE_UNIT ( ) SI_UNIT ( $, .RADIAN. ) );
#290 = DIRECTION ( 'NONE',  ( 9.797174393178824918E-17, 1.000000000000000000, -0.000000000000000000 ) ) ;
#291 = DIRECTION ( 'NONE',  ( 0.000000000000000000, 0.000000000000000000, -1.000000000000000000 ) ) ;
#292 = PRODUCT_CONTEXT ( 'NONE', #125, 'mechanical' ) ;
#293 = CARTESIAN_POINT ( 'NONE',  ( 1.224646799147353207E-16, 1.500000000000000222, 0.000000000000000000 ) ) ;
#294 = AXIS2_PLACEMENT_3D ( 'NONE', #228, #191, #13 ) ;
#295 = CIRCLE ( 'NONE', #138, 0.06249999999999988204 ) ;
#296 = DIRECTION ( 'NONE',  ( 9.797174393178824918E-17, 1.000000000000000000, -0.000000000000000000 ) ) ;
#297 = EDGE_CURVE ( 'NONE', #205, #28, #280, .T. ) ;
#298 = ORIENTED_EDGE ( 'NONE', *, *, #7, .F. ) ;
#299 = CIRCLE ( 'NONE', #49, 0.06249999999999988204 ) ;
#300 = EDGE_CURVE ( 'NONE', #181, #204, #295, .T. ) ;
#301 = FILL_AREA_STYLE_COLOUR ( '', #15 ) ;
#302 = CARTESIAN_POINT ( 'NONE',  ( 1.224646799147353207E-16, 1.500000000000000222, 0.000000000000000000 ) ) ;
#303 = PRESENTATION_LAYER_ASSIGNMENT (  '', '', ( #243 ) ) ;
#304 = DIRECTION ( 'NONE',  ( -1.000000000000000000, 0.000000000000000000, 0.000000000000000000 ) ) ;
#305 = DIRECTION ( 'NONE',  ( -0.000000000000000000, -1.000000000000000000, -0.000000000000000000 ) ) ;
#306 = CARTESIAN_POINT ( 'NONE',  ( 0.000000000000000000, 0.000000000000000000, 0.000000000000000000 ) ) ;
#307 =( LENGTH_UNIT ( ) NAMED_UNIT ( * ) SI_UNIT ( $, .METRE. ) );
#308 = SHAPE_DEFINITION_REPRESENTATION ( #97, #197 ) ;
#309 = CARTESIAN_POINT ( 'NONE',  ( 1.224646799147353207E-16, 1.500000000000000222, 0.000000000000000000 ) ) ;
ENDSEC;
END-ISO-10303-21;
