ISO-10303-21;
HEADER;
FILE_DESCRIPTION (( 'STEP AP214' ),
    '1' );
FILE_NAME ('Micro_RTC-312-1.STEP',
    '2021-09-03T18:14:12',
    ( '' ),
    ( '' ),
    'SwSTEP 2.0',
    'SolidWorks 2020',
    '' );
FILE_SCHEMA (( 'AUTOMOTIVE_DESIGN' ));
ENDSEC;

DATA;
#1 = AXIS2_PLACEMENT_3D ( 'NONE', #28, #4, #199 ) ;
#2 = EDGE_CURVE ( 'NONE', #32, #200, #152, .T. ) ;
#3 = AXIS2_PLACEMENT_3D ( 'NONE', #61, #67, #142 ) ;
#4 = DIRECTION ( 'NONE',  ( -0.0000000000000000000, -0.0000000000000000000, -1.000000000000000000 ) ) ;
#5 = ORIENTED_EDGE ( 'NONE', *, *, #71, .T. ) ;
#6 = ORIENTED_EDGE ( 'NONE', *, *, #34, .F. ) ;
#7 = ADVANCED_FACE ( 'NONE', ( #144 ), #69, .T. ) ;
#8 = SURFACE_SIDE_STYLE ('',( #92 ) ) ;
#9 = ORIENTED_EDGE ( 'NONE', *, *, #159, .T. ) ;
#10 = VECTOR ( 'NONE', #85, 39.37007874015748854 ) ;
#11 = FILL_AREA_STYLE ('',( #126 ) ) ;
#12 = ADVANCED_FACE ( 'NONE', ( #124 ), #218, .T. ) ;
#13 = DIRECTION ( 'NONE',  ( 0.0000000000000000000, 0.0000000000000000000, -1.000000000000000000 ) ) ;
#14 = DIRECTION ( 'NONE',  ( 0.0000000000000000000, 0.0000000000000000000, -1.000000000000000000 ) ) ;
#15 = DIRECTION ( 'NONE',  ( 0.0000000000000000000, 0.0000000000000000000, 1.000000000000000000 ) ) ;
#16 = DIMENSIONAL_EXPONENTS ( 1.000000000000000000, 0.0000000000000000000, 0.0000000000000000000, 0.0000000000000000000, 0.0000000000000000000, 0.0000000000000000000, 0.0000000000000000000 ) ;
#17 = EDGE_CURVE ( 'NONE', #74, #223, #26, .T. ) ;
#18 =( GEOMETRIC_REPRESENTATION_CONTEXT ( 3 ) GLOBAL_UNCERTAINTY_ASSIGNED_CONTEXT ( ( #119 ) ) GLOBAL_UNIT_ASSIGNED_CONTEXT ( ( #45, #206, #232 ) ) REPRESENTATION_CONTEXT ( 'NONE', 'WORKASPACE' ) );
#19 = APPLICATION_PROTOCOL_DEFINITION ( 'draft international standard', 'automotive_design', 1998, #116 ) ;
#20 = AXIS2_PLACEMENT_3D ( 'NONE', #189, #14, #175 ) ;
#21 = VECTOR ( 'NONE', #30, 39.37007874015748143 ) ;
#22 = EDGE_LOOP ( 'NONE', ( #163, #106, #186, #66 ) ) ;
#23 = AXIS2_PLACEMENT_3D ( 'NONE', #140, #117, #192 ) ;
#24 = ORIENTED_EDGE ( 'NONE', *, *, #174, .F. ) ;
#25 = ADVANCED_FACE ( 'NONE', ( #242 ), #42, .T. ) ;
#26 = LINE ( 'NONE', #182, #10 ) ;
#27 = EDGE_LOOP ( 'NONE', ( #165, #170, #84, #153 ) ) ;
#28 = CARTESIAN_POINT ( 'NONE',  ( 0.0000000000000000000, 0.0000000000000000000, 2.500000000000000000 ) ) ;
#29 = EDGE_LOOP ( 'NONE', ( #125, #105 ) ) ;
#30 = DIRECTION ( 'NONE',  ( 0.2588190451025216832, 0.0000000000000000000, 0.9659258262890679791 ) ) ;
#31 = VECTOR ( 'NONE', #246, 39.37007874015748854 ) ;
#32 = VERTEX_POINT ( 'NONE', #166 ) ;
#33 = DIRECTION ( 'NONE',  ( 1.000000000000000000, 0.0000000000000000000, 0.0000000000000000000 ) ) ;
#34 = EDGE_CURVE ( 'NONE', #74, #64, #191, .T. ) ;
#35 = CARTESIAN_POINT ( 'NONE',  ( -0.1562500000000000000, 0.0000000000000000000, 2.484999999999999432 ) ) ;
#36 = AXIS2_PLACEMENT_3D ( 'NONE', #137, #154, #228 ) ;
#37 = ADVANCED_FACE ( 'NONE', ( #187 ), #205, .T. ) ;
#38 = LINE ( 'NONE', #96, #31 ) ;
#39 = CIRCLE ( 'NONE', #167, 0.1562500000000000000 ) ;
#40 = VECTOR ( 'NONE', #130, 39.37007874015748143 ) ;
#41 = FILL_AREA_STYLE_COLOUR ( '', #79 ) ;
#42 = CONICAL_SURFACE ( 'NONE', #216, 0.1412499999999994871, 0.7853981633974391752 ) ;
#43 = DIRECTION ( 'NONE',  ( -1.000000000000000000, 0.0000000000000000000, 0.0000000000000000000 ) ) ;
#44 = EDGE_CURVE ( 'NONE', #223, #226, #39, .T. ) ;
#45 =( CONVERSION_BASED_UNIT ( 'INCH', #220 ) LENGTH_UNIT ( ) NAMED_UNIT ( #91 ) );
#46 = ORIENTED_EDGE ( 'NONE', *, *, #76, .T. ) ;
#47 = CARTESIAN_POINT ( 'NONE',  ( -0.1412499999999994871, 0.0000000000000000000, 2.500000000000000000 ) ) ;
#48 = LINE ( 'NONE', #225, #98 ) ;
#49 = FACE_OUTER_BOUND ( 'NONE', #62, .T. ) ;
#50 = CLOSED_SHELL ( 'NONE', ( #136, #233, #37, #12, #207, #25, #7, #241 ) ) ;
#51 = EDGE_CURVE ( 'NONE', #200, #221, #141, .T. ) ;
#52 = DIRECTION ( 'NONE',  ( -1.000000000000000000, 0.0000000000000000000, 0.0000000000000000000 ) ) ;
#53 = EDGE_CURVE ( 'NONE', #64, #74, #56, .T. ) ;
#54 = DIRECTION ( 'NONE',  ( -0.0000000000000000000, -0.0000000000000000000, -1.000000000000000000 ) ) ;
#55 = CIRCLE ( 'NONE', #20, 0.1562500000000000000 ) ;
#56 = CIRCLE ( 'NONE', #3, 0.1412499999999994871 ) ;
#57 = CARTESIAN_POINT ( 'NONE',  ( 0.0000000000000000000, 0.0000000000000000000, 0.0000000000000000000 ) ) ;
#58 = DIRECTION ( 'NONE',  ( -1.000000000000000000, 0.0000000000000000000, 0.0000000000000000000 ) ) ;
#59 = PRESENTATION_STYLE_ASSIGNMENT (( #249 ) ) ;
#60 = CIRCLE ( 'NONE', #156, 0.003999999999999999216 ) ;
#61 = CARTESIAN_POINT ( 'NONE',  ( 0.0000000000000000000, 0.0000000000000000000, 2.500000000000000000 ) ) ;
#62 = EDGE_LOOP ( 'NONE', ( #240, #46, #148, #150 ) ) ;
#63 = DIRECTION ( 'NONE',  ( 0.0000000000000000000, 0.0000000000000000000, -1.000000000000000000 ) ) ;
#64 = VERTEX_POINT ( 'NONE', #121 ) ;
#65 = CARTESIAN_POINT ( 'NONE',  ( 0.0000000000000000000, 0.0000000000000000000, 2.484999999999999432 ) ) ;
#66 = ORIENTED_EDGE ( 'NONE', *, *, #17, .F. ) ;
#67 = DIRECTION ( 'NONE',  ( 0.0000000000000000000, 0.0000000000000000000, 1.000000000000000000 ) ) ;
#68 = DIRECTION ( 'NONE',  ( -0.0000000000000000000, -0.0000000000000000000, -1.000000000000000000 ) ) ;
#69 = CONICAL_SURFACE ( 'NONE', #231, 0.003999999999999999216, 0.2617993877991502960 ) ;
#70 = CARTESIAN_POINT ( 'NONE',  ( 0.0000000000000000000, 0.0000000000000000000, 0.0000000000000000000 ) ) ;
#71 = EDGE_CURVE ( 'NONE', #223, #221, #48, .T. ) ;
#72 = PRODUCT_DEFINITION_SHAPE ( 'NONE', 'NONE',  #194 ) ;
#73 = DIRECTION ( 'NONE',  ( 1.000000000000000000, 0.0000000000000000000, 0.0000000000000000000 ) ) ;
#74 = VERTEX_POINT ( 'NONE', #47 ) ;
#75 = CARTESIAN_POINT ( 'NONE',  ( 0.0000000000000000000, 0.0000000000000000000, 0.0000000000000000000 ) ) ;
#76 = EDGE_CURVE ( 'NONE', #237, #221, #238, .T. ) ;
#77 = SURFACE_STYLE_FILL_AREA ( #100 ) ;
#78 = CIRCLE ( 'NONE', #36, 0.1562500000000000000 ) ;
#79 = COLOUR_RGB ( '',0.7921568627450980005, 0.8196078431372548767, 0.9333333333333333481 ) ;
#80 = PRODUCT_CONTEXT ( 'NONE', #101, 'mechanical' ) ;
#81 =( NAMED_UNIT ( * ) SI_UNIT ( $, .STERADIAN. ) SOLID_ANGLE_UNIT ( ) );
#82 = AXIS2_PLACEMENT_3D ( 'NONE', #185, #110, #162 ) ;
#83 = ORIENTED_EDGE ( 'NONE', *, *, #179, .T. ) ;
#84 = ORIENTED_EDGE ( 'NONE', *, *, #2, .T. ) ;
#85 = DIRECTION ( 'NONE',  ( -0.7071067811865410224, 0.0000000000000000000, -0.7071067811865539010 ) ) ;
#86 = EDGE_LOOP ( 'NONE', ( #219, #6, #128, #202 ) ) ;
#87 = AXIS2_PLACEMENT_3D ( 'NONE', #57, #68, #171 ) ;
#88 = DIRECTION ( 'NONE',  ( 0.0000000000000000000, 0.0000000000000000000, 1.000000000000000000 ) ) ;
#89 = CONICAL_SURFACE ( 'NONE', #204, 0.003999999999999999216, 0.2617993877991502960 ) ;
#90 = UNCERTAINTY_MEASURE_WITH_UNIT (LENGTH_MEASURE( 1.000000000000000082E-05 ), #213, 'distance_accuracy_value', 'NONE');
#91 = DIMENSIONAL_EXPONENTS ( 1.000000000000000000, 0.0000000000000000000, 0.0000000000000000000, 0.0000000000000000000, 0.0000000000000000000, 0.0000000000000000000, 0.0000000000000000000 ) ;
#92 = SURFACE_STYLE_FILL_AREA ( #11 ) ;
#93 = DIRECTION ( 'NONE',  ( 1.000000000000000000, 0.0000000000000000000, -0.0000000000000000000 ) ) ;
#94 = PLANE ( 'NONE',  #112 ) ;
#95 = DIRECTION ( 'NONE',  ( 0.0000000000000000000, 0.0000000000000000000, -1.000000000000000000 ) ) ;
#96 = CARTESIAN_POINT ( 'NONE',  ( 0.1412499999999994871, 1.729813603795630110E-17, 2.500000000000000000 ) ) ;
#97 =( LENGTH_UNIT ( ) NAMED_UNIT ( * ) SI_UNIT ( $, .METRE. ) );
#98 = VECTOR ( 'NONE', #222, 39.37007874015748143 ) ;
#99 = AXIS2_PLACEMENT_3D ( 'NONE', #164, #236, #43 ) ;
#100 = FILL_AREA_STYLE ('',( #41 ) ) ;
#101 = APPLICATION_CONTEXT ( 'automotive_design' ) ;
#102 = COLOUR_RGB ( '',0.7921568627450980005, 0.8196078431372548767, 0.9333333333333333481 ) ;
#103 = CARTESIAN_POINT ( 'NONE',  ( 0.0000000000000000000, 0.0000000000000000000, 2.500000000000000000 ) ) ;
#104 = EDGE_LOOP ( 'NONE', ( #143, #198 ) ) ;
#105 = ORIENTED_EDGE ( 'NONE', *, *, #243, .T. ) ;
#106 = ORIENTED_EDGE ( 'NONE', *, *, #114, .T. ) ;
#107 = DIRECTION ( 'NONE',  ( -1.000000000000000000, 0.0000000000000000000, 0.0000000000000000000 ) ) ;
#108 = EDGE_LOOP ( 'NONE', ( #181, #83, #24, #180 ) ) ;
#109 = MANIFOLD_SOLID_BREP ( 'Cut-Revolve1', #50 ) ;
#110 = DIRECTION ( 'NONE',  ( 0.0000000000000000000, 0.0000000000000000000, 1.000000000000000000 ) ) ;
#111 = CARTESIAN_POINT ( 'NONE',  ( -0.1562500000000000000, 0.0000000000000000000, 0.5682047354523593885 ) ) ;
#112 = AXIS2_PLACEMENT_3D ( 'NONE', #188, #15, #172 ) ;
#113 = CARTESIAN_POINT ( 'NONE',  ( 0.1562500000000000000, 1.913510623667739463E-17, 2.484999999999999432 ) ) ;
#114 = EDGE_CURVE ( 'NONE', #64, #226, #38, .T. ) ;
#115 =( NAMED_UNIT ( * ) SI_UNIT ( $, .STERADIAN. ) SOLID_ANGLE_UNIT ( ) );
#116 = APPLICATION_CONTEXT ( 'automotive_design' ) ;
#117 = DIRECTION ( 'NONE',  ( 0.0000000000000000000, 0.0000000000000000000, 1.000000000000000000 ) ) ;
#118 = SURFACE_SIDE_STYLE ('',( #77 ) ) ;
#119 = UNCERTAINTY_MEASURE_WITH_UNIT (LENGTH_MEASURE( 1.000000000000000082E-05 ), #45, 'distance_accuracy_value', 'NONE');
#120 =( CONVERSION_BASED_UNIT ( 'INCH', #217 ) LENGTH_UNIT ( ) NAMED_UNIT ( #151 ) );
#121 = CARTESIAN_POINT ( 'NONE',  ( 0.1412499999999994871, 1.821662113731684786E-17, 2.500000000000000000 ) ) ;
#122 = PRESENTATION_LAYER_ASSIGNMENT (  '', '', ( #178 ) ) ;
#123 = PRODUCT_DEFINITION_CONTEXT ( 'detailed design', #116, 'design' ) ;
#124 = FACE_OUTER_BOUND ( 'NONE', #196, .T. ) ;
#125 = ORIENTED_EDGE ( 'NONE', *, *, #224, .T. ) ;
#126 = FILL_AREA_STYLE_COLOUR ( '', #102 ) ;
#127 = CARTESIAN_POINT ( 'NONE',  ( -0.003999999999999999216, 4.898587196589411612E-19, 0.0000000000000000000 ) ) ;
#128 = ORIENTED_EDGE ( 'NONE', *, *, #17, .T. ) ;
#129 = AXIS2_PLACEMENT_3D ( 'NONE', #75, #230, #93 ) ;
#130 = DIRECTION ( 'NONE',  ( -0.2588190451025216832, 3.169619151431776035E-17, 0.9659258262890679791 ) ) ;
#131 = DIRECTION ( 'NONE',  ( 0.0000000000000000000, 0.0000000000000000000, 1.000000000000000000 ) ) ;
#132 = FACE_OUTER_BOUND ( 'NONE', #22, .T. ) ;
#133 = FACE_OUTER_BOUND ( 'NONE', #104, .T. ) ;
#134 = PRODUCT_DEFINITION_FORMATION_WITH_SPECIFIED_SOURCE ( 'ANY', '', #214, .NOT_KNOWN. ) ;
#135 =( LENGTH_UNIT ( ) NAMED_UNIT ( * ) SI_UNIT ( $, .METRE. ) );
#136 = ADVANCED_FACE ( 'NONE', ( #49 ), #89, .T. ) ;
#137 = CARTESIAN_POINT ( 'NONE',  ( 0.0000000000000000000, 0.0000000000000000000, 0.5682047354523593885 ) ) ;
#138 = MECHANICAL_DESIGN_GEOMETRIC_PRESENTATION_REPRESENTATION (  '', ( #178 ), #160 ) ;
#139 = PRODUCT_RELATED_PRODUCT_CATEGORY ( 'part', '', ( #214 ) ) ;
#140 = CARTESIAN_POINT ( 'NONE',  ( 0.0000000000000000000, 0.0000000000000000000, 0.0000000000000000000 ) ) ;
#141 = CIRCLE ( 'NONE', #99, 0.1562500000000000000 ) ;
#142 = DIRECTION ( 'NONE',  ( 1.000000000000000000, 0.0000000000000000000, 0.0000000000000000000 ) ) ;
#143 = ORIENTED_EDGE ( 'NONE', *, *, #34, .T. ) ;
#144 = FACE_OUTER_BOUND ( 'NONE', #27, .T. ) ;
#145 = ORIENTED_EDGE ( 'NONE', *, *, #179, .F. ) ;
#146 = MECHANICAL_DESIGN_GEOMETRIC_PRESENTATION_REPRESENTATION (  '', ( #209 ), #18 ) ;
#147 = DIRECTION ( 'NONE',  ( 1.000000000000000000, 0.0000000000000000000, 0.0000000000000000000 ) ) ;
#148 = ORIENTED_EDGE ( 'NONE', *, *, #174, .T. ) ;
#149 = DIRECTION ( 'NONE',  ( -1.000000000000000000, 0.0000000000000000000, 0.0000000000000000000 ) ) ;
#150 = ORIENTED_EDGE ( 'NONE', *, *, #2, .F. ) ;
#151 = DIMENSIONAL_EXPONENTS ( 1.000000000000000000, 0.0000000000000000000, 0.0000000000000000000, 0.0000000000000000000, 0.0000000000000000000, 0.0000000000000000000, 0.0000000000000000000 ) ;
#152 = LINE ( 'NONE', #168, #21 ) ;
#153 = ORIENTED_EDGE ( 'NONE', *, *, #51, .T. ) ;
#154 = DIRECTION ( 'NONE',  ( -0.0000000000000000000, -0.0000000000000000000, -1.000000000000000000 ) ) ;
#155 = DIRECTION ( 'NONE',  ( -0.0000000000000000000, -0.0000000000000000000, -1.000000000000000000 ) ) ;
#156 = AXIS2_PLACEMENT_3D ( 'NONE', #70, #155, #52 ) ;
#157 = PLANE ( 'NONE',  #129 ) ;
#158 = LINE ( 'NONE', #215, #247 ) ;
#159 = EDGE_CURVE ( 'NONE', #226, #223, #55, .T. ) ;
#160 =( GEOMETRIC_REPRESENTATION_CONTEXT ( 3 ) GLOBAL_UNCERTAINTY_ASSIGNED_CONTEXT ( ( #184 ) ) GLOBAL_UNIT_ASSIGNED_CONTEXT ( ( #120, #234, #81 ) ) REPRESENTATION_CONTEXT ( 'NONE', 'WORKASPACE' ) );
#161 = SHAPE_DEFINITION_REPRESENTATION ( #72, #177 ) ;
#162 = DIRECTION ( 'NONE',  ( 1.000000000000000000, 0.0000000000000000000, 0.0000000000000000000 ) ) ;
#163 = ORIENTED_EDGE ( 'NONE', *, *, #53, .F. ) ;
#164 = CARTESIAN_POINT ( 'NONE',  ( 0.0000000000000000000, 0.0000000000000000000, 0.5682047354523593885 ) ) ;
#165 = ORIENTED_EDGE ( 'NONE', *, *, #76, .F. ) ;
#166 = CARTESIAN_POINT ( 'NONE',  ( 0.003999999999999999216, 0.0000000000000000000, 0.0000000000000000000 ) ) ;
#167 = AXIS2_PLACEMENT_3D ( 'NONE', #65, #63, #147 ) ;
#168 = CARTESIAN_POINT ( 'NONE',  ( 0.003999999999999999216, 0.0000000000000000000, 0.0000000000000000000 ) ) ;
#169 =( LENGTH_UNIT ( ) NAMED_UNIT ( * ) SI_UNIT ( $, .METRE. ) );
#170 = ORIENTED_EDGE ( 'NONE', *, *, #224, .F. ) ;
#171 = DIRECTION ( 'NONE',  ( -1.000000000000000000, 0.0000000000000000000, 0.0000000000000000000 ) ) ;
#172 = DIRECTION ( 'NONE',  ( 1.000000000000000000, 0.0000000000000000000, -0.0000000000000000000 ) ) ;
#173 = CARTESIAN_POINT ( 'NONE',  ( -0.003999999999999999216, 9.812482478168164334E-18, 0.0000000000000000000 ) ) ;
#174 = EDGE_CURVE ( 'NONE', #221, #200, #78, .T. ) ;
#175 = DIRECTION ( 'NONE',  ( 1.000000000000000000, 0.0000000000000000000, 0.0000000000000000000 ) ) ;
#176 = APPLICATION_PROTOCOL_DEFINITION ( 'draft international standard', 'automotive_design', 1998, #101 ) ;
#177 = ADVANCED_BREP_SHAPE_REPRESENTATION ( 'Micro_RTC-312-1', ( #109, #23 ), #210 ) ;
#178 = STYLED_ITEM ( 'NONE', ( #59 ), #177 ) ;
#179 = EDGE_CURVE ( 'NONE', #226, #200, #158, .T. ) ;
#180 = ORIENTED_EDGE ( 'NONE', *, *, #71, .F. ) ;
#181 = ORIENTED_EDGE ( 'NONE', *, *, #44, .T. ) ;
#182 = CARTESIAN_POINT ( 'NONE',  ( -0.1412499999999994871, 0.0000000000000000000, 2.500000000000000000 ) ) ;
#183 = PRESENTATION_LAYER_ASSIGNMENT (  '', '', ( #209 ) ) ;
#184 = UNCERTAINTY_MEASURE_WITH_UNIT (LENGTH_MEASURE( 1.000000000000000082E-05 ), #120, 'distance_accuracy_value', 'NONE');
#185 = CARTESIAN_POINT ( 'NONE',  ( 0.0000000000000000000, 0.0000000000000000000, 2.500000000000000000 ) ) ;
#186 = ORIENTED_EDGE ( 'NONE', *, *, #44, .F. ) ;
#187 = FACE_OUTER_BOUND ( 'NONE', #108, .T. ) ;
#188 = CARTESIAN_POINT ( 'NONE',  ( 0.0000000000000000000, 0.0000000000000000000, 2.500000000000000000 ) ) ;
#189 = CARTESIAN_POINT ( 'NONE',  ( 0.0000000000000000000, 0.0000000000000000000, 2.484999999999999432 ) ) ;
#190 = CARTESIAN_POINT ( 'NONE',  ( 0.0000000000000000000, 0.0000000000000000000, 0.0000000000000000000 ) ) ;
#191 = CIRCLE ( 'NONE', #82, 0.1412499999999994871 ) ;
#192 = DIRECTION ( 'NONE',  ( 1.000000000000000000, 0.0000000000000000000, 0.0000000000000000000 ) ) ;
#193 = AXIS2_PLACEMENT_3D ( 'NONE', #201, #239, #149 ) ;
#194 = PRODUCT_DEFINITION ( 'UNKNOWN', '', #134, #123 ) ;
#195 = CONICAL_SURFACE ( 'NONE', #229, 0.1412499999999994871, 0.7853981633974391752 ) ;
#196 = EDGE_LOOP ( 'NONE', ( #145, #9, #5, #212 ) ) ;
#197 = PRESENTATION_STYLE_ASSIGNMENT (( #203 ) ) ;
#198 = ORIENTED_EDGE ( 'NONE', *, *, #53, .T. ) ;
#199 = DIRECTION ( 'NONE',  ( -1.000000000000000000, 0.0000000000000000000, 0.0000000000000000000 ) ) ;
#200 = VERTEX_POINT ( 'NONE', #244 ) ;
#201 = CARTESIAN_POINT ( 'NONE',  ( 0.0000000000000000000, 0.0000000000000000000, 2.500000000000000000 ) ) ;
#202 = ORIENTED_EDGE ( 'NONE', *, *, #159, .F. ) ;
#203 = SURFACE_STYLE_USAGE ( .BOTH. , #8 ) ;
#204 = AXIS2_PLACEMENT_3D ( 'NONE', #190, #131, #73 ) ;
#205 = CYLINDRICAL_SURFACE ( 'NONE', #193, 0.1562500000000000000 ) ;
#206 =( NAMED_UNIT ( * ) PLANE_ANGLE_UNIT ( ) SI_UNIT ( $, .RADIAN. ) );
#207 = ADVANCED_FACE ( 'NONE', ( #133 ), #94, .T. ) ;
#208 = FACE_OUTER_BOUND ( 'NONE', #29, .T. ) ;
#209 = STYLED_ITEM ( 'NONE', ( #197 ), #109 ) ;
#210 =( GEOMETRIC_REPRESENTATION_CONTEXT ( 3 ) GLOBAL_UNCERTAINTY_ASSIGNED_CONTEXT ( ( #90 ) ) GLOBAL_UNIT_ASSIGNED_CONTEXT ( ( #213, #248, #115 ) ) REPRESENTATION_CONTEXT ( 'NONE', 'WORKASPACE' ) );
#211 = LENGTH_MEASURE_WITH_UNIT ( LENGTH_MEASURE( 0.02539999999999999897 ), #135 );
#212 = ORIENTED_EDGE ( 'NONE', *, *, #51, .F. ) ;
#213 =( CONVERSION_BASED_UNIT ( 'INCH', #211 ) LENGTH_UNIT ( ) NAMED_UNIT ( #16 ) );
#214 = PRODUCT ( 'Micro_RTC-312-1', 'Micro_RTC-312-1', '', ( #80 ) ) ;
#215 = CARTESIAN_POINT ( 'NONE',  ( 0.1562500000000000000, 1.913510623667739463E-17, 2.500000000000000000 ) ) ;
#216 = AXIS2_PLACEMENT_3D ( 'NONE', #103, #13, #107 ) ;
#217 = LENGTH_MEASURE_WITH_UNIT ( LENGTH_MEASURE( 0.02539999999999999897 ), #97 );
#218 = CYLINDRICAL_SURFACE ( 'NONE', #1, 0.1562500000000000000 ) ;
#219 = ORIENTED_EDGE ( 'NONE', *, *, #114, .F. ) ;
#220 = LENGTH_MEASURE_WITH_UNIT ( LENGTH_MEASURE( 0.02539999999999999897 ), #169 );
#221 = VERTEX_POINT ( 'NONE', #111 ) ;
#222 = DIRECTION ( 'NONE',  ( -0.0000000000000000000, -0.0000000000000000000, -1.000000000000000000 ) ) ;
#223 = VERTEX_POINT ( 'NONE', #35 ) ;
#224 = EDGE_CURVE ( 'NONE', #32, #237, #60, .T. ) ;
#225 = CARTESIAN_POINT ( 'NONE',  ( -0.1562500000000000000, 0.0000000000000000000, 2.500000000000000000 ) ) ;
#226 = VERTEX_POINT ( 'NONE', #113 ) ;
#227 = CARTESIAN_POINT ( 'NONE',  ( 0.0000000000000000000, 0.0000000000000000000, 0.0000000000000000000 ) ) ;
#228 = DIRECTION ( 'NONE',  ( -1.000000000000000000, 0.0000000000000000000, 0.0000000000000000000 ) ) ;
#229 = AXIS2_PLACEMENT_3D ( 'NONE', #245, #95, #58 ) ;
#230 = DIRECTION ( 'NONE',  ( 0.0000000000000000000, 0.0000000000000000000, 1.000000000000000000 ) ) ;
#231 = AXIS2_PLACEMENT_3D ( 'NONE', #227, #88, #33 ) ;
#232 =( NAMED_UNIT ( * ) SI_UNIT ( $, .STERADIAN. ) SOLID_ANGLE_UNIT ( ) );
#233 = ADVANCED_FACE ( 'NONE', ( #132 ), #195, .T. ) ;
#234 =( NAMED_UNIT ( * ) PLANE_ANGLE_UNIT ( ) SI_UNIT ( $, .RADIAN. ) );
#235 = CIRCLE ( 'NONE', #87, 0.003999999999999999216 ) ;
#236 = DIRECTION ( 'NONE',  ( -0.0000000000000000000, -0.0000000000000000000, -1.000000000000000000 ) ) ;
#237 = VERTEX_POINT ( 'NONE', #173 ) ;
#238 = LINE ( 'NONE', #127, #40 ) ;
#239 = DIRECTION ( 'NONE',  ( -0.0000000000000000000, -0.0000000000000000000, -1.000000000000000000 ) ) ;
#240 = ORIENTED_EDGE ( 'NONE', *, *, #243, .F. ) ;
#241 = ADVANCED_FACE ( 'NONE', ( #208 ), #157, .F. ) ;
#242 = FACE_OUTER_BOUND ( 'NONE', #86, .T. ) ;
#243 = EDGE_CURVE ( 'NONE', #237, #32, #235, .T. ) ;
#244 = CARTESIAN_POINT ( 'NONE',  ( 0.1562500000000000000, 1.913510623667739463E-17, 0.5682047354523593885 ) ) ;
#245 = CARTESIAN_POINT ( 'NONE',  ( 0.0000000000000000000, 0.0000000000000000000, 2.500000000000000000 ) ) ;
#246 = DIRECTION ( 'NONE',  ( 0.7071067811865410224, 8.659560562354852739E-17, -0.7071067811865539010 ) ) ;
#247 = VECTOR ( 'NONE', #54, 39.37007874015748143 ) ;
#248 =( NAMED_UNIT ( * ) PLANE_ANGLE_UNIT ( ) SI_UNIT ( $, .RADIAN. ) );
#249 = SURFACE_STYLE_USAGE ( .BOTH. , #118 ) ;
ENDSEC;
END-ISO-10303-21;
