ISO-10303-21;
HEADER;
FILE_DESCRIPTION (( 'STEP AP214' ),
    '1' );
FILE_NAME ('82947.STEP',
    '2023-06-23T07:22:32',
    ( '' ),
    ( '' ),
    'SwSTEP 2.0',
    'SolidWorks 2023',
    '' );
FILE_SCHEMA (( 'AUTOMOTIVE_DESIGN' ));
ENDSEC;

DATA;
#1 = VECTOR ( 'NONE', #299, 39.37007874015748143 ) ;
#2 =( NAMED_UNIT ( * ) SI_UNIT ( $, .STERADIAN. ) SOLID_ANGLE_UNIT ( ) );
#3 = SURFACE_STYLE_FILL_AREA ( #19 ) ;
#4 = EDGE_CURVE ( 'NONE', #30, #304, #276, .T. ) ;
#5 = VECTOR ( 'NONE', #298, 39.37007874015748143 ) ;
#6 =( GEOMETRIC_REPRESENTATION_CONTEXT ( 3 ) GLOBAL_UNCERTAINTY_ASSIGNED_CONTEXT ( ( #49 ) ) GLOBAL_UNIT_ASSIGNED_CONTEXT ( ( #246, #29, #266 ) ) REPRESENTATION_CONTEXT ( 'NONE', 'WORKASPACE' ) );
#7 =( NAMED_UNIT ( * ) SI_UNIT ( $, .STERADIAN. ) SOLID_ANGLE_UNIT ( ) );
#8 = DIRECTION ( 'NONE',  ( -0.000000000000000000, -1.000000000000000000, -0.000000000000000000 ) ) ;
#9 =( GEOMETRIC_REPRESENTATION_CONTEXT ( 3 ) GLOBAL_UNCERTAINTY_ASSIGNED_CONTEXT ( ( #112 ) ) GLOBAL_UNIT_ASSIGNED_CONTEXT ( ( #195, #191, #82 ) ) REPRESENTATION_CONTEXT ( 'NONE', 'WORKASPACE' ) );
#10 = FILL_AREA_STYLE ('',( #273 ) ) ;
#11 = DIRECTION ( 'NONE',  ( 0.000000000000000000, 1.000000000000000000, 0.000000000000000000 ) ) ;
#12 = LENGTH_MEASURE_WITH_UNIT ( LENGTH_MEASURE( 0.02539999999999999897 ), #251 );
#13 = LENGTH_MEASURE_WITH_UNIT ( LENGTH_MEASURE( 0.02539999999999999897 ), #274 );
#14 =( NAMED_UNIT ( * ) PLANE_ANGLE_UNIT ( ) SI_UNIT ( $, .RADIAN. ) );
#15 = AXIS2_PLACEMENT_3D ( 'NONE', #219, #8, #98 ) ;
#16 = CYLINDRICAL_SURFACE ( 'NONE', #15, 0.3750000000000000555 ) ;
#17 = EDGE_LOOP ( 'NONE', ( #289, #245, #26, #286 ) ) ;
#18 = DIMENSIONAL_EXPONENTS ( 1.000000000000000000, 0.000000000000000000, 0.000000000000000000, 0.000000000000000000, 0.000000000000000000, 0.000000000000000000, 0.000000000000000000 ) ;
#19 = FILL_AREA_STYLE ('',( #40 ) ) ;
#20 = ORIENTED_EDGE ( 'NONE', *, *, #4, .T. ) ;
#21 = CARTESIAN_POINT ( 'NONE',  ( 0.000000000000000000, 1.000000000000000222, 0.000000000000000000 ) ) ;
#22 = EDGE_CURVE ( 'NONE', #139, #272, #267, .T. ) ;
#23 = VERTEX_POINT ( 'NONE', #24 ) ;
#24 = CARTESIAN_POINT ( 'NONE',  ( 4.592425496802575451E-17, 1.000000000000000000, 0.3750000000000000555 ) ) ;
#25 = ORIENTED_EDGE ( 'NONE', *, *, #151, .F. ) ;
#26 = ORIENTED_EDGE ( 'NONE', *, *, #243, .T. ) ;
#27 = AXIS2_PLACEMENT_3D ( 'NONE', #43, #116, #90 ) ;
#28 = MECHANICAL_DESIGN_GEOMETRIC_PRESENTATION_REPRESENTATION (  '', ( #236 ), #290 ) ;
#29 =( NAMED_UNIT ( * ) PLANE_ANGLE_UNIT ( ) SI_UNIT ( $, .RADIAN. ) );
#30 = VERTEX_POINT ( 'NONE', #237 ) ;
#31 = CARTESIAN_POINT ( 'NONE',  ( 0.000000000000000000, 0.000000000000000000, -0.3750000000000000555 ) ) ;
#32 = AXIS2_PLACEMENT_3D ( 'NONE', #240, #248, #307 ) ;
#33 = FACE_OUTER_BOUND ( 'NONE', #17, .T. ) ;
#34 = ORIENTED_EDGE ( 'NONE', *, *, #159, .T. ) ;
#35 = FACE_OUTER_BOUND ( 'NONE', #260, .T. ) ;
#36 = FACE_OUTER_BOUND ( 'NONE', #114, .T. ) ;
#37 = DIRECTION ( 'NONE',  ( -0.000000000000000000, -1.000000000000000000, -0.000000000000000000 ) ) ;
#38 = STYLED_ITEM ( 'NONE', ( #44 ), #104 ) ;
#39 =( LENGTH_UNIT ( ) NAMED_UNIT ( * ) SI_UNIT ( $, .METRE. ) );
#40 = FILL_AREA_STYLE_COLOUR ( '', #208 ) ;
#41 = FILL_AREA_STYLE ('',( #198 ) ) ;
#42 = PRODUCT ( '82947', '82947', '', ( #100 ) ) ;
#43 = CARTESIAN_POINT ( 'NONE',  ( 0.000000000000000000, 0.000000000000000000, 0.000000000000000000 ) ) ;
#44 = PRESENTATION_STYLE_ASSIGNMENT (( #288 ) ) ;
#45 = ORIENTED_EDGE ( 'NONE', *, *, #308, .T. ) ;
#46 = AXIS2_PLACEMENT_3D ( 'NONE', #293, #238, #180 ) ;
#47 = VECTOR ( 'NONE', #37, 39.37007874015748143 ) ;
#48 = DIRECTION ( 'NONE',  ( 1.000000000000000000, 4.898587196589414924E-17, 0.000000000000000000 ) ) ;
#49 = UNCERTAINTY_MEASURE_WITH_UNIT (LENGTH_MEASURE( 1.000000000000000082E-05 ), #246, 'distance_accuracy_value', 'NONE');
#50 = ORIENTED_EDGE ( 'NONE', *, *, #167, .F. ) ;
#51 = SURFACE_STYLE_USAGE ( .BOTH. , #84 ) ;
#52 = ADVANCED_FACE ( 'NONE', ( #70 ), #179, .T. ) ;
#53 = CARTESIAN_POINT ( 'NONE',  ( 0.000000000000000000, 0.000000000000000000, 0.000000000000000000 ) ) ;
#54 = COLOUR_RGB ( '',0.7921568627450980005, 0.8196078431372548767, 0.9333333333333333481 ) ;
#55 =( CONVERSION_BASED_UNIT ( 'INCH', #13 ) LENGTH_UNIT ( ) NAMED_UNIT ( #18 ) );
#56 = DIRECTION ( 'NONE',  ( 0.000000000000000000, 0.000000000000000000, 1.000000000000000000 ) ) ;
#57 = APPLICATION_CONTEXT ( 'automotive_design' ) ;
#58 =( NAMED_UNIT ( * ) SI_UNIT ( $, .STERADIAN. ) SOLID_ANGLE_UNIT ( ) );
#59 = ORIENTED_EDGE ( 'NONE', *, *, #159, .F. ) ;
#60 = SURFACE_STYLE_USAGE ( .BOTH. , #131 ) ;
#61 = FACE_OUTER_BOUND ( 'NONE', #78, .T. ) ;
#62 = AXIS2_PLACEMENT_3D ( 'NONE', #21, #265, #234 ) ;
#63 = DIRECTION ( 'NONE',  ( -4.898587196589414924E-17, 1.000000000000000000, -0.000000000000000000 ) ) ;
#64 = EDGE_CURVE ( 'NONE', #304, #121, #233, .T. ) ;
#65 = DIRECTION ( 'NONE',  ( -1.000000000000000000, 0.000000000000000000, 0.000000000000000000 ) ) ;
#66 = SURFACE_SIDE_STYLE ('',( #3 ) ) ;
#67 = DIMENSIONAL_EXPONENTS ( 1.000000000000000000, 0.000000000000000000, 0.000000000000000000, 0.000000000000000000, 0.000000000000000000, 0.000000000000000000, 0.000000000000000000 ) ;
#68 = PRODUCT_RELATED_PRODUCT_CATEGORY ( 'part', '', ( #42 ) ) ;
#69 = DIMENSIONAL_EXPONENTS ( 1.000000000000000000, 0.000000000000000000, 0.000000000000000000, 0.000000000000000000, 0.000000000000000000, 0.000000000000000000, 0.000000000000000000 ) ;
#70 = FACE_OUTER_BOUND ( 'NONE', #218, .T. ) ;
#71 = SURFACE_SIDE_STYLE ('',( #291 ) ) ;
#72 = FACE_OUTER_BOUND ( 'NONE', #214, .T. ) ;
#73 = FACE_OUTER_BOUND ( 'NONE', #99, .T. ) ;
#74 = SURFACE_STYLE_FILL_AREA ( #10 ) ;
#75 = DIRECTION ( 'NONE',  ( -0.000000000000000000, -1.000000000000000000, -0.000000000000000000 ) ) ;
#76 = PRODUCT_DEFINITION_CONTEXT ( 'detailed design', #57, 'design' ) ;
#77 = ADVANCED_FACE ( 'NONE', ( #210 ), #263, .F. ) ;
#78 = EDGE_LOOP ( 'NONE', ( #59, #296, #300, #241 ) ) ;
#79 = DIRECTION ( 'NONE',  ( 0.000000000000000000, 0.000000000000000000, -1.000000000000000000 ) ) ;
#80 = CARTESIAN_POINT ( 'NONE',  ( 0.000000000000000000, 1.000000000000000000, 0.000000000000000000 ) ) ;
#81 = MECHANICAL_DESIGN_GEOMETRIC_PRESENTATION_REPRESENTATION (  '', ( #256 ), #136 ) ;
#82 =( NAMED_UNIT ( * ) SI_UNIT ( $, .STERADIAN. ) SOLID_ANGLE_UNIT ( ) );
#83 = LENGTH_MEASURE_WITH_UNIT ( LENGTH_MEASURE( 0.02539999999999999897 ), #146 );
#84 = SURFACE_SIDE_STYLE ('',( #74 ) ) ;
#85 = LINE ( 'NONE', #31, #47 ) ;
#86 = ADVANCED_FACE ( 'NONE', ( #72 ), #111, .F. ) ;
#87 = PRODUCT_DEFINITION_SHAPE ( 'NONE', 'NONE',  #231 ) ;
#88 = CIRCLE ( 'NONE', #169, 0.3750000000000000555 ) ;
#89 = SURFACE_SIDE_STYLE ('',( #153 ) ) ;
#90 = DIRECTION ( 'NONE',  ( 0.000000000000000000, 0.000000000000000000, -1.000000000000000000 ) ) ;
#91 = AXIS2_PLACEMENT_3D ( 'NONE', #106, #174, #109 ) ;
#92 = LENGTH_MEASURE_WITH_UNIT ( LENGTH_MEASURE( 0.02539999999999999897 ), #207 );
#93 =( NAMED_UNIT ( * ) PLANE_ANGLE_UNIT ( ) SI_UNIT ( $, .RADIAN. ) );
#94 = UNCERTAINTY_MEASURE_WITH_UNIT (LENGTH_MEASURE( 1.000000000000000082E-05 ), #155, 'distance_accuracy_value', 'NONE');
#95 = FILL_AREA_STYLE ('',( #211 ) ) ;
#96 = COLOUR_RGB ( '',1.000000000000000000, 0.000000000000000000, 0.000000000000000000 ) ;
#97 = PRESENTATION_LAYER_ASSIGNMENT (  '', '', ( #287 ) ) ;
#98 = DIRECTION ( 'NONE',  ( 0.000000000000000000, 0.000000000000000000, -1.000000000000000000 ) ) ;
#99 = EDGE_LOOP ( 'NONE', ( #239, #161 ) ) ;
#100 = PRODUCT_CONTEXT ( 'NONE', #186, 'mechanical' ) ;
#101 = CARTESIAN_POINT ( 'NONE',  ( 0.3750000000000000555, 6.000000000000000888, 4.592425496802577300E-17 ) ) ;
#102 = AXIS2_PLACEMENT_3D ( 'NONE', #117, #137, #135 ) ;
#103 = PRODUCT_DEFINITION_FORMATION_WITH_SPECIFIED_SOURCE ( 'ANY', '', #42, .NOT_KNOWN. ) ;
#104 = ADVANCED_FACE ( 'NONE', ( #73 ), #269, .T. ) ;
#105 = DIRECTION ( 'NONE',  ( -4.898587196589414924E-17, 1.000000000000000000, -0.000000000000000000 ) ) ;
#106 = CARTESIAN_POINT ( 'NONE',  ( 0.000000000000000000, 0.000000000000000000, 0.000000000000000000 ) ) ;
#107 = CLOSED_SHELL ( 'NONE', ( #175, #104, #189, #52 ) ) ;
#108 = VERTEX_POINT ( 'NONE', #125 ) ;
#109 = DIRECTION ( 'NONE',  ( 0.000000000000000000, 0.000000000000000000, -1.000000000000000000 ) ) ;
#110 = PRESENTATION_LAYER_ASSIGNMENT (  '', '', ( #38 ) ) ;
#111 = PLANE ( 'NONE',  #46 ) ;
#112 = UNCERTAINTY_MEASURE_WITH_UNIT (LENGTH_MEASURE( 1.000000000000000082E-05 ), #195, 'distance_accuracy_value', 'NONE');
#113 = AXIS2_PLACEMENT_3D ( 'NONE', #183, #105, #65 ) ;
#114 = EDGE_LOOP ( 'NONE', ( #20, #140, #182, #168 ) ) ;
#115 = LENGTH_MEASURE_WITH_UNIT ( LENGTH_MEASURE( 0.02539999999999999897 ), #284 );
#116 = DIRECTION ( 'NONE',  ( -0.000000000000000000, -1.000000000000000000, -0.000000000000000000 ) ) ;
#117 = CARTESIAN_POINT ( 'NONE',  ( 0.000000000000000000, 0.000000000000000000, 0.000000000000000000 ) ) ;
#118 = APPLICATION_PROTOCOL_DEFINITION ( 'draft international standard', 'automotive_design', 1998, #186 ) ;
#119 =( NAMED_UNIT ( * ) SI_UNIT ( $, .STERADIAN. ) SOLID_ANGLE_UNIT ( ) );
#120 = SURFACE_STYLE_FILL_AREA ( #170 ) ;
#121 = VERTEX_POINT ( 'NONE', #101 ) ;
#122 = AXIS2_PLACEMENT_3D ( 'NONE', #254, #149, #281 ) ;
#123 = CARTESIAN_POINT ( 'NONE',  ( 4.592425496802575451E-17, 0.000000000000000000, 0.3750000000000000555 ) ) ;
#124 = UNCERTAINTY_MEASURE_WITH_UNIT (LENGTH_MEASURE( 1.000000000000000082E-05 ), #55, 'distance_accuracy_value', 'NONE');
#125 = CARTESIAN_POINT ( 'NONE',  ( -0.3750000000000005551, 6.000000000000000888, 0.000000000000000000 ) ) ;
#126 =( GEOMETRIC_REPRESENTATION_CONTEXT ( 3 ) GLOBAL_UNCERTAINTY_ASSIGNED_CONTEXT ( ( #205 ) ) GLOBAL_UNIT_ASSIGNED_CONTEXT ( ( #196, #14, #58 ) ) REPRESENTATION_CONTEXT ( 'NONE', 'WORKASPACE' ) );
#127 = AXIS2_PLACEMENT_3D ( 'NONE', #220, #197, #144 ) ;
#128 = CARTESIAN_POINT ( 'NONE',  ( 0.3750000000000000555, 1.000000000000000222, 4.592425496802577300E-17 ) ) ;
#129 = PRESENTATION_STYLE_ASSIGNMENT (( #226 ) ) ;
#130 = ADVANCED_FACE ( 'NONE', ( #33 ), #217, .T. ) ;
#131 = SURFACE_SIDE_STYLE ('',( #280 ) ) ;
#132 = CIRCLE ( 'NONE', #194, 0.3750000000000002776 ) ;
#133 = EDGE_CURVE ( 'NONE', #121, #108, #185, .T. ) ;
#134 = DIMENSIONAL_EXPONENTS ( 1.000000000000000000, 0.000000000000000000, 0.000000000000000000, 0.000000000000000000, 0.000000000000000000, 0.000000000000000000, 0.000000000000000000 ) ;
#135 = DIRECTION ( 'NONE',  ( 0.000000000000000000, 0.000000000000000000, -1.000000000000000000 ) ) ;
#136 =( GEOMETRIC_REPRESENTATION_CONTEXT ( 3 ) GLOBAL_UNCERTAINTY_ASSIGNED_CONTEXT ( ( #94 ) ) GLOBAL_UNIT_ASSIGNED_CONTEXT ( ( #155, #93, #7 ) ) REPRESENTATION_CONTEXT ( 'NONE', 'WORKASPACE' ) );
#137 = DIRECTION ( 'NONE',  ( 0.000000000000000000, -1.000000000000000000, -0.000000000000000000 ) ) ;
#138 = CARTESIAN_POINT ( 'NONE',  ( 4.592425496802575451E-17, 0.000000000000000000, 0.3750000000000000555 ) ) ;
#139 = VERTEX_POINT ( 'NONE', #138 ) ;
#140 = ORIENTED_EDGE ( 'NONE', *, *, #64, .T. ) ;
#141 =( CONVERSION_BASED_UNIT ( 'INCH', #115 ) LENGTH_UNIT ( ) NAMED_UNIT ( #69 ) );
#142 = UNCERTAINTY_MEASURE_WITH_UNIT (LENGTH_MEASURE( 1.000000000000000082E-05 ), #141, 'distance_accuracy_value', 'NONE');
#143 = SHAPE_DEFINITION_REPRESENTATION ( #87, #152 ) ;
#144 = DIRECTION ( 'NONE',  ( -1.000000000000000000, 0.000000000000000000, 0.000000000000000000 ) ) ;
#145 = CARTESIAN_POINT ( 'NONE',  ( -0.3750000000000004441, 6.000000000000000888, 0.000000000000000000 ) ) ;
#146 =( LENGTH_UNIT ( ) NAMED_UNIT ( * ) SI_UNIT ( $, .METRE. ) );
#147 = ORIENTED_EDGE ( 'NONE', *, *, #4, .F. ) ;
#148 = DIRECTION ( 'NONE',  ( -1.000000000000000000, 0.000000000000000000, 0.000000000000000000 ) ) ;
#149 = DIRECTION ( 'NONE',  ( -4.898587196589414924E-17, 1.000000000000000000, -0.000000000000000000 ) ) ;
#150 = AXIS2_PLACEMENT_3D ( 'NONE', #53, #56, #215 ) ;
#151 = EDGE_CURVE ( 'NONE', #272, #139, #268, .T. ) ;
#152 = ADVANCED_BREP_SHAPE_REPRESENTATION ( '82947', ( #292, #305, #150 ), #6 ) ;
#153 = SURFACE_STYLE_FILL_AREA ( #95 ) ;
#154 = MECHANICAL_DESIGN_GEOMETRIC_PRESENTATION_REPRESENTATION (  '', ( #232 ), #262 ) ;
#155 =( CONVERSION_BASED_UNIT ( 'INCH', #92 ) LENGTH_UNIT ( ) NAMED_UNIT ( #230 ) );
#156 = FILL_AREA_STYLE ('',( #177 ) ) ;
#157 = CIRCLE ( 'NONE', #122, 0.3750000000000000555 ) ;
#158 = ORIENTED_EDGE ( 'NONE', *, *, #209, .T. ) ;
#159 = EDGE_CURVE ( 'NONE', #23, #139, #160, .T. ) ;
#160 = LINE ( 'NONE', #123, #178 ) ;
#161 = ORIENTED_EDGE ( 'NONE', *, *, #181, .F. ) ;
#162 = CARTESIAN_POINT ( 'NONE',  ( 0.000000000000000000, 0.000000000000000000, -0.3750000000000000555 ) ) ;
#163 = CARTESIAN_POINT ( 'NONE',  ( 0.000000000000000000, 0.000000000000000000, 0.000000000000000000 ) ) ;
#164 = VERTEX_POINT ( 'NONE', #271 ) ;
#165 = PRESENTATION_STYLE_ASSIGNMENT (( #51 ) ) ;
#166 = DIRECTION ( 'NONE',  ( 0.000000000000000000, 0.000000000000000000, -1.000000000000000000 ) ) ;
#167 = EDGE_CURVE ( 'NONE', #164, #272, #85, .T. ) ;
#168 = ORIENTED_EDGE ( 'NONE', *, *, #243, .F. ) ;
#169 = AXIS2_PLACEMENT_3D ( 'NONE', #259, #309, #285 ) ;
#170 = FILL_AREA_STYLE ('',( #242 ) ) ;
#171 = DIRECTION ( 'NONE',  ( -0.000000000000000000, -1.000000000000000000, -0.000000000000000000 ) ) ;
#172 = AXIS2_PLACEMENT_3D ( 'NONE', #163, #171, #166 ) ;
#173 = CARTESIAN_POINT ( 'NONE',  ( -2.449293598294707400E-16, 6.000000000000000888, 0.000000000000000000 ) ) ;
#174 = DIRECTION ( 'NONE',  ( -0.000000000000000000, -1.000000000000000000, -0.000000000000000000 ) ) ;
#175 = ADVANCED_FACE ( 'NONE', ( #35 ), #250, .T. ) ;
#176 = EDGE_CURVE ( 'NONE', #304, #30, #157, .T. ) ;
#177 = FILL_AREA_STYLE_COLOUR ( '', #193 ) ;
#178 = VECTOR ( 'NONE', #75, 39.37007874015748143 ) ;
#179 = PLANE ( 'NONE',  #102 ) ;
#180 = DIRECTION ( 'NONE',  ( -1.000000000000000000, -4.898587196589414924E-17, 0.000000000000000000 ) ) ;
#181 = EDGE_CURVE ( 'NONE', #23, #164, #88, .T. ) ;
#182 = ORIENTED_EDGE ( 'NONE', *, *, #308, .F. ) ;
#183 = CARTESIAN_POINT ( 'NONE',  ( -2.449293598294707400E-16, 6.000000000000000888, 0.000000000000000000 ) ) ;
#184 = CARTESIAN_POINT ( 'NONE',  ( 0.3750000000000000555, 6.000000000000000888, 0.000000000000000000 ) ) ;
#185 = CIRCLE ( 'NONE', #127, 0.3750000000000002776 ) ;
#186 = APPLICATION_CONTEXT ( 'automotive_design' ) ;
#187 = DIRECTION ( 'NONE',  ( -0.000000000000000000, -1.000000000000000000, -0.000000000000000000 ) ) ;
#188 = APPLICATION_PROTOCOL_DEFINITION ( 'draft international standard', 'automotive_design', 1998, #57 ) ;
#189 = ADVANCED_FACE ( 'NONE', ( #61 ), #16, .T. ) ;
#190 = DIRECTION ( 'NONE',  ( 0.000000000000000000, -0.000000000000000000, 1.000000000000000000 ) ) ;
#191 =( NAMED_UNIT ( * ) PLANE_ANGLE_UNIT ( ) SI_UNIT ( $, .RADIAN. ) );
#192 = ORIENTED_EDGE ( 'NONE', *, *, #22, .T. ) ;
#193 = COLOUR_RGB ( '',1.000000000000000000, 0.000000000000000000, 0.000000000000000000 ) ;
#194 = AXIS2_PLACEMENT_3D ( 'NONE', #173, #63, #148 ) ;
#195 =( CONVERSION_BASED_UNIT ( 'INCH', #12 ) LENGTH_UNIT ( ) NAMED_UNIT ( #261 ) );
#196 =( CONVERSION_BASED_UNIT ( 'INCH', #83 ) LENGTH_UNIT ( ) NAMED_UNIT ( #227 ) );
#197 = DIRECTION ( 'NONE',  ( -4.898587196589414924E-17, 1.000000000000000000, -0.000000000000000000 ) ) ;
#198 = FILL_AREA_STYLE_COLOUR ( '', #303 ) ;
#199 =( NAMED_UNIT ( * ) PLANE_ANGLE_UNIT ( ) SI_UNIT ( $, .RADIAN. ) );
#200 = CIRCLE ( 'NONE', #204, 0.3750000000000000555 ) ;
#201 = ORIENTED_EDGE ( 'NONE', *, *, #133, .T. ) ;
#202 = UNCERTAINTY_MEASURE_WITH_UNIT (LENGTH_MEASURE( 1.000000000000000082E-05 ), #225, 'distance_accuracy_value', 'NONE');
#203 = PRESENTATION_LAYER_ASSIGNMENT (  '', '', ( #256 ) ) ;
#204 = AXIS2_PLACEMENT_3D ( 'NONE', #216, #187, #79 ) ;
#205 = UNCERTAINTY_MEASURE_WITH_UNIT (LENGTH_MEASURE( 1.000000000000000082E-05 ), #196, 'distance_accuracy_value', 'NONE');
#206 = PRESENTATION_STYLE_ASSIGNMENT (( #264 ) ) ;
#207 =( LENGTH_UNIT ( ) NAMED_UNIT ( * ) SI_UNIT ( $, .METRE. ) );
#208 = COLOUR_RGB ( '',1.000000000000000000, 0.000000000000000000, 0.000000000000000000 ) ;
#209 = EDGE_CURVE ( 'NONE', #164, #23, #200, .T. ) ;
#210 = FACE_OUTER_BOUND ( 'NONE', #249, .T. ) ;
#211 = FILL_AREA_STYLE_COLOUR ( '', #96 ) ;
#212 = SURFACE_STYLE_USAGE ( .BOTH. , #279 ) ;
#213 = STYLED_ITEM ( 'NONE', ( #255 ), #305 ) ;
#214 = EDGE_LOOP ( 'NONE', ( #147, #278 ) ) ;
#215 = DIRECTION ( 'NONE',  ( 1.000000000000000000, 0.000000000000000000, 0.000000000000000000 ) ) ;
#216 = CARTESIAN_POINT ( 'NONE',  ( 0.000000000000000000, 1.000000000000000000, 0.000000000000000000 ) ) ;
#217 = CYLINDRICAL_SURFACE ( 'NONE', #32, 0.3750000000000001665 ) ;
#218 = EDGE_LOOP ( 'NONE', ( #270, #192 ) ) ;
#219 = CARTESIAN_POINT ( 'NONE',  ( 0.000000000000000000, 0.000000000000000000, 0.000000000000000000 ) ) ;
#220 = CARTESIAN_POINT ( 'NONE',  ( -2.449293598294707400E-16, 6.000000000000000888, 0.000000000000000000 ) ) ;
#221 = LENGTH_MEASURE_WITH_UNIT ( LENGTH_MEASURE( 0.02539999999999999897 ), #275 );
#222 = CYLINDRICAL_SURFACE ( 'NONE', #113, 0.3750000000000001665 ) ;
#223 =( NAMED_UNIT ( * ) PLANE_ANGLE_UNIT ( ) SI_UNIT ( $, .RADIAN. ) );
#224 = PRESENTATION_LAYER_ASSIGNMENT (  '', '', ( #232 ) ) ;
#225 =( CONVERSION_BASED_UNIT ( 'INCH', #258 ) LENGTH_UNIT ( ) NAMED_UNIT ( #67 ) );
#226 = SURFACE_STYLE_USAGE ( .BOTH. , #66 ) ;
#227 = DIMENSIONAL_EXPONENTS ( 1.000000000000000000, 0.000000000000000000, 0.000000000000000000, 0.000000000000000000, 0.000000000000000000, 0.000000000000000000, 0.000000000000000000 ) ;
#228 = CLOSED_SHELL ( 'NONE', ( #294, #86, #130, #77 ) ) ;
#229 = MECHANICAL_DESIGN_GEOMETRIC_PRESENTATION_REPRESENTATION (  '', ( #213 ), #277 ) ;
#230 = DIMENSIONAL_EXPONENTS ( 1.000000000000000000, 0.000000000000000000, 0.000000000000000000, 0.000000000000000000, 0.000000000000000000, 0.000000000000000000, 0.000000000000000000 ) ;
#231 = PRODUCT_DEFINITION ( 'UNKNOWN', '', #103, #76 ) ;
#232 = STYLED_ITEM ( 'NONE', ( #301 ), #175 ) ;
#233 = LINE ( 'NONE', #235, #5 ) ;
#234 = DIRECTION ( 'NONE',  ( -1.000000000000000000, 0.000000000000000000, 0.000000000000000000 ) ) ;
#235 = CARTESIAN_POINT ( 'NONE',  ( 0.3749999999999998890, 6.000000000000000888, 4.592425496802576684E-17 ) ) ;
#236 = STYLED_ITEM ( 'NONE', ( #129 ), #189 ) ;
#237 = CARTESIAN_POINT ( 'NONE',  ( -0.3750000000000000555, 1.000000000000000222, 0.000000000000000000 ) ) ;
#238 = DIRECTION ( 'NONE',  ( -4.898587196589414924E-17, 1.000000000000000000, 0.000000000000000000 ) ) ;
#239 = ORIENTED_EDGE ( 'NONE', *, *, #209, .F. ) ;
#240 = CARTESIAN_POINT ( 'NONE',  ( -2.449293598294707400E-16, 6.000000000000000888, 0.000000000000000000 ) ) ;
#241 = ORIENTED_EDGE ( 'NONE', *, *, #22, .F. ) ;
#242 = FILL_AREA_STYLE_COLOUR ( '', #257 ) ;
#243 = EDGE_CURVE ( 'NONE', #30, #108, #247, .T. ) ;
#244 = PRESENTATION_LAYER_ASSIGNMENT (  '', '', ( #236 ) ) ;
#245 = ORIENTED_EDGE ( 'NONE', *, *, #176, .T. ) ;
#246 =( CONVERSION_BASED_UNIT ( 'INCH', #221 ) LENGTH_UNIT ( ) NAMED_UNIT ( #134 ) );
#247 = LINE ( 'NONE', #145, #1 ) ;
#248 = DIRECTION ( 'NONE',  ( -4.898587196589414924E-17, 1.000000000000000000, -0.000000000000000000 ) ) ;
#249 = EDGE_LOOP ( 'NONE', ( #45, #201 ) ) ;
#250 = CYLINDRICAL_SURFACE ( 'NONE', #91, 0.3750000000000000555 ) ;
#251 =( LENGTH_UNIT ( ) NAMED_UNIT ( * ) SI_UNIT ( $, .METRE. ) );
#252 = MECHANICAL_DESIGN_GEOMETRIC_PRESENTATION_REPRESENTATION (  '', ( #38 ), #126 ) ;
#253 = PRESENTATION_LAYER_ASSIGNMENT (  '', '', ( #213 ) ) ;
#254 = CARTESIAN_POINT ( 'NONE',  ( 0.000000000000000000, 1.000000000000000222, 0.000000000000000000 ) ) ;
#255 = PRESENTATION_STYLE_ASSIGNMENT (( #60 ) ) ;
#256 = STYLED_ITEM ( 'NONE', ( #206 ), #52 ) ;
#257 = COLOUR_RGB ( '',1.000000000000000000, 0.000000000000000000, 0.000000000000000000 ) ;
#258 = LENGTH_MEASURE_WITH_UNIT ( LENGTH_MEASURE( 0.02539999999999999897 ), #39 );
#259 = CARTESIAN_POINT ( 'NONE',  ( 0.000000000000000000, 1.000000000000000000, 0.000000000000000000 ) ) ;
#260 = EDGE_LOOP ( 'NONE', ( #158, #34, #25, #50 ) ) ;
#261 = DIMENSIONAL_EXPONENTS ( 1.000000000000000000, 0.000000000000000000, 0.000000000000000000, 0.000000000000000000, 0.000000000000000000, 0.000000000000000000, 0.000000000000000000 ) ;
#262 =( GEOMETRIC_REPRESENTATION_CONTEXT ( 3 ) GLOBAL_UNCERTAINTY_ASSIGNED_CONTEXT ( ( #124 ) ) GLOBAL_UNIT_ASSIGNED_CONTEXT ( ( #55, #223, #302 ) ) REPRESENTATION_CONTEXT ( 'NONE', 'WORKASPACE' ) );
#263 = PLANE ( 'NONE',  #297 ) ;
#264 = SURFACE_STYLE_USAGE ( .BOTH. , #71 ) ;
#265 = DIRECTION ( 'NONE',  ( -4.898587196589414924E-17, 1.000000000000000000, -0.000000000000000000 ) ) ;
#266 =( NAMED_UNIT ( * ) SI_UNIT ( $, .STERADIAN. ) SOLID_ANGLE_UNIT ( ) );
#267 = CIRCLE ( 'NONE', #27, 0.3750000000000000555 ) ;
#268 = CIRCLE ( 'NONE', #172, 0.3750000000000000555 ) ;
#269 = PLANE ( 'NONE',  #282 ) ;
#270 = ORIENTED_EDGE ( 'NONE', *, *, #151, .T. ) ;
#271 = CARTESIAN_POINT ( 'NONE',  ( 0.000000000000000000, 1.000000000000000000, -0.3750000000000000555 ) ) ;
#272 = VERTEX_POINT ( 'NONE', #162 ) ;
#273 = FILL_AREA_STYLE_COLOUR ( '', #54 ) ;
#274 =( LENGTH_UNIT ( ) NAMED_UNIT ( * ) SI_UNIT ( $, .METRE. ) );
#275 =( LENGTH_UNIT ( ) NAMED_UNIT ( * ) SI_UNIT ( $, .METRE. ) );
#276 = CIRCLE ( 'NONE', #62, 0.3750000000000000555 ) ;
#277 =( GEOMETRIC_REPRESENTATION_CONTEXT ( 3 ) GLOBAL_UNCERTAINTY_ASSIGNED_CONTEXT ( ( #202 ) ) GLOBAL_UNIT_ASSIGNED_CONTEXT ( ( #225, #199, #2 ) ) REPRESENTATION_CONTEXT ( 'NONE', 'WORKASPACE' ) );
#278 = ORIENTED_EDGE ( 'NONE', *, *, #176, .F. ) ;
#279 = SURFACE_SIDE_STYLE ('',( #120 ) ) ;
#280 = SURFACE_STYLE_FILL_AREA ( #41 ) ;
#281 = DIRECTION ( 'NONE',  ( -1.000000000000000000, 0.000000000000000000, 0.000000000000000000 ) ) ;
#282 = AXIS2_PLACEMENT_3D ( 'NONE', #80, #11, #190 ) ;
#283 = MECHANICAL_DESIGN_GEOMETRIC_PRESENTATION_REPRESENTATION (  '', ( #287 ), #9 ) ;
#284 =( LENGTH_UNIT ( ) NAMED_UNIT ( * ) SI_UNIT ( $, .METRE. ) );
#285 = DIRECTION ( 'NONE',  ( 0.000000000000000000, 0.000000000000000000, -1.000000000000000000 ) ) ;
#286 = ORIENTED_EDGE ( 'NONE', *, *, #133, .F. ) ;
#287 = STYLED_ITEM ( 'NONE', ( #165 ), #292 ) ;
#288 = SURFACE_STYLE_USAGE ( .BOTH. , #89 ) ;
#289 = ORIENTED_EDGE ( 'NONE', *, *, #64, .F. ) ;
#290 =( GEOMETRIC_REPRESENTATION_CONTEXT ( 3 ) GLOBAL_UNCERTAINTY_ASSIGNED_CONTEXT ( ( #142 ) ) GLOBAL_UNIT_ASSIGNED_CONTEXT ( ( #141, #306, #119 ) ) REPRESENTATION_CONTEXT ( 'NONE', 'WORKASPACE' ) );
#291 = SURFACE_STYLE_FILL_AREA ( #156 ) ;
#292 = MANIFOLD_SOLID_BREP ( 'Revolve - Cutting Edge', #107 ) ;
#293 = CARTESIAN_POINT ( 'NONE',  ( 4.499279347985576587E-34, 1.000000000000000000, 0.000000000000000000 ) ) ;
#294 = ADVANCED_FACE ( 'NONE', ( #36 ), #222, .T. ) ;
#295 = DIRECTION ( 'NONE',  ( 4.898587196589414924E-17, -1.000000000000000000, 0.000000000000000000 ) ) ;
#296 = ORIENTED_EDGE ( 'NONE', *, *, #181, .T. ) ;
#297 = AXIS2_PLACEMENT_3D ( 'NONE', #184, #295, #48 ) ;
#298 = DIRECTION ( 'NONE',  ( -4.898587196589414924E-17, 1.000000000000000000, -0.000000000000000000 ) ) ;
#299 = DIRECTION ( 'NONE',  ( -4.898587196589414924E-17, 1.000000000000000000, -0.000000000000000000 ) ) ;
#300 = ORIENTED_EDGE ( 'NONE', *, *, #167, .T. ) ;
#301 = PRESENTATION_STYLE_ASSIGNMENT (( #212 ) ) ;
#302 =( NAMED_UNIT ( * ) SI_UNIT ( $, .STERADIAN. ) SOLID_ANGLE_UNIT ( ) );
#303 = COLOUR_RGB ( '',0.7921568627450980005, 0.8196078431372548767, 0.9333333333333333481 ) ;
#304 = VERTEX_POINT ( 'NONE', #128 ) ;
#305 = MANIFOLD_SOLID_BREP ( 'Revolve - Tool Body (Straight Shanked)', #228 ) ;
#306 =( NAMED_UNIT ( * ) PLANE_ANGLE_UNIT ( ) SI_UNIT ( $, .RADIAN. ) );
#307 = DIRECTION ( 'NONE',  ( -1.000000000000000000, 0.000000000000000000, 0.000000000000000000 ) ) ;
#308 = EDGE_CURVE ( 'NONE', #108, #121, #132, .T. ) ;
#309 = DIRECTION ( 'NONE',  ( -0.000000000000000000, -1.000000000000000000, -0.000000000000000000 ) ) ;
ENDSEC;
END-ISO-10303-21;
