ISO-10303-21;
HEADER;
FILE_DESCRIPTION (( 'STEP AP214' ),
    '1' );
FILE_NAME ('84771.STEP',
    '2023-06-30T23:55:05',
    ( '' ),
    ( '' ),
    'SwSTEP 2.0',
    'SolidWorks 2023',
    '' );
FILE_SCHEMA (( 'AUTOMOTIVE_DESIGN' ));
ENDSEC;

DATA;
#1 = ORIENTED_EDGE ( 'NONE', *, *, #289, .T. ) ;
#2 = DIRECTION ( 'NONE',  ( 1.000000000000000000, 0.000000000000000000, -1.224646799147353207E-16 ) ) ;
#3 = DIMENSIONAL_EXPONENTS ( 1.000000000000000000, 0.000000000000000000, 0.000000000000000000, 0.000000000000000000, 0.000000000000000000, 0.000000000000000000, 0.000000000000000000 ) ;
#4 = AXIS2_PLACEMENT_3D ( 'NONE', #170, #245, #343 ) ;
#5 = STYLED_ITEM ( 'NONE', ( #22 ), #336 ) ;
#6 = CARTESIAN_POINT ( 'NONE',  ( -6.123233995736766036E-17, 0.5000000000000000000, 0.000000000000000000 ) ) ;
#7 = DIMENSIONAL_EXPONENTS ( 1.000000000000000000, 0.000000000000000000, 0.000000000000000000, 0.000000000000000000, 0.000000000000000000, 0.000000000000000000, 0.000000000000000000 ) ;
#8 = CARTESIAN_POINT ( 'NONE',  ( 0.000000000000000000, 0.000000000000000000, -0.4999999999999998335 ) ) ;
#9 = CARTESIAN_POINT ( 'NONE',  ( 6.123233995736766036E-17, 0.5000000000000001110, 0.5000000000000000000 ) ) ;
#10 = SURFACE_STYLE_USAGE ( .BOTH. , #351 ) ;
#11 = ORIENTED_EDGE ( 'NONE', *, *, #220, .T. ) ;
#12 = ORIENTED_EDGE ( 'NONE', *, *, #103, .F. ) ;
#13 = ORIENTED_EDGE ( 'NONE', *, *, #151, .F. ) ;
#14 = AXIS2_PLACEMENT_3D ( 'NONE', #369, #118, #371 ) ;
#15 = UNCERTAINTY_MEASURE_WITH_UNIT (LENGTH_MEASURE( 1.000000000000000082E-05 ), #287, 'distance_accuracy_value', 'NONE');
#16 = FACE_OUTER_BOUND ( 'NONE', #87, .T. ) ;
#17 = LENGTH_MEASURE_WITH_UNIT ( LENGTH_MEASURE( 0.02539999999999999897 ), #44 );
#18 = APPLICATION_CONTEXT ( 'automotive_design' ) ;
#19 = LENGTH_MEASURE_WITH_UNIT ( LENGTH_MEASURE( 0.02539999999999999897 ), #84 );
#20 = PRESENTATION_STYLE_ASSIGNMENT (( #163 ) ) ;
#21 = FILL_AREA_STYLE_COLOUR ( '', #91 ) ;
#22 = PRESENTATION_STYLE_ASSIGNMENT (( #187 ) ) ;
#23 = CARTESIAN_POINT ( 'NONE',  ( 0.000000000000000000, 0.000000000000000000, 0.000000000000000000 ) ) ;
#24 =( CONVERSION_BASED_UNIT ( 'INCH', #164 ) LENGTH_UNIT ( ) NAMED_UNIT ( #252 ) );
#25 =( GEOMETRIC_REPRESENTATION_CONTEXT ( 3 ) GLOBAL_UNCERTAINTY_ASSIGNED_CONTEXT ( ( #248 ) ) GLOBAL_UNIT_ASSIGNED_CONTEXT ( ( #171, #214, #56 ) ) REPRESENTATION_CONTEXT ( 'NONE', 'WORKASPACE' ) );
#26 = STYLED_ITEM ( 'NONE', ( #225 ), #67 ) ;
#27 = CYLINDRICAL_SURFACE ( 'NONE', #57, 0.4999999999999996114 ) ;
#28 = DIRECTION ( 'NONE',  ( 1.000000000000000000, 1.224646799147353454E-16, 0.000000000000000000 ) ) ;
#29 = DIRECTION ( 'NONE',  ( 1.224646799147353207E-16, -0.000000000000000000, 1.000000000000000000 ) ) ;
#30 = SURFACE_STYLE_FILL_AREA ( #95 ) ;
#31 = ADVANCED_FACE ( 'NONE', ( #16 ), #370, .T. ) ;
#32 = MECHANICAL_DESIGN_GEOMETRIC_PRESENTATION_REPRESENTATION (  '', ( #5 ), #177 ) ;
#33 = PRESENTATION_LAYER_ASSIGNMENT (  '', '', ( #257 ) ) ;
#34 = EDGE_LOOP ( 'NONE', ( #102, #355 ) ) ;
#35 = CIRCLE ( 'NONE', #229, 0.5000000000000000000 ) ;
#36 =( NAMED_UNIT ( * ) SI_UNIT ( $, .STERADIAN. ) SOLID_ANGLE_UNIT ( ) );
#37 =( LENGTH_UNIT ( ) NAMED_UNIT ( * ) SI_UNIT ( $, .METRE. ) );
#38 = CIRCLE ( 'NONE', #363, 0.4999999999999997224 ) ;
#39 = AXIS2_PLACEMENT_3D ( 'NONE', #156, #285, #198 ) ;
#40 = APPLICATION_CONTEXT ( 'automotive_design' ) ;
#41 = DIRECTION ( 'NONE',  ( 1.224646799147353454E-16, -1.000000000000000000, 0.000000000000000000 ) ) ;
#42 = AXIS2_PLACEMENT_3D ( 'NONE', #60, #173, #273 ) ;
#43 = CLOSED_SHELL ( 'NONE', ( #316, #200, #317, #113 ) ) ;
#44 =( LENGTH_UNIT ( ) NAMED_UNIT ( * ) SI_UNIT ( $, .METRE. ) );
#45 = PRODUCT_RELATED_PRODUCT_CATEGORY ( 'part', '', ( #219 ) ) ;
#46 = PRESENTATION_STYLE_ASSIGNMENT (( #189 ) ) ;
#47 = SURFACE_SIDE_STYLE ('',( #74 ) ) ;
#48 = SURFACE_STYLE_USAGE ( .BOTH. , #258 ) ;
#49 = AXIS2_PLACEMENT_3D ( 'NONE', #96, #207, #174 ) ;
#50 = DIRECTION ( 'NONE',  ( -0.000000000000000000, -1.000000000000000000, -0.000000000000000000 ) ) ;
#51 = DIRECTION ( 'NONE',  ( -0.000000000000000000, -1.000000000000000000, -0.000000000000000000 ) ) ;
#52 = VERTEX_POINT ( 'NONE', #138 ) ;
#53 =( NAMED_UNIT ( * ) SI_UNIT ( $, .STERADIAN. ) SOLID_ANGLE_UNIT ( ) );
#54 =( NAMED_UNIT ( * ) SI_UNIT ( $, .STERADIAN. ) SOLID_ANGLE_UNIT ( ) );
#55 = DIRECTION ( 'NONE',  ( -1.000000000000000000, 0.000000000000000000, 0.000000000000000000 ) ) ;
#56 =( NAMED_UNIT ( * ) SI_UNIT ( $, .STERADIAN. ) SOLID_ANGLE_UNIT ( ) );
#57 = AXIS2_PLACEMENT_3D ( 'NONE', #346, #127, #235 ) ;
#58 =( CONVERSION_BASED_UNIT ( 'INCH', #166 ) LENGTH_UNIT ( ) NAMED_UNIT ( #98 ) );
#59 = ORIENTED_EDGE ( 'NONE', *, *, #249, .T. ) ;
#60 = CARTESIAN_POINT ( 'NONE',  ( 0.000000000000000000, 0.000000000000000000, 0.000000000000000000 ) ) ;
#61 = CYLINDRICAL_SURFACE ( 'NONE', #308, 0.4999999999999996114 ) ;
#62 = CYLINDRICAL_SURFACE ( 'NONE', #42, 0.4999999999999998335 ) ;
#63 = CIRCLE ( 'NONE', #119, 0.4999999999999997780 ) ;
#64 = LINE ( 'NONE', #178, #100 ) ;
#65 = ORIENTED_EDGE ( 'NONE', *, *, #350, .F. ) ;
#66 = EDGE_CURVE ( 'NONE', #323, #52, #364, .T. ) ;
#67 = MANIFOLD_SOLID_BREP ( 'Revolve - Cutting Edge', #263 ) ;
#68 = ORIENTED_EDGE ( 'NONE', *, *, #101, .T. ) ;
#69 =( GEOMETRIC_REPRESENTATION_CONTEXT ( 3 ) GLOBAL_UNCERTAINTY_ASSIGNED_CONTEXT ( ( #247 ) ) GLOBAL_UNIT_ASSIGNED_CONTEXT ( ( #367, #197, #230 ) ) REPRESENTATION_CONTEXT ( 'NONE', 'WORKASPACE' ) );
#70 = ORIENTED_EDGE ( 'NONE', *, *, #66, .T. ) ;
#71 = VECTOR ( 'NONE', #51, 39.37007874015748143 ) ;
#72 = EDGE_LOOP ( 'NONE', ( #104, #269, #1, #133, #271 ) ) ;
#73 = AXIS2_PLACEMENT_3D ( 'NONE', #185, #334, #80 ) ;
#74 = SURFACE_STYLE_FILL_AREA ( #190 ) ;
#75 = PRESENTATION_LAYER_ASSIGNMENT (  '', '', ( #26 ) ) ;
#76 =( LENGTH_UNIT ( ) NAMED_UNIT ( * ) SI_UNIT ( $, .METRE. ) );
#77 = FACE_OUTER_BOUND ( 'NONE', #300, .T. ) ;
#78 =( NAMED_UNIT ( * ) PLANE_ANGLE_UNIT ( ) SI_UNIT ( $, .RADIAN. ) );
#79 = DIRECTION ( 'NONE',  ( 1.000000000000000000, 0.000000000000000000, 0.000000000000000000 ) ) ;
#80 = DIRECTION ( 'NONE',  ( -1.000000000000000000, -1.224646799147353454E-16, 0.000000000000000000 ) ) ;
#81 = STYLED_ITEM ( 'NONE', ( #373 ), #182 ) ;
#82 = CARTESIAN_POINT ( 'NONE',  ( -6.123233995736766036E-17, 0.5000000000000000000, 0.000000000000000000 ) ) ;
#83 = AXIS2_PLACEMENT_3D ( 'NONE', #130, #89, #265 ) ;
#84 =( LENGTH_UNIT ( ) NAMED_UNIT ( * ) SI_UNIT ( $, .METRE. ) );
#85 = DIRECTION ( 'NONE',  ( 0.000000000000000000, 0.000000000000000000, -1.000000000000000000 ) ) ;
#86 = DIRECTION ( 'NONE',  ( -1.224646799147353454E-16, 1.000000000000000000, -0.000000000000000000 ) ) ;
#87 = EDGE_LOOP ( 'NONE', ( #298, #11, #246, #318 ) ) ;
#88 =( CONVERSION_BASED_UNIT ( 'INCH', #131 ) LENGTH_UNIT ( ) NAMED_UNIT ( #94 ) );
#89 = DIRECTION ( 'NONE',  ( -0.000000000000000000, -1.000000000000000000, -0.000000000000000000 ) ) ;
#90 =( NAMED_UNIT ( * ) PLANE_ANGLE_UNIT ( ) SI_UNIT ( $, .RADIAN. ) );
#91 = COLOUR_RGB ( '',0.7921568627450980005, 0.8196078431372548767, 0.9333333333333333481 ) ;
#92 = ORIENTED_EDGE ( 'NONE', *, *, #151, .T. ) ;
#93 = FACE_OUTER_BOUND ( 'NONE', #327, .T. ) ;
#94 = DIMENSIONAL_EXPONENTS ( 1.000000000000000000, 0.000000000000000000, 0.000000000000000000, 0.000000000000000000, 0.000000000000000000, 0.000000000000000000, 0.000000000000000000 ) ;
#95 = FILL_AREA_STYLE ('',( #150 ) ) ;
#96 = CARTESIAN_POINT ( 'NONE',  ( 0.000000000000000000, 0.5000000000000001110, 0.000000000000000000 ) ) ;
#97 = FACE_OUTER_BOUND ( 'NONE', #290, .T. ) ;
#98 = DIMENSIONAL_EXPONENTS ( 1.000000000000000000, 0.000000000000000000, 0.000000000000000000, 0.000000000000000000, 0.000000000000000000, 0.000000000000000000, 0.000000000000000000 ) ;
#99 = ORIENTED_EDGE ( 'NONE', *, *, #162, .F. ) ;
#100 = VECTOR ( 'NONE', #243, 39.37007874015748143 ) ;
#101 = EDGE_CURVE ( 'NONE', #356, #181, #302, .T. ) ;
#102 = ORIENTED_EDGE ( 'NONE', *, *, #268, .T. ) ;
#103 = EDGE_CURVE ( 'NONE', #167, #135, #121, .T. ) ;
#104 = ORIENTED_EDGE ( 'NONE', *, *, #101, .F. ) ;
#105 = COLOUR_RGB ( '',1.000000000000000000, 0.000000000000000000, 0.000000000000000000 ) ;
#106 = CIRCLE ( 'NONE', #344, 0.4999999999999995004 ) ;
#107 = DIRECTION ( 'NONE',  ( -1.000000000000000000, 0.000000000000000000, 0.000000000000000000 ) ) ;
#108 = PRODUCT_DEFINITION_CONTEXT ( 'detailed design', #40, 'design' ) ;
#109 = UNCERTAINTY_MEASURE_WITH_UNIT (LENGTH_MEASURE( 1.000000000000000082E-05 ), #88, 'distance_accuracy_value', 'NONE');
#110 = PLANE ( 'NONE',  #339 ) ;
#111 = SURFACE_STYLE_FILL_AREA ( #186 ) ;
#112 =( GEOMETRIC_REPRESENTATION_CONTEXT ( 3 ) GLOBAL_UNCERTAINTY_ASSIGNED_CONTEXT ( ( #201 ) ) GLOBAL_UNIT_ASSIGNED_CONTEXT ( ( #58, #283, #54 ) ) REPRESENTATION_CONTEXT ( 'NONE', 'WORKASPACE' ) );
#113 = ADVANCED_FACE ( 'NONE', ( #274 ), #110, .F. ) ;
#114 = UNCERTAINTY_MEASURE_WITH_UNIT (LENGTH_MEASURE( 1.000000000000000082E-05 ), #251, 'distance_accuracy_value', 'NONE');
#115 = CARTESIAN_POINT ( 'NONE',  ( 6.123233995736763571E-17, 2.000000000000000000, 0.4999999999999997224 ) ) ;
#116 = FACE_OUTER_BOUND ( 'NONE', #241, .T. ) ;
#117 = DIRECTION ( 'NONE',  ( -1.000000000000000000, 0.000000000000000000, 0.000000000000000000 ) ) ;
#118 = DIRECTION ( 'NONE',  ( 0.000000000000000000, 0.000000000000000000, 1.000000000000000000 ) ) ;
#119 = AXIS2_PLACEMENT_3D ( 'NONE', #242, #244, #55 ) ;
#120 = CARTESIAN_POINT ( 'NONE',  ( -6.123233995736770966E-17, 4.500000000000000000, 0.000000000000000000 ) ) ;
#121 = CIRCLE ( 'NONE', #280, 0.4999999999999997780 ) ;
#122 = DIRECTION ( 'NONE',  ( 0.000000000000000000, 0.000000000000000000, -1.000000000000000000 ) ) ;
#123 =( LENGTH_UNIT ( ) NAMED_UNIT ( * ) SI_UNIT ( $, .METRE. ) );
#124 = DIRECTION ( 'NONE',  ( 0.000000000000000000, 1.000000000000000000, 0.000000000000000000 ) ) ;
#125 = CARTESIAN_POINT ( 'NONE',  ( 0.4999999999999997224, 4.500000000000000000, 6.123233995736762338E-17 ) ) ;
#126 = VERTEX_POINT ( 'NONE', #296 ) ;
#127 = DIRECTION ( 'NONE',  ( -1.224646799147353454E-16, 1.000000000000000000, -0.000000000000000000 ) ) ;
#128 =( GEOMETRIC_REPRESENTATION_CONTEXT ( 3 ) GLOBAL_UNCERTAINTY_ASSIGNED_CONTEXT ( ( #15 ) ) GLOBAL_UNIT_ASSIGNED_CONTEXT ( ( #287, #90, #36 ) ) REPRESENTATION_CONTEXT ( 'NONE', 'WORKASPACE' ) );
#129 = VERTEX_POINT ( 'NONE', #152 ) ;
#130 = CARTESIAN_POINT ( 'NONE',  ( 0.000000000000000000, 0.5000000000000001110, 0.000000000000000000 ) ) ;
#131 = LENGTH_MEASURE_WITH_UNIT ( LENGTH_MEASURE( 0.02539999999999999897 ), #221 );
#132 = EDGE_CURVE ( 'NONE', #153, #206, #179, .T. ) ;
#133 = ORIENTED_EDGE ( 'NONE', *, *, #267, .F. ) ;
#134 = ORIENTED_EDGE ( 'NONE', *, *, #249, .F. ) ;
#135 = VERTEX_POINT ( 'NONE', #237 ) ;
#136 = CIRCLE ( 'NONE', #49, 0.5000000000000000000 ) ;
#137 = COLOUR_RGB ( '',1.000000000000000000, 0.000000000000000000, 0.000000000000000000 ) ;
#138 = CARTESIAN_POINT ( 'NONE',  ( -3.061616997868383018E-17, 0.000000000000000000, 0.000000000000000000 ) ) ;
#139 = APPLICATION_PROTOCOL_DEFINITION ( 'draft international standard', 'automotive_design', 1998, #18 ) ;
#140 = AXIS2_PLACEMENT_3D ( 'NONE', #23, #281, #85 ) ;
#141 = CARTESIAN_POINT ( 'NONE',  ( -6.123233995736772199E-17, 4.500000000000000000, 0.000000000000000000 ) ) ;
#142 = ORIENTED_EDGE ( 'NONE', *, *, #220, .F. ) ;
#143 = CARTESIAN_POINT ( 'NONE',  ( -0.5000000000000000000, 0.5000000000000001110, 6.123233995736764803E-17 ) ) ;
#144 = ORIENTED_EDGE ( 'NONE', *, *, #162, .T. ) ;
#145 =( NAMED_UNIT ( * ) SI_UNIT ( $, .STERADIAN. ) SOLID_ANGLE_UNIT ( ) );
#146 =( LENGTH_UNIT ( ) NAMED_UNIT ( * ) SI_UNIT ( $, .METRE. ) );
#147 = STYLED_ITEM ( 'NONE', ( #222 ), #188 ) ;
#148 = PRESENTATION_LAYER_ASSIGNMENT (  '', '', ( #147 ) ) ;
#149 = DIRECTION ( 'NONE',  ( 0.000000000000000000, -0.000000000000000000, 1.000000000000000000 ) ) ;
#150 = FILL_AREA_STYLE_COLOUR ( '', #275 ) ;
#151 = EDGE_CURVE ( 'NONE', #153, #167, #64, .T. ) ;
#152 = CARTESIAN_POINT ( 'NONE',  ( 0.000000000000000000, 0.5000000000000001110, -0.5000000000000000000 ) ) ;
#153 = VERTEX_POINT ( 'NONE', #292 ) ;
#154 = CYLINDRICAL_SURFACE ( 'NONE', #140, 0.4999999999999998335 ) ;
#155 = UNCERTAINTY_MEASURE_WITH_UNIT (LENGTH_MEASURE( 1.000000000000000082E-05 ), #24, 'distance_accuracy_value', 'NONE');
#156 = CARTESIAN_POINT ( 'NONE',  ( -6.123233995736766036E-17, 0.5000000000000000000, 0.000000000000000000 ) ) ;
#157 = AXIS2_PLACEMENT_3D ( 'NONE', #348, #320, #172 ) ;
#158 = AXIS2_PLACEMENT_3D ( 'NONE', #226, #196, #79 ) ;
#159 = SPHERICAL_SURFACE ( 'NONE', #14, 0.5000000000000000000 ) ;
#160 =( NAMED_UNIT ( * ) SI_UNIT ( $, .STERADIAN. ) SOLID_ANGLE_UNIT ( ) );
#161 = STYLED_ITEM ( 'NONE', ( #205 ), #183 ) ;
#162 = EDGE_CURVE ( 'NONE', #126, #356, #303, .T. ) ;
#163 = SURFACE_STYLE_USAGE ( .BOTH. , #47 ) ;
#164 = LENGTH_MEASURE_WITH_UNIT ( LENGTH_MEASURE( 0.02539999999999999897 ), #123 );
#165 = SURFACE_SIDE_STYLE ('',( #282 ) ) ;
#166 = LENGTH_MEASURE_WITH_UNIT ( LENGTH_MEASURE( 0.02539999999999999897 ), #227 );
#167 = VERTEX_POINT ( 'NONE', #125 ) ;
#168 = FILL_AREA_STYLE ('',( #309 ) ) ;
#169 = FACE_OUTER_BOUND ( 'NONE', #216, .T. ) ;
#170 = CARTESIAN_POINT ( 'NONE',  ( 2.449293598294706414E-16, 2.000000000000000000, 0.000000000000000000 ) ) ;
#171 =( CONVERSION_BASED_UNIT ( 'INCH', #354 ) LENGTH_UNIT ( ) NAMED_UNIT ( #240 ) );
#172 = DIRECTION ( 'NONE',  ( 0.000000000000000000, 0.000000000000000000, -1.000000000000000000 ) ) ;
#173 = DIRECTION ( 'NONE',  ( -0.000000000000000000, -1.000000000000000000, -0.000000000000000000 ) ) ;
#174 = DIRECTION ( 'NONE',  ( 0.000000000000000000, 0.000000000000000000, -1.000000000000000000 ) ) ;
#175 = CARTESIAN_POINT ( 'NONE',  ( 0.000000000000000000, 2.000000000000000000, 0.000000000000000000 ) ) ;
#176 = VECTOR ( 'NONE', #319, 39.37007874015748143 ) ;
#177 =( GEOMETRIC_REPRESENTATION_CONTEXT ( 3 ) GLOBAL_UNCERTAINTY_ASSIGNED_CONTEXT ( ( #114 ) ) GLOBAL_UNIT_ASSIGNED_CONTEXT ( ( #251, #254, #160 ) ) REPRESENTATION_CONTEXT ( 'NONE', 'WORKASPACE' ) );
#178 = CARTESIAN_POINT ( 'NONE',  ( 0.4999999999999995004, 4.500000000000000000, 6.123233995736761105E-17 ) ) ;
#179 = CIRCLE ( 'NONE', #4, 0.4999999999999995004 ) ;
#180 = PRODUCT_DEFINITION_FORMATION_WITH_SPECIFIED_SOURCE ( 'ANY', '', #219, .NOT_KNOWN. ) ;
#181 = VERTEX_POINT ( 'NONE', #9 ) ;
#182 = MANIFOLD_SOLID_BREP ( 'Revolve - Tool Body (Straight Shanked)', #43 ) ;
#183 = ADVANCED_FACE ( 'NONE', ( #97 ), #62, .T. ) ;
#184 =( GEOMETRIC_REPRESENTATION_CONTEXT ( 3 ) GLOBAL_UNCERTAINTY_ASSIGNED_CONTEXT ( ( #109 ) ) GLOBAL_UNIT_ASSIGNED_CONTEXT ( ( #88, #294, #145 ) ) REPRESENTATION_CONTEXT ( 'NONE', 'WORKASPACE' ) );
#185 = CARTESIAN_POINT ( 'NONE',  ( 2.449293598294706414E-16, 2.000000000000000000, 0.000000000000000000 ) ) ;
#186 = FILL_AREA_STYLE ('',( #361 ) ) ;
#187 = SURFACE_STYLE_USAGE ( .BOTH. , #165 ) ;
#188 = ADVANCED_FACE ( 'NONE', ( #276 ), #154, .T. ) ;
#189 = SURFACE_STYLE_USAGE ( .BOTH. , #333 ) ;
#190 = FILL_AREA_STYLE ('',( #256 ) ) ;
#191 = PRODUCT_DEFINITION_SHAPE ( 'NONE', 'NONE',  #238 ) ;
#192 = COLOUR_RGB ( '',1.000000000000000000, 0.000000000000000000, 0.000000000000000000 ) ;
#193 = SURFACE_STYLE_FILL_AREA ( #305 ) ;
#194 = PLANE ( 'NONE',  #293 ) ;
#195 = CIRCLE ( 'NONE', #322, 0.5000000000000000000 ) ;
#196 = DIRECTION ( 'NONE',  ( 0.000000000000000000, 0.000000000000000000, 1.000000000000000000 ) ) ;
#197 =( NAMED_UNIT ( * ) PLANE_ANGLE_UNIT ( ) SI_UNIT ( $, .RADIAN. ) );
#198 = DIRECTION ( 'NONE',  ( -1.000000000000000000, 0.000000000000000000, 0.000000000000000000 ) ) ;
#199 = CARTESIAN_POINT ( 'NONE',  ( -0.4999999999999992228, 2.000000000000000000, 0.000000000000000000 ) ) ;
#200 = ADVANCED_FACE ( 'NONE', ( #116 ), #224, .F. ) ;
#201 = UNCERTAINTY_MEASURE_WITH_UNIT (LENGTH_MEASURE( 1.000000000000000082E-05 ), #58, 'distance_accuracy_value', 'NONE');
#202 = ADVANCED_FACE ( 'NONE', ( #77 ), #194, .T. ) ;
#203 = CARTESIAN_POINT ( 'NONE',  ( 0.5000000000000000000, 0.5000000000000001110, 0.000000000000000000 ) ) ;
#204 = DIMENSIONAL_EXPONENTS ( 1.000000000000000000, 0.000000000000000000, 0.000000000000000000, 0.000000000000000000, 0.000000000000000000, 0.000000000000000000, 0.000000000000000000 ) ;
#205 = PRESENTATION_STYLE_ASSIGNMENT (( #321 ) ) ;
#206 = VERTEX_POINT ( 'NONE', #199 ) ;
#207 = DIRECTION ( 'NONE',  ( -0.000000000000000000, -1.000000000000000000, -0.000000000000000000 ) ) ;
#208 = ORIENTED_EDGE ( 'NONE', *, *, #267, .T. ) ;
#209 = LINE ( 'NONE', #8, #368 ) ;
#210 = SURFACE_SIDE_STYLE ('',( #325 ) ) ;
#211 = ORIENTED_EDGE ( 'NONE', *, *, #324, .F. ) ;
#212 = FILL_AREA_STYLE ('',( #266 ) ) ;
#213 = ORIENTED_EDGE ( 'NONE', *, *, #272, .T. ) ;
#214 =( NAMED_UNIT ( * ) PLANE_ANGLE_UNIT ( ) SI_UNIT ( $, .RADIAN. ) );
#215 = EDGE_CURVE ( 'NONE', #323, #181, #136, .T. ) ;
#216 = EDGE_LOOP ( 'NONE', ( #360, #92, #345, #134 ) ) ;
#217 = COLOUR_RGB ( '',1.000000000000000000, 0.000000000000000000, 0.000000000000000000 ) ;
#218 = PRESENTATION_LAYER_ASSIGNMENT (  '', '', ( #161 ) ) ;
#219 = PRODUCT ( '84771', '84771', '', ( #231 ) ) ;
#220 = EDGE_CURVE ( 'NONE', #297, #52, #195, .T. ) ;
#221 =( LENGTH_UNIT ( ) NAMED_UNIT ( * ) SI_UNIT ( $, .METRE. ) );
#222 = PRESENTATION_STYLE_ASSIGNMENT (( #311 ) ) ;
#223 = FILL_AREA_STYLE_COLOUR ( '', #105 ) ;
#224 = PLANE ( 'NONE',  #73 ) ;
#225 = PRESENTATION_STYLE_ASSIGNMENT (( #48 ) ) ;
#226 = CARTESIAN_POINT ( 'NONE',  ( 0.000000000000000000, 0.000000000000000000, 0.000000000000000000 ) ) ;
#227 =( LENGTH_UNIT ( ) NAMED_UNIT ( * ) SI_UNIT ( $, .METRE. ) );
#228 = CARTESIAN_POINT ( 'NONE',  ( 0.000000000000000000, 2.000000000000000000, 0.000000000000000000 ) ) ;
#229 = AXIS2_PLACEMENT_3D ( 'NONE', #233, #260, #122 ) ;
#230 =( NAMED_UNIT ( * ) SI_UNIT ( $, .STERADIAN. ) SOLID_ANGLE_UNIT ( ) );
#231 = PRODUCT_CONTEXT ( 'NONE', #18, 'mechanical' ) ;
#232 = DIRECTION ( 'NONE',  ( -1.224646799147353454E-16, 1.000000000000000000, -0.000000000000000000 ) ) ;
#233 = CARTESIAN_POINT ( 'NONE',  ( 0.000000000000000000, 0.5000000000000001110, 0.000000000000000000 ) ) ;
#234 = MECHANICAL_DESIGN_GEOMETRIC_PRESENTATION_REPRESENTATION (  '', ( #81 ), #128 ) ;
#235 = DIRECTION ( 'NONE',  ( -1.000000000000000000, 0.000000000000000000, 0.000000000000000000 ) ) ;
#236 = PRESENTATION_LAYER_ASSIGNMENT (  '', '', ( #5 ) ) ;
#237 = CARTESIAN_POINT ( 'NONE',  ( -0.4999999999999998335, 4.500000000000000000, 0.000000000000000000 ) ) ;
#238 = PRODUCT_DEFINITION ( 'UNKNOWN', '', #180, #108 ) ;
#239 =( GEOMETRIC_REPRESENTATION_CONTEXT ( 3 ) GLOBAL_UNCERTAINTY_ASSIGNED_CONTEXT ( ( #155 ) ) GLOBAL_UNIT_ASSIGNED_CONTEXT ( ( #24, #78, #253 ) ) REPRESENTATION_CONTEXT ( 'NONE', 'WORKASPACE' ) );
#240 = DIMENSIONAL_EXPONENTS ( 1.000000000000000000, 0.000000000000000000, 0.000000000000000000, 0.000000000000000000, 0.000000000000000000, 0.000000000000000000, 0.000000000000000000 ) ;
#241 = EDGE_LOOP ( 'NONE', ( #211, #301 ) ) ;
#242 = CARTESIAN_POINT ( 'NONE',  ( -6.123233995736770966E-17, 4.500000000000000000, 0.000000000000000000 ) ) ;
#243 = DIRECTION ( 'NONE',  ( -1.224646799147353454E-16, 1.000000000000000000, -0.000000000000000000 ) ) ;
#244 = DIRECTION ( 'NONE',  ( -1.224646799147353454E-16, 1.000000000000000000, -0.000000000000000000 ) ) ;
#245 = DIRECTION ( 'NONE',  ( -1.224646799147353454E-16, 1.000000000000000000, -0.000000000000000000 ) ) ;
#246 = ORIENTED_EDGE ( 'NONE', *, *, #66, .F. ) ;
#247 = UNCERTAINTY_MEASURE_WITH_UNIT (LENGTH_MEASURE( 1.000000000000000082E-05 ), #367, 'distance_accuracy_value', 'NONE');
#248 = UNCERTAINTY_MEASURE_WITH_UNIT (LENGTH_MEASURE( 1.000000000000000082E-05 ), #171, 'distance_accuracy_value', 'NONE');
#249 = EDGE_CURVE ( 'NONE', #206, #135, #313, .T. ) ;
#250 = FILL_AREA_STYLE ('',( #21 ) ) ;
#251 =( CONVERSION_BASED_UNIT ( 'INCH', #366 ) LENGTH_UNIT ( ) NAMED_UNIT ( #7 ) );
#252 = DIMENSIONAL_EXPONENTS ( 1.000000000000000000, 0.000000000000000000, 0.000000000000000000, 0.000000000000000000, 0.000000000000000000, 0.000000000000000000, 0.000000000000000000 ) ;
#253 =( NAMED_UNIT ( * ) SI_UNIT ( $, .STERADIAN. ) SOLID_ANGLE_UNIT ( ) );
#254 =( NAMED_UNIT ( * ) PLANE_ANGLE_UNIT ( ) SI_UNIT ( $, .RADIAN. ) );
#255 = PRESENTATION_LAYER_ASSIGNMENT (  '', '', ( #81 ) ) ;
#256 = FILL_AREA_STYLE_COLOUR ( '', #192 ) ;
#257 = STYLED_ITEM ( 'NONE', ( #46 ), #31 ) ;
#258 = SURFACE_SIDE_STYLE ('',( #362 ) ) ;
#259 =( CONVERSION_BASED_UNIT ( 'INCH', #19 ) LENGTH_UNIT ( ) NAMED_UNIT ( #310 ) );
#260 = DIRECTION ( 'NONE',  ( -0.000000000000000000, -1.000000000000000000, -0.000000000000000000 ) ) ;
#261 = ORIENTED_EDGE ( 'NONE', *, *, #289, .F. ) ;
#262 = CARTESIAN_POINT ( 'NONE',  ( 0.000000000000000000, 2.000000000000000000, 0.000000000000000000 ) ) ;
#263 = CLOSED_SHELL ( 'NONE', ( #31, #183, #202, #188, #336 ) ) ;
#264 = CIRCLE ( 'NONE', #83, 0.5000000000000000000 ) ;
#265 = DIRECTION ( 'NONE',  ( 0.000000000000000000, 0.000000000000000000, -1.000000000000000000 ) ) ;
#266 = FILL_AREA_STYLE_COLOUR ( '', #217 ) ;
#267 = EDGE_CURVE ( 'NONE', #297, #129, #35, .T. ) ;
#268 = EDGE_CURVE ( 'NONE', #135, #167, #63, .T. ) ;
#269 = ORIENTED_EDGE ( 'NONE', *, *, #350, .T. ) ;
#270 = EDGE_LOOP ( 'NONE', ( #142, #208, #213, #70 ) ) ;
#271 = ORIENTED_EDGE ( 'NONE', *, *, #278, .F. ) ;
#272 = EDGE_CURVE ( 'NONE', #129, #323, #264, .T. ) ;
#273 = DIRECTION ( 'NONE',  ( 0.000000000000000000, 0.000000000000000000, -1.000000000000000000 ) ) ;
#274 = FACE_OUTER_BOUND ( 'NONE', #34, .T. ) ;
#275 = COLOUR_RGB ( '',0.7921568627450980005, 0.8196078431372548767, 0.9333333333333333481 ) ;
#276 = FACE_OUTER_BOUND ( 'NONE', #72, .T. ) ;
#277 =( NAMED_UNIT ( * ) PLANE_ANGLE_UNIT ( ) SI_UNIT ( $, .RADIAN. ) );
#278 = EDGE_CURVE ( 'NONE', #181, #297, #330, .T. ) ;
#279 = AXIS2_PLACEMENT_3D ( 'NONE', #175, #347, #315 ) ;
#280 = AXIS2_PLACEMENT_3D ( 'NONE', #120, #86, #107 ) ;
#281 = DIRECTION ( 'NONE',  ( -0.000000000000000000, -1.000000000000000000, -0.000000000000000000 ) ) ;
#282 = SURFACE_STYLE_FILL_AREA ( #168 ) ;
#283 =( NAMED_UNIT ( * ) PLANE_ANGLE_UNIT ( ) SI_UNIT ( $, .RADIAN. ) );
#284 = ORIENTED_EDGE ( 'NONE', *, *, #272, .F. ) ;
#285 = DIRECTION ( 'NONE',  ( 0.000000000000000000, 0.000000000000000000, -1.000000000000000000 ) ) ;
#286 = PRESENTATION_LAYER_ASSIGNMENT (  '', '', ( #352 ) ) ;
#287 =( CONVERSION_BASED_UNIT ( 'INCH', #349 ) LENGTH_UNIT ( ) NAMED_UNIT ( #204 ) );
#288 = DIRECTION ( 'NONE',  ( -0.000000000000000000, -1.000000000000000000, -0.000000000000000000 ) ) ;
#289 = EDGE_CURVE ( 'NONE', #126, #129, #209, .T. ) ;
#290 = EDGE_LOOP ( 'NONE', ( #144, #68, #342, #284, #261 ) ) ;
#291 = CARTESIAN_POINT ( 'NONE',  ( -0.4999999999999996669, 4.500000000000000000, 0.000000000000000000 ) ) ;
#292 = CARTESIAN_POINT ( 'NONE',  ( 0.4999999999999997780, 2.000000000000000000, 6.123233995736762338E-17 ) ) ;
#293 = AXIS2_PLACEMENT_3D ( 'NONE', #262, #124, #149 ) ;
#294 =( NAMED_UNIT ( * ) PLANE_ANGLE_UNIT ( ) SI_UNIT ( $, .RADIAN. ) );
#295 = AXIS2_PLACEMENT_3D ( 'NONE', #82, #335, #359 ) ;
#296 = CARTESIAN_POINT ( 'NONE',  ( 0.000000000000000000, 2.000000000000000000, -0.4999999999999997224 ) ) ;
#297 = VERTEX_POINT ( 'NONE', #143 ) ;
#298 = ORIENTED_EDGE ( 'NONE', *, *, #278, .T. ) ;
#299 = MECHANICAL_DESIGN_GEOMETRIC_PRESENTATION_REPRESENTATION (  '', ( #26 ), #239 ) ;
#300 = EDGE_LOOP ( 'NONE', ( #99, #65 ) ) ;
#301 = ORIENTED_EDGE ( 'NONE', *, *, #132, .F. ) ;
#302 = LINE ( 'NONE', #338, #71 ) ;
#303 = CIRCLE ( 'NONE', #279, 0.4999999999999997224 ) ;
#304 = COLOUR_RGB ( '',1.000000000000000000, 0.000000000000000000, 0.000000000000000000 ) ;
#305 = FILL_AREA_STYLE ('',( #223 ) ) ;
#306 = FACE_OUTER_BOUND ( 'NONE', #270, .T. ) ;
#307 = MECHANICAL_DESIGN_GEOMETRIC_PRESENTATION_REPRESENTATION (  '', ( #147 ), #69 ) ;
#308 = AXIS2_PLACEMENT_3D ( 'NONE', #141, #232, #372 ) ;
#309 = FILL_AREA_STYLE_COLOUR ( '', #304 ) ;
#310 = DIMENSIONAL_EXPONENTS ( 1.000000000000000000, 0.000000000000000000, 0.000000000000000000, 0.000000000000000000, 0.000000000000000000, 0.000000000000000000, 0.000000000000000000 ) ;
#311 = SURFACE_STYLE_USAGE ( .BOTH. , #337 ) ;
#312 = SHAPE_DEFINITION_REPRESENTATION ( #191, #358 ) ;
#313 = LINE ( 'NONE', #291, #176 ) ;
#314 = CARTESIAN_POINT ( 'NONE',  ( 2.449293598294706414E-16, 2.000000000000000000, 0.000000000000000000 ) ) ;
#315 = DIRECTION ( 'NONE',  ( 0.000000000000000000, 0.000000000000000000, -1.000000000000000000 ) ) ;
#316 = ADVANCED_FACE ( 'NONE', ( #169 ), #27, .T. ) ;
#317 = ADVANCED_FACE ( 'NONE', ( #93 ), #61, .T. ) ;
#318 = ORIENTED_EDGE ( 'NONE', *, *, #215, .T. ) ;
#319 = DIRECTION ( 'NONE',  ( -1.224646799147353454E-16, 1.000000000000000000, -0.000000000000000000 ) ) ;
#320 = DIRECTION ( 'NONE',  ( -0.000000000000000000, -1.000000000000000000, -0.000000000000000000 ) ) ;
#321 = SURFACE_STYLE_USAGE ( .BOTH. , #210 ) ;
#322 = AXIS2_PLACEMENT_3D ( 'NONE', #6, #29, #2 ) ;
#323 = VERTEX_POINT ( 'NONE', #203 ) ;
#324 = EDGE_CURVE ( 'NONE', #206, #153, #106, .T. ) ;
#325 = SURFACE_STYLE_FILL_AREA ( #212 ) ;
#326 = ORIENTED_EDGE ( 'NONE', *, *, #132, .T. ) ;
#327 = EDGE_LOOP ( 'NONE', ( #13, #326, #59, #12 ) ) ;
#328 = MECHANICAL_DESIGN_GEOMETRIC_PRESENTATION_REPRESENTATION (  '', ( #352 ), #184 ) ;
#329 = CARTESIAN_POINT ( 'NONE',  ( 0.4999999999999997224, 4.500000000000000000, 0.000000000000000000 ) ) ;
#330 = CIRCLE ( 'NONE', #157, 0.5000000000000000000 ) ;
#331 = UNCERTAINTY_MEASURE_WITH_UNIT (LENGTH_MEASURE( 1.000000000000000082E-05 ), #259, 'distance_accuracy_value', 'NONE');
#332 = DIRECTION ( 'NONE',  ( -1.224646799147353454E-16, 1.000000000000000000, -0.000000000000000000 ) ) ;
#333 = SURFACE_SIDE_STYLE ('',( #193 ) ) ;
#334 = DIRECTION ( 'NONE',  ( -1.224646799147353454E-16, 1.000000000000000000, 0.000000000000000000 ) ) ;
#335 = DIRECTION ( 'NONE',  ( 0.000000000000000000, 0.000000000000000000, 1.000000000000000000 ) ) ;
#336 = ADVANCED_FACE ( 'NONE', ( #306 ), #159, .T. ) ;
#337 = SURFACE_SIDE_STYLE ('',( #111 ) ) ;
#338 = CARTESIAN_POINT ( 'NONE',  ( 6.123233995736764803E-17, 0.000000000000000000, 0.4999999999999998335 ) ) ;
#339 = AXIS2_PLACEMENT_3D ( 'NONE', #329, #41, #28 ) ;
#340 = MECHANICAL_DESIGN_GEOMETRIC_PRESENTATION_REPRESENTATION (  '', ( #257 ), #112 ) ;
#341 = APPLICATION_PROTOCOL_DEFINITION ( 'draft international standard', 'automotive_design', 1998, #40 ) ;
#342 = ORIENTED_EDGE ( 'NONE', *, *, #215, .F. ) ;
#343 = DIRECTION ( 'NONE',  ( -1.000000000000000000, 0.000000000000000000, 0.000000000000000000 ) ) ;
#344 = AXIS2_PLACEMENT_3D ( 'NONE', #314, #332, #117 ) ;
#345 = ORIENTED_EDGE ( 'NONE', *, *, #268, .F. ) ;
#346 = CARTESIAN_POINT ( 'NONE',  ( -6.123233995736772199E-17, 4.500000000000000000, 0.000000000000000000 ) ) ;
#347 = DIRECTION ( 'NONE',  ( -0.000000000000000000, -1.000000000000000000, -0.000000000000000000 ) ) ;
#348 = CARTESIAN_POINT ( 'NONE',  ( 0.000000000000000000, 0.5000000000000001110, 0.000000000000000000 ) ) ;
#349 = LENGTH_MEASURE_WITH_UNIT ( LENGTH_MEASURE( 0.02539999999999999897 ), #146 );
#350 = EDGE_CURVE ( 'NONE', #356, #126, #38, .T. ) ;
#351 = SURFACE_SIDE_STYLE ('',( #30 ) ) ;
#352 = STYLED_ITEM ( 'NONE', ( #20 ), #202 ) ;
#353 =( GEOMETRIC_REPRESENTATION_CONTEXT ( 3 ) GLOBAL_UNCERTAINTY_ASSIGNED_CONTEXT ( ( #331 ) ) GLOBAL_UNIT_ASSIGNED_CONTEXT ( ( #259, #277, #53 ) ) REPRESENTATION_CONTEXT ( 'NONE', 'WORKASPACE' ) );
#354 = LENGTH_MEASURE_WITH_UNIT ( LENGTH_MEASURE( 0.02539999999999999897 ), #37 );
#355 = ORIENTED_EDGE ( 'NONE', *, *, #103, .T. ) ;
#356 = VERTEX_POINT ( 'NONE', #115 ) ;
#357 = MECHANICAL_DESIGN_GEOMETRIC_PRESENTATION_REPRESENTATION (  '', ( #161 ), #25 ) ;
#358 = ADVANCED_BREP_SHAPE_REPRESENTATION ( '84771', ( #67, #182, #158 ), #353 ) ;
#359 = DIRECTION ( 'NONE',  ( 1.000000000000000000, 0.000000000000000000, 0.000000000000000000 ) ) ;
#360 = ORIENTED_EDGE ( 'NONE', *, *, #324, .T. ) ;
#361 = FILL_AREA_STYLE_COLOUR ( '', #137 ) ;
#362 = SURFACE_STYLE_FILL_AREA ( #250 ) ;
#363 = AXIS2_PLACEMENT_3D ( 'NONE', #228, #50, #365 ) ;
#364 = CIRCLE ( 'NONE', #39, 0.5000000000000000000 ) ;
#365 = DIRECTION ( 'NONE',  ( 0.000000000000000000, 0.000000000000000000, -1.000000000000000000 ) ) ;
#366 = LENGTH_MEASURE_WITH_UNIT ( LENGTH_MEASURE( 0.02539999999999999897 ), #76 );
#367 =( CONVERSION_BASED_UNIT ( 'INCH', #17 ) LENGTH_UNIT ( ) NAMED_UNIT ( #3 ) );
#368 = VECTOR ( 'NONE', #288, 39.37007874015748143 ) ;
#369 = CARTESIAN_POINT ( 'NONE',  ( -6.123233995736766036E-17, 0.5000000000000000000, 0.000000000000000000 ) ) ;
#370 = SPHERICAL_SURFACE ( 'NONE', #295, 0.5000000000000000000 ) ;
#371 = DIRECTION ( 'NONE',  ( 1.000000000000000000, 0.000000000000000000, 0.000000000000000000 ) ) ;
#372 = DIRECTION ( 'NONE',  ( -1.000000000000000000, 0.000000000000000000, 0.000000000000000000 ) ) ;
#373 = PRESENTATION_STYLE_ASSIGNMENT (( #10 ) ) ;
ENDSEC;
END-ISO-10303-21;
