ISO-10303-21;
HEADER;
FILE_DESCRIPTION (( 'STEP AP214' ),
    '1' );
FILE_NAME ('86039.STEP',
    '2023-06-23T16:01:15',
    ( '' ),
    ( '' ),
    'SwSTEP 2.0',
    'SolidWorks 2023',
    '' );
FILE_SCHEMA (( 'AUTOMOTIVE_DESIGN' ));
ENDSEC;

DATA;
#1 = ORIENTED_EDGE ( 'NONE', *, *, #209, .T. ) ;
#2 = CYLINDRICAL_SURFACE ( 'NONE', #218, 0.5000000000000000000 ) ;
#3 = CARTESIAN_POINT ( 'NONE',  ( 0.000000000000000000, 0.000000000000000000, 0.000000000000000000 ) ) ;
#4 = COLOUR_RGB ( '',1.000000000000000000, 0.000000000000000000, 0.000000000000000000 ) ;
#5 = MECHANICAL_DESIGN_GEOMETRIC_PRESENTATION_REPRESENTATION (  '', ( #287 ), #20 ) ;
#6 = VERTEX_POINT ( 'NONE', #299 ) ;
#7 = VERTEX_POINT ( 'NONE', #189 ) ;
#8 = EDGE_CURVE ( 'NONE', #6, #188, #303, .T. ) ;
#9 = MECHANICAL_DESIGN_GEOMETRIC_PRESENTATION_REPRESENTATION (  '', ( #174 ), #81 ) ;
#10 = EDGE_CURVE ( 'NONE', #234, #239, #113, .T. ) ;
#11 = ORIENTED_EDGE ( 'NONE', *, *, #112, .F. ) ;
#12 = DIMENSIONAL_EXPONENTS ( 1.000000000000000000, 0.000000000000000000, 0.000000000000000000, 0.000000000000000000, 0.000000000000000000, 0.000000000000000000, 0.000000000000000000 ) ;
#13 = SURFACE_SIDE_STYLE ('',( #258 ) ) ;
#14 = ORIENTED_EDGE ( 'NONE', *, *, #262, .F. ) ;
#15 = DIRECTION ( 'NONE',  ( -5.156407575357276532E-17, 1.000000000000000000, -0.000000000000000000 ) ) ;
#16 = PRESENTATION_STYLE_ASSIGNMENT (( #242 ) ) ;
#17 = CARTESIAN_POINT ( 'NONE',  ( 6.123233995736766036E-17, 0.000000000000000000, 0.5000000000000000000 ) ) ;
#18 = EDGE_CURVE ( 'NONE', #188, #232, #238, .T. ) ;
#19 = ORIENTED_EDGE ( 'NONE', *, *, #223, .T. ) ;
#20 =( GEOMETRIC_REPRESENTATION_CONTEXT ( 3 ) GLOBAL_UNCERTAINTY_ASSIGNED_CONTEXT ( ( #146 ) ) GLOBAL_UNIT_ASSIGNED_CONTEXT ( ( #50, #64, #279 ) ) REPRESENTATION_CONTEXT ( 'NONE', 'WORKASPACE' ) );
#21 = FILL_AREA_STYLE ('',( #202 ) ) ;
#22 = LINE ( 'NONE', #129, #204 ) ;
#23 = DIRECTION ( 'NONE',  ( -1.000000000000000000, 0.000000000000000000, 0.000000000000000000 ) ) ;
#24 = CARTESIAN_POINT ( 'NONE',  ( -1.224646799147353207E-16, 5.000000000000000000, 0.000000000000000000 ) ) ;
#25 = DIRECTION ( 'NONE',  ( -0.000000000000000000, -1.000000000000000000, -0.000000000000000000 ) ) ;
#26 = PRESENTATION_LAYER_ASSIGNMENT (  '', '', ( #38 ) ) ;
#27 = EDGE_LOOP ( 'NONE', ( #157, #1, #161, #89 ) ) ;
#28 = SURFACE_SIDE_STYLE ('',( #155 ) ) ;
#29 = DIRECTION ( 'NONE',  ( 1.000000000000000000, 0.000000000000000000, 0.000000000000000000 ) ) ;
#30 = CYLINDRICAL_SURFACE ( 'NONE', #264, 0.5000000000000000000 ) ;
#31 = COLOUR_RGB ( '',0.7921568627450980005, 0.8196078431372548767, 0.9333333333333333481 ) ;
#32 = ORIENTED_EDGE ( 'NONE', *, *, #102, .T. ) ;
#33 = FILL_AREA_STYLE ('',( #140 ) ) ;
#34 = DIRECTION ( 'NONE',  ( 0.000000000000000000, 0.000000000000000000, -1.000000000000000000 ) ) ;
#35 = DIMENSIONAL_EXPONENTS ( 1.000000000000000000, 0.000000000000000000, 0.000000000000000000, 0.000000000000000000, 0.000000000000000000, 0.000000000000000000, 0.000000000000000000 ) ;
#36 = EDGE_CURVE ( 'NONE', #272, #190, #263, .T. ) ;
#37 = LENGTH_MEASURE_WITH_UNIT ( LENGTH_MEASURE( 0.02539999999999999897 ), #293 );
#38 = STYLED_ITEM ( 'NONE', ( #271 ), #163 ) ;
#39 = EDGE_LOOP ( 'NONE', ( #208, #187 ) ) ;
#40 = UNCERTAINTY_MEASURE_WITH_UNIT (LENGTH_MEASURE( 1.000000000000000082E-05 ), #125, 'distance_accuracy_value', 'NONE');
#41 =( CONVERSION_BASED_UNIT ( 'INCH', #176 ) LENGTH_UNIT ( ) NAMED_UNIT ( #35 ) );
#42 = DIRECTION ( 'NONE',  ( -1.000000000000000000, 0.000000000000000000, 0.000000000000000000 ) ) ;
#43 = CARTESIAN_POINT ( 'NONE',  ( -1.224646799147353207E-16, 5.000000000000000000, 0.000000000000000000 ) ) ;
#44 = UNCERTAINTY_MEASURE_WITH_UNIT (LENGTH_MEASURE( 1.000000000000000082E-05 ), #90, 'distance_accuracy_value', 'NONE');
#45 = COLOUR_RGB ( '',1.000000000000000000, 0.000000000000000000, 0.000000000000000000 ) ;
#46 = VECTOR ( 'NONE', #25, 39.37007874015748143 ) ;
#47 = DIRECTION ( 'NONE',  ( 0.000000000000000000, -1.000000000000000000, -0.000000000000000000 ) ) ;
#48 = SURFACE_SIDE_STYLE ('',( #182 ) ) ;
#49 = CARTESIAN_POINT ( 'NONE',  ( 6.123233995736766036E-17, 0.000000000000000000, 0.5000000000000000000 ) ) ;
#50 =( CONVERSION_BASED_UNIT ( 'INCH', #270 ) LENGTH_UNIT ( ) NAMED_UNIT ( #117 ) );
#51 = FILL_AREA_STYLE ('',( #294 ) ) ;
#52 = DIRECTION ( 'NONE',  ( -5.156407575357276532E-17, 1.000000000000000000, -0.000000000000000000 ) ) ;
#53 =( CONVERSION_BASED_UNIT ( 'INCH', #66 ) LENGTH_UNIT ( ) NAMED_UNIT ( #137 ) );
#54 = CIRCLE ( 'NONE', #221, 0.5000000000000000000 ) ;
#55 = ORIENTED_EDGE ( 'NONE', *, *, #18, .T. ) ;
#56 = DIRECTION ( 'NONE',  ( -5.156407575357276532E-17, 1.000000000000000000, 0.000000000000000000 ) ) ;
#57 = DIRECTION ( 'NONE',  ( 0.000000000000000000, 0.000000000000000000, 1.000000000000000000 ) ) ;
#58 = FACE_OUTER_BOUND ( 'NONE', #297, .T. ) ;
#59 = LINE ( 'NONE', #17, #194 ) ;
#60 =( GEOMETRIC_REPRESENTATION_CONTEXT ( 3 ) GLOBAL_UNCERTAINTY_ASSIGNED_CONTEXT ( ( #201 ) ) GLOBAL_UNIT_ASSIGNED_CONTEXT ( ( #69, #91, #119 ) ) REPRESENTATION_CONTEXT ( 'NONE', 'WORKASPACE' ) );
#61 = CARTESIAN_POINT ( 'NONE',  ( 0.000000000000000000, 0.000000000000000000, -0.5000000000000000000 ) ) ;
#62 = FACE_OUTER_BOUND ( 'NONE', #27, .T. ) ;
#63 = DIMENSIONAL_EXPONENTS ( 1.000000000000000000, 0.000000000000000000, 0.000000000000000000, 0.000000000000000000, 0.000000000000000000, 0.000000000000000000, 0.000000000000000000 ) ;
#64 =( NAMED_UNIT ( * ) PLANE_ANGLE_UNIT ( ) SI_UNIT ( $, .RADIAN. ) );
#65 =( NAMED_UNIT ( * ) SI_UNIT ( $, .STERADIAN. ) SOLID_ANGLE_UNIT ( ) );
#66 = LENGTH_MEASURE_WITH_UNIT ( LENGTH_MEASURE( 0.02539999999999999897 ), #269 );
#67 = PRODUCT_DEFINITION_FORMATION_WITH_SPECIFIED_SOURCE ( 'ANY', '', #79, .NOT_KNOWN. ) ;
#68 = DIRECTION ( 'NONE',  ( 0.000000000000000000, 0.000000000000000000, -1.000000000000000000 ) ) ;
#69 =( CONVERSION_BASED_UNIT ( 'INCH', #123 ) LENGTH_UNIT ( ) NAMED_UNIT ( #12 ) );
#70 = FACE_OUTER_BOUND ( 'NONE', #39, .T. ) ;
#71 = ADVANCED_FACE ( 'NONE', ( #308 ), #285, .T. ) ;
#72 = UNCERTAINTY_MEASURE_WITH_UNIT (LENGTH_MEASURE( 1.000000000000000082E-05 ), #41, 'distance_accuracy_value', 'NONE');
#73 =( LENGTH_UNIT ( ) NAMED_UNIT ( * ) SI_UNIT ( $, .METRE. ) );
#74 = CLOSED_SHELL ( 'NONE', ( #177, #127, #292, #71 ) ) ;
#75 = PRODUCT_DEFINITION_SHAPE ( 'NONE', 'NONE',  #267 ) ;
#76 = DIRECTION ( 'NONE',  ( -5.156407575357276532E-17, 1.000000000000000000, -0.000000000000000000 ) ) ;
#77 = DIRECTION ( 'NONE',  ( -1.000000000000000000, 0.000000000000000000, 0.000000000000000000 ) ) ;
#78 = AXIS2_PLACEMENT_3D ( 'NONE', #200, #261, #42 ) ;
#79 = PRODUCT ( '86039', '86039', '', ( #164 ) ) ;
#80 = CARTESIAN_POINT ( 'NONE',  ( 0.5000000000000000000, 5.000000000000000000, 6.123233995736767268E-17 ) ) ;
#81 =( GEOMETRIC_REPRESENTATION_CONTEXT ( 3 ) GLOBAL_UNCERTAINTY_ASSIGNED_CONTEXT ( ( #72 ) ) GLOBAL_UNIT_ASSIGNED_CONTEXT ( ( #41, #230, #107 ) ) REPRESENTATION_CONTEXT ( 'NONE', 'WORKASPACE' ) );
#82 = ORIENTED_EDGE ( 'NONE', *, *, #115, .T. ) ;
#83 = DIRECTION ( 'NONE',  ( -0.000000000000000000, -1.000000000000000000, -0.000000000000000000 ) ) ;
#84 = DIMENSIONAL_EXPONENTS ( 1.000000000000000000, 0.000000000000000000, 0.000000000000000000, 0.000000000000000000, 0.000000000000000000, 0.000000000000000000, 0.000000000000000000 ) ;
#85 = CARTESIAN_POINT ( 'NONE',  ( 6.647134770800476501E-34, 2.625000000000000000, 0.000000000000000000 ) ) ;
#86 = AXIS2_PLACEMENT_3D ( 'NONE', #300, #197, #281 ) ;
#87 = ORIENTED_EDGE ( 'NONE', *, *, #8, .T. ) ;
#88 = DIRECTION ( 'NONE',  ( 5.156407575357276532E-17, -1.000000000000000000, 0.000000000000000000 ) ) ;
#89 = ORIENTED_EDGE ( 'NONE', *, *, #195, .F. ) ;
#90 =( CONVERSION_BASED_UNIT ( 'INCH', #237 ) LENGTH_UNIT ( ) NAMED_UNIT ( #84 ) );
#91 =( NAMED_UNIT ( * ) PLANE_ANGLE_UNIT ( ) SI_UNIT ( $, .RADIAN. ) );
#92 = ADVANCED_FACE ( 'NONE', ( #306 ), #219, .T. ) ;
#93 = SHAPE_DEFINITION_REPRESENTATION ( #75, #94 ) ;
#94 = ADVANCED_BREP_SHAPE_REPRESENTATION ( '86039', ( #163, #268, #309 ), #159 ) ;
#95 = COLOUR_RGB ( '',1.000000000000000000, 0.000000000000000000, 0.000000000000000000 ) ;
#96 = FILL_AREA_STYLE ('',( #235 ) ) ;
#97 = DIRECTION ( 'NONE',  ( 0.000000000000000000, 0.000000000000000000, -1.000000000000000000 ) ) ;
#98 = SURFACE_STYLE_USAGE ( .BOTH. , #302 ) ;
#99 = ORIENTED_EDGE ( 'NONE', *, *, #102, .F. ) ;
#100 =( LENGTH_UNIT ( ) NAMED_UNIT ( * ) SI_UNIT ( $, .METRE. ) );
#101 = DIRECTION ( 'NONE',  ( -5.156407575357276532E-17, 1.000000000000000000, -0.000000000000000000 ) ) ;
#102 = EDGE_CURVE ( 'NONE', #7, #6, #210, .T. ) ;
#103 = CARTESIAN_POINT ( 'NONE',  ( -1.224646799147353207E-16, 5.000000000000000000, 0.000000000000000000 ) ) ;
#104 = FILL_AREA_STYLE_COLOUR ( '', #257 ) ;
#105 = DIRECTION ( 'NONE',  ( 0.000000000000000000, 0.000000000000000000, -1.000000000000000000 ) ) ;
#106 = ORIENTED_EDGE ( 'NONE', *, *, #36, .T. ) ;
#107 =( NAMED_UNIT ( * ) SI_UNIT ( $, .STERADIAN. ) SOLID_ANGLE_UNIT ( ) );
#108 = CARTESIAN_POINT ( 'NONE',  ( 6.123233995736766036E-17, 2.625000000000000000, 0.5000000000000000000 ) ) ;
#109 = DIRECTION ( 'NONE',  ( 0.000000000000000000, 0.000000000000000000, -1.000000000000000000 ) ) ;
#110 = CLOSED_SHELL ( 'NONE', ( #92, #245, #224, #172 ) ) ;
#111 = DIRECTION ( 'NONE',  ( -1.000000000000000000, 0.000000000000000000, 0.000000000000000000 ) ) ;
#112 = EDGE_CURVE ( 'NONE', #6, #7, #133, .T. ) ;
#113 = CIRCLE ( 'NONE', #266, 0.5000000000000000000 ) ;
#114 = APPLICATION_PROTOCOL_DEFINITION ( 'draft international standard', 'automotive_design', 1998, #240 ) ;
#115 = EDGE_CURVE ( 'NONE', #190, #272, #260, .T. ) ;
#116 = PRESENTATION_STYLE_ASSIGNMENT (( #166 ) ) ;
#117 = DIMENSIONAL_EXPONENTS ( 1.000000000000000000, 0.000000000000000000, 0.000000000000000000, 0.000000000000000000, 0.000000000000000000, 0.000000000000000000, 0.000000000000000000 ) ;
#118 =( GEOMETRIC_REPRESENTATION_CONTEXT ( 3 ) GLOBAL_UNCERTAINTY_ASSIGNED_CONTEXT ( ( #44 ) ) GLOBAL_UNIT_ASSIGNED_CONTEXT ( ( #90, #173, #170 ) ) REPRESENTATION_CONTEXT ( 'NONE', 'WORKASPACE' ) );
#119 =( NAMED_UNIT ( * ) SI_UNIT ( $, .STERADIAN. ) SOLID_ANGLE_UNIT ( ) );
#120 = FILL_AREA_STYLE_COLOUR ( '', #95 ) ;
#121 = DIRECTION ( 'NONE',  ( -5.156407575357276532E-17, 1.000000000000000000, -0.000000000000000000 ) ) ;
#122 = UNCERTAINTY_MEASURE_WITH_UNIT (LENGTH_MEASURE( 1.000000000000000082E-05 ), #139, 'distance_accuracy_value', 'NONE');
#123 = LENGTH_MEASURE_WITH_UNIT ( LENGTH_MEASURE( 0.02539999999999999897 ), #236 );
#124 = AXIS2_PLACEMENT_3D ( 'NONE', #216, #88, #165 ) ;
#125 =( CONVERSION_BASED_UNIT ( 'INCH', #265 ) LENGTH_UNIT ( ) NAMED_UNIT ( #296 ) );
#126 = ORIENTED_EDGE ( 'NONE', *, *, #209, .F. ) ;
#127 = ADVANCED_FACE ( 'NONE', ( #70 ), #145, .T. ) ;
#128 = AXIS2_PLACEMENT_3D ( 'NONE', #185, #231, #77 ) ;
#129 = CARTESIAN_POINT ( 'NONE',  ( -0.5000000000000002220, 5.000000000000000000, 0.000000000000000000 ) ) ;
#130 = PRESENTATION_STYLE_ASSIGNMENT (( #246 ) ) ;
#131 =( LENGTH_UNIT ( ) NAMED_UNIT ( * ) SI_UNIT ( $, .METRE. ) );
#132 = SURFACE_STYLE_USAGE ( .BOTH. , #48 ) ;
#133 = CIRCLE ( 'NONE', #179, 0.5000000000000000000 ) ;
#134 = AXIS2_PLACEMENT_3D ( 'NONE', #103, #52, #23 ) ;
#135 = EDGE_LOOP ( 'NONE', ( #156, #273, #295, #138 ) ) ;
#136 = SURFACE_STYLE_USAGE ( .BOTH. , #28 ) ;
#137 = DIMENSIONAL_EXPONENTS ( 1.000000000000000000, 0.000000000000000000, 0.000000000000000000, 0.000000000000000000, 0.000000000000000000, 0.000000000000000000, 0.000000000000000000 ) ;
#138 = ORIENTED_EDGE ( 'NONE', *, *, #18, .F. ) ;
#139 =( CONVERSION_BASED_UNIT ( 'INCH', #37 ) LENGTH_UNIT ( ) NAMED_UNIT ( #63 ) );
#140 = FILL_AREA_STYLE_COLOUR ( '', #186 ) ;
#141 = DIRECTION ( 'NONE',  ( 0.000000000000000000, 0.000000000000000000, -1.000000000000000000 ) ) ;
#142 = VECTOR ( 'NONE', #121, 39.37007874015748143 ) ;
#143 = FACE_OUTER_BOUND ( 'NONE', #304, .T. ) ;
#144 = DIRECTION ( 'NONE',  ( -0.000000000000000000, -1.000000000000000000, -0.000000000000000000 ) ) ;
#145 = PLANE ( 'NONE',  #86 ) ;
#146 = UNCERTAINTY_MEASURE_WITH_UNIT (LENGTH_MEASURE( 1.000000000000000082E-05 ), #50, 'distance_accuracy_value', 'NONE');
#147 =( GEOMETRIC_REPRESENTATION_CONTEXT ( 3 ) GLOBAL_UNCERTAINTY_ASSIGNED_CONTEXT ( ( #40 ) ) GLOBAL_UNIT_ASSIGNED_CONTEXT ( ( #125, #288, #290 ) ) REPRESENTATION_CONTEXT ( 'NONE', 'WORKASPACE' ) );
#148 = AXIS2_PLACEMENT_3D ( 'NONE', #85, #56, #162 ) ;
#149 = EDGE_CURVE ( 'NONE', #239, #234, #54, .T. ) ;
#150 = SURFACE_SIDE_STYLE ('',( #289 ) ) ;
#151 = AXIS2_PLACEMENT_3D ( 'NONE', #283, #284, #68 ) ;
#152 = STYLED_ITEM ( 'NONE', ( #116 ), #292 ) ;
#153 = PRESENTATION_STYLE_ASSIGNMENT (( #132 ) ) ;
#154 = PRESENTATION_STYLE_ASSIGNMENT (( #98 ) ) ;
#155 = SURFACE_STYLE_FILL_AREA ( #51 ) ;
#156 = ORIENTED_EDGE ( 'NONE', *, *, #8, .F. ) ;
#157 = ORIENTED_EDGE ( 'NONE', *, *, #149, .T. ) ;
#158 = CYLINDRICAL_SURFACE ( 'NONE', #175, 0.5000000000000001110 ) ;
#159 =( GEOMETRIC_REPRESENTATION_CONTEXT ( 3 ) GLOBAL_UNCERTAINTY_ASSIGNED_CONTEXT ( ( #122 ) ) GLOBAL_UNIT_ASSIGNED_CONTEXT ( ( #139, #301, #198 ) ) REPRESENTATION_CONTEXT ( 'NONE', 'WORKASPACE' ) );
#160 = CARTESIAN_POINT ( 'NONE',  ( 0.000000000000000000, 2.625000000000000000, 0.000000000000000000 ) ) ;
#161 = ORIENTED_EDGE ( 'NONE', *, *, #36, .F. ) ;
#162 = DIRECTION ( 'NONE',  ( -1.000000000000000000, -5.156407575357276532E-17, 0.000000000000000000 ) ) ;
#163 = MANIFOLD_SOLID_BREP ( 'Revolve - Cutting Edge', #74 ) ;
#164 = PRODUCT_CONTEXT ( 'NONE', #181, 'mechanical' ) ;
#165 = DIRECTION ( 'NONE',  ( 1.000000000000000000, 5.156407575357276532E-17, 0.000000000000000000 ) ) ;
#166 = SURFACE_STYLE_USAGE ( .BOTH. , #13 ) ;
#167 = PLANE ( 'NONE',  #124 ) ;
#168 = PRESENTATION_LAYER_ASSIGNMENT (  '', '', ( #203 ) ) ;
#169 = MECHANICAL_DESIGN_GEOMETRIC_PRESENTATION_REPRESENTATION (  '', ( #152 ), #118 ) ;
#170 =( NAMED_UNIT ( * ) SI_UNIT ( $, .STERADIAN. ) SOLID_ANGLE_UNIT ( ) );
#171 = SURFACE_SIDE_STYLE ('',( #276 ) ) ;
#172 = ADVANCED_FACE ( 'NONE', ( #58 ), #167, .F. ) ;
#173 =( NAMED_UNIT ( * ) PLANE_ANGLE_UNIT ( ) SI_UNIT ( $, .RADIAN. ) );
#174 = STYLED_ITEM ( 'NONE', ( #16 ), #177 ) ;
#175 = AXIS2_PLACEMENT_3D ( 'NONE', #24, #76, #111 ) ;
#176 = LENGTH_MEASURE_WITH_UNIT ( LENGTH_MEASURE( 0.02539999999999999897 ), #100 );
#177 = ADVANCED_FACE ( 'NONE', ( #62 ), #30, .T. ) ;
#178 = DIRECTION ( 'NONE',  ( -0.000000000000000000, -1.000000000000000000, -0.000000000000000000 ) ) ;
#179 = AXIS2_PLACEMENT_3D ( 'NONE', #305, #101, #199 ) ;
#180 = EDGE_LOOP ( 'NONE', ( #106, #82 ) ) ;
#181 = APPLICATION_CONTEXT ( 'automotive_design' ) ;
#182 = SURFACE_STYLE_FILL_AREA ( #205 ) ;
#183 = DIRECTION ( 'NONE',  ( -0.000000000000000000, -1.000000000000000000, -0.000000000000000000 ) ) ;
#184 = PRESENTATION_LAYER_ASSIGNMENT (  '', '', ( #152 ) ) ;
#185 = CARTESIAN_POINT ( 'NONE',  ( -1.224646799147353207E-16, 5.000000000000000000, 0.000000000000000000 ) ) ;
#186 = COLOUR_RGB ( '',1.000000000000000000, 0.000000000000000000, 0.000000000000000000 ) ;
#187 = ORIENTED_EDGE ( 'NONE', *, *, #10, .F. ) ;
#188 = VERTEX_POINT ( 'NONE', #80 ) ;
#189 = CARTESIAN_POINT ( 'NONE',  ( -0.5000000000000000000, 2.625000000000000000, 0.000000000000000000 ) ) ;
#190 = VERTEX_POINT ( 'NONE', #49 ) ;
#191 = FILL_AREA_STYLE ('',( #120 ) ) ;
#192 = STYLED_ITEM ( 'NONE', ( #154 ), #127 ) ;
#193 = EDGE_LOOP ( 'NONE', ( #32, #87, #247, #14 ) ) ;
#194 = VECTOR ( 'NONE', #83, 39.37007874015748143 ) ;
#195 = EDGE_CURVE ( 'NONE', #239, #272, #227, .T. ) ;
#196 = ORIENTED_EDGE ( 'NONE', *, *, #10, .T. ) ;
#197 = DIRECTION ( 'NONE',  ( 0.000000000000000000, 1.000000000000000000, 0.000000000000000000 ) ) ;
#198 =( NAMED_UNIT ( * ) SI_UNIT ( $, .STERADIAN. ) SOLID_ANGLE_UNIT ( ) );
#199 = DIRECTION ( 'NONE',  ( -1.000000000000000000, 0.000000000000000000, 0.000000000000000000 ) ) ;
#200 = CARTESIAN_POINT ( 'NONE',  ( 1.516480271171051896E-32, 2.625000000000000000, 0.000000000000000000 ) ) ;
#201 = UNCERTAINTY_MEASURE_WITH_UNIT (LENGTH_MEASURE( 1.000000000000000082E-05 ), #69, 'distance_accuracy_value', 'NONE');
#202 = FILL_AREA_STYLE_COLOUR ( '', #45 ) ;
#203 = STYLED_ITEM ( 'NONE', ( #130 ), #71 ) ;
#204 = VECTOR ( 'NONE', #226, 39.37007874015748143 ) ;
#205 = FILL_AREA_STYLE ('',( #104 ) ) ;
#206 = FACE_OUTER_BOUND ( 'NONE', #274, .T. ) ;
#207 = DIRECTION ( 'NONE',  ( -0.000000000000000000, -1.000000000000000000, -0.000000000000000000 ) ) ;
#208 = ORIENTED_EDGE ( 'NONE', *, *, #149, .F. ) ;
#209 = EDGE_CURVE ( 'NONE', #234, #190, #59, .T. ) ;
#210 = CIRCLE ( 'NONE', #78, 0.5000000000000000000 ) ;
#211 = DIRECTION ( 'NONE',  ( -0.000000000000000000, -1.000000000000000000, -0.000000000000000000 ) ) ;
#212 = CARTESIAN_POINT ( 'NONE',  ( -0.5000000000000002220, 5.000000000000000000, 0.000000000000000000 ) ) ;
#213 = APPLICATION_PROTOCOL_DEFINITION ( 'draft international standard', 'automotive_design', 1998, #181 ) ;
#214 = CARTESIAN_POINT ( 'NONE',  ( 0.000000000000000000, 0.000000000000000000, 0.000000000000000000 ) ) ;
#215 = ORIENTED_EDGE ( 'NONE', *, *, #195, .T. ) ;
#216 = CARTESIAN_POINT ( 'NONE',  ( 0.5000000000000000000, 5.000000000000000000, 0.000000000000000000 ) ) ;
#217 =( GEOMETRIC_REPRESENTATION_CONTEXT ( 3 ) GLOBAL_UNCERTAINTY_ASSIGNED_CONTEXT ( ( #241 ) ) GLOBAL_UNIT_ASSIGNED_CONTEXT ( ( #53, #259, #65 ) ) REPRESENTATION_CONTEXT ( 'NONE', 'WORKASPACE' ) );
#218 = AXIS2_PLACEMENT_3D ( 'NONE', #214, #144, #97 ) ;
#219 = CYLINDRICAL_SURFACE ( 'NONE', #275, 0.5000000000000001110 ) ;
#220 = CARTESIAN_POINT ( 'NONE',  ( 0.000000000000000000, 2.625000000000000000, 0.000000000000000000 ) ) ;
#221 = AXIS2_PLACEMENT_3D ( 'NONE', #160, #211, #141 ) ;
#222 = CARTESIAN_POINT ( 'NONE',  ( 0.000000000000000000, 0.000000000000000000, 0.000000000000000000 ) ) ;
#223 = EDGE_CURVE ( 'NONE', #232, #188, #277, .T. ) ;
#224 = ADVANCED_FACE ( 'NONE', ( #252 ), #158, .T. ) ;
#225 = AXIS2_PLACEMENT_3D ( 'NONE', #3, #183, #105 ) ;
#226 = DIRECTION ( 'NONE',  ( -5.156407575357276532E-17, 1.000000000000000000, -0.000000000000000000 ) ) ;
#227 = LINE ( 'NONE', #249, #46 ) ;
#228 = PRESENTATION_LAYER_ASSIGNMENT (  '', '', ( #174 ) ) ;
#229 = PRESENTATION_LAYER_ASSIGNMENT (  '', '', ( #287 ) ) ;
#230 =( NAMED_UNIT ( * ) PLANE_ANGLE_UNIT ( ) SI_UNIT ( $, .RADIAN. ) );
#231 = DIRECTION ( 'NONE',  ( -5.156407575357276532E-17, 1.000000000000000000, -0.000000000000000000 ) ) ;
#232 = VERTEX_POINT ( 'NONE', #212 ) ;
#233 = CARTESIAN_POINT ( 'NONE',  ( 0.000000000000000000, 0.000000000000000000, 0.000000000000000000 ) ) ;
#234 = VERTEX_POINT ( 'NONE', #108 ) ;
#235 = FILL_AREA_STYLE_COLOUR ( '', #4 ) ;
#236 =( LENGTH_UNIT ( ) NAMED_UNIT ( * ) SI_UNIT ( $, .METRE. ) );
#237 = LENGTH_MEASURE_WITH_UNIT ( LENGTH_MEASURE( 0.02539999999999999897 ), #256 );
#238 = CIRCLE ( 'NONE', #128, 0.5000000000000001110 ) ;
#239 = VERTEX_POINT ( 'NONE', #250 ) ;
#240 = APPLICATION_CONTEXT ( 'automotive_design' ) ;
#241 = UNCERTAINTY_MEASURE_WITH_UNIT (LENGTH_MEASURE( 1.000000000000000082E-05 ), #53, 'distance_accuracy_value', 'NONE');
#242 = SURFACE_STYLE_USAGE ( .BOTH. , #171 ) ;
#243 = DIRECTION ( 'NONE',  ( -1.000000000000000000, 0.000000000000000000, 0.000000000000000000 ) ) ;
#244 = PRODUCT_DEFINITION_CONTEXT ( 'detailed design', #240, 'design' ) ;
#245 = ADVANCED_FACE ( 'NONE', ( #206 ), #248, .F. ) ;
#246 = SURFACE_STYLE_USAGE ( .BOTH. , #150 ) ;
#247 = ORIENTED_EDGE ( 'NONE', *, *, #223, .F. ) ;
#248 = PLANE ( 'NONE',  #148 ) ;
#249 = CARTESIAN_POINT ( 'NONE',  ( 0.000000000000000000, 0.000000000000000000, -0.5000000000000000000 ) ) ;
#250 = CARTESIAN_POINT ( 'NONE',  ( 0.000000000000000000, 2.625000000000000000, -0.5000000000000000000 ) ) ;
#251 = AXIS2_PLACEMENT_3D ( 'NONE', #222, #47, #34 ) ;
#252 = FACE_OUTER_BOUND ( 'NONE', #135, .T. ) ;
#253 = PRODUCT_RELATED_PRODUCT_CATEGORY ( 'part', '', ( #79 ) ) ;
#254 = CARTESIAN_POINT ( 'NONE',  ( 0.000000000000000000, 0.000000000000000000, 0.000000000000000000 ) ) ;
#255 = MECHANICAL_DESIGN_GEOMETRIC_PRESENTATION_REPRESENTATION (  '', ( #38 ), #217 ) ;
#256 =( LENGTH_UNIT ( ) NAMED_UNIT ( * ) SI_UNIT ( $, .METRE. ) );
#257 = COLOUR_RGB ( '',0.7921568627450980005, 0.8196078431372548767, 0.9333333333333333481 ) ;
#258 = SURFACE_STYLE_FILL_AREA ( #191 ) ;
#259 =( NAMED_UNIT ( * ) PLANE_ANGLE_UNIT ( ) SI_UNIT ( $, .RADIAN. ) );
#260 = CIRCLE ( 'NONE', #151, 0.5000000000000000000 ) ;
#261 = DIRECTION ( 'NONE',  ( -5.156407575357276532E-17, 1.000000000000000000, -0.000000000000000000 ) ) ;
#262 = EDGE_CURVE ( 'NONE', #7, #232, #22, .T. ) ;
#263 = CIRCLE ( 'NONE', #225, 0.5000000000000000000 ) ;
#264 = AXIS2_PLACEMENT_3D ( 'NONE', #233, #207, #291 ) ;
#265 = LENGTH_MEASURE_WITH_UNIT ( LENGTH_MEASURE( 0.02539999999999999897 ), #73 );
#266 = AXIS2_PLACEMENT_3D ( 'NONE', #220, #178, #109 ) ;
#267 = PRODUCT_DEFINITION ( 'UNKNOWN', '', #67, #244 ) ;
#268 = MANIFOLD_SOLID_BREP ( 'Revolve - Tool Body (Straight Shanked)', #110 ) ;
#269 =( LENGTH_UNIT ( ) NAMED_UNIT ( * ) SI_UNIT ( $, .METRE. ) );
#270 = LENGTH_MEASURE_WITH_UNIT ( LENGTH_MEASURE( 0.02539999999999999897 ), #131 );
#271 = PRESENTATION_STYLE_ASSIGNMENT (( #136 ) ) ;
#272 = VERTEX_POINT ( 'NONE', #61 ) ;
#273 = ORIENTED_EDGE ( 'NONE', *, *, #112, .T. ) ;
#274 = EDGE_LOOP ( 'NONE', ( #99, #11 ) ) ;
#275 = AXIS2_PLACEMENT_3D ( 'NONE', #43, #15, #243 ) ;
#276 = SURFACE_STYLE_FILL_AREA ( #33 ) ;
#277 = CIRCLE ( 'NONE', #134, 0.5000000000000001110 ) ;
#278 = ORIENTED_EDGE ( 'NONE', *, *, #115, .F. ) ;
#279 =( NAMED_UNIT ( * ) SI_UNIT ( $, .STERADIAN. ) SOLID_ANGLE_UNIT ( ) );
#280 = SURFACE_STYLE_FILL_AREA ( #96 ) ;
#281 = DIRECTION ( 'NONE',  ( 0.000000000000000000, -0.000000000000000000, 1.000000000000000000 ) ) ;
#282 = CARTESIAN_POINT ( 'NONE',  ( 0.4999999999999999445, 5.000000000000000000, 6.123233995736767268E-17 ) ) ;
#283 = CARTESIAN_POINT ( 'NONE',  ( 0.000000000000000000, 0.000000000000000000, 0.000000000000000000 ) ) ;
#284 = DIRECTION ( 'NONE',  ( -0.000000000000000000, -1.000000000000000000, -0.000000000000000000 ) ) ;
#285 = PLANE ( 'NONE',  #251 ) ;
#286 = PRESENTATION_LAYER_ASSIGNMENT (  '', '', ( #192 ) ) ;
#287 = STYLED_ITEM ( 'NONE', ( #153 ), #268 ) ;
#288 =( NAMED_UNIT ( * ) PLANE_ANGLE_UNIT ( ) SI_UNIT ( $, .RADIAN. ) );
#289 = SURFACE_STYLE_FILL_AREA ( #21 ) ;
#290 =( NAMED_UNIT ( * ) SI_UNIT ( $, .STERADIAN. ) SOLID_ANGLE_UNIT ( ) );
#291 = DIRECTION ( 'NONE',  ( 0.000000000000000000, 0.000000000000000000, -1.000000000000000000 ) ) ;
#292 = ADVANCED_FACE ( 'NONE', ( #143 ), #2, .T. ) ;
#293 =( LENGTH_UNIT ( ) NAMED_UNIT ( * ) SI_UNIT ( $, .METRE. ) );
#294 = FILL_AREA_STYLE_COLOUR ( '', #31 ) ;
#295 = ORIENTED_EDGE ( 'NONE', *, *, #262, .T. ) ;
#296 = DIMENSIONAL_EXPONENTS ( 1.000000000000000000, 0.000000000000000000, 0.000000000000000000, 0.000000000000000000, 0.000000000000000000, 0.000000000000000000, 0.000000000000000000 ) ;
#297 = EDGE_LOOP ( 'NONE', ( #19, #55 ) ) ;
#298 = MECHANICAL_DESIGN_GEOMETRIC_PRESENTATION_REPRESENTATION (  '', ( #192 ), #60 ) ;
#299 = CARTESIAN_POINT ( 'NONE',  ( 0.5000000000000000000, 2.625000000000000000, 6.123233995736767268E-17 ) ) ;
#300 = CARTESIAN_POINT ( 'NONE',  ( 0.000000000000000000, 2.625000000000000000, 0.000000000000000000 ) ) ;
#301 =( NAMED_UNIT ( * ) PLANE_ANGLE_UNIT ( ) SI_UNIT ( $, .RADIAN. ) );
#302 = SURFACE_SIDE_STYLE ('',( #280 ) ) ;
#303 = LINE ( 'NONE', #282, #142 ) ;
#304 = EDGE_LOOP ( 'NONE', ( #126, #196, #215, #278 ) ) ;
#305 = CARTESIAN_POINT ( 'NONE',  ( 1.516480271171051896E-32, 2.625000000000000000, 0.000000000000000000 ) ) ;
#306 = FACE_OUTER_BOUND ( 'NONE', #193, .T. ) ;
#307 = MECHANICAL_DESIGN_GEOMETRIC_PRESENTATION_REPRESENTATION (  '', ( #203 ), #147 ) ;
#308 = FACE_OUTER_BOUND ( 'NONE', #180, .T. ) ;
#309 = AXIS2_PLACEMENT_3D ( 'NONE', #254, #57, #29 ) ;
ENDSEC;
END-ISO-10303-21;
