ISO-10303-21;
HEADER;
FILE_DESCRIPTION (( 'STEP AP214' ),
    '1' );
FILE_NAME ('Micro_SME-012-2.STEP',
    '2021-09-02T10:04:54',
    ( '' ),
    ( '' ),
    'SwSTEP 2.0',
    'SolidWorks 2020',
    '' );
FILE_SCHEMA (( 'AUTOMOTIVE_DESIGN' ));
ENDSEC;

DATA;
#1 = VECTOR ( 'NONE', #260, 39.37007874015748854 ) ;
#2 = VECTOR ( 'NONE', #66, 39.37007874015748143 ) ;
#3 =( CONVERSION_BASED_UNIT ( 'INCH', #121 ) LENGTH_UNIT ( ) NAMED_UNIT ( #80 ) );
#4 = DIRECTION ( 'NONE',  ( -1.224646799147353700E-16, -0.0000000000000000000, -1.000000000000000000 ) ) ;
#5 = DIRECTION ( 'NONE',  ( -1.000000000000000000, 0.0000000000000000000, 0.0000000000000000000 ) ) ;
#6 = CARTESIAN_POINT ( 'NONE',  ( 0.0000000000000000000, 0.0000000000000000000, 1.500000000000000222 ) ) ;
#7 = CARTESIAN_POINT ( 'NONE',  ( 0.0000000000000000000, 0.0000000000000000000, 0.0000000000000000000 ) ) ;
#8 = CIRCLE ( 'NONE', #152, 0.04750000000000064587 ) ;
#9 = DIRECTION ( 'NONE',  ( 0.0000000000000000000, 0.0000000000000000000, -1.000000000000000000 ) ) ;
#10 = EDGE_CURVE ( 'NONE', #257, #102, #288, .T. ) ;
#11 =( NAMED_UNIT ( * ) SI_UNIT ( $, .STERADIAN. ) SOLID_ANGLE_UNIT ( ) );
#12 = ORIENTED_EDGE ( 'NONE', *, *, #207, .F. ) ;
#13 = CIRCLE ( 'NONE', #50, 0.06250000000000002776 ) ;
#14 = ORIENTED_EDGE ( 'NONE', *, *, #265, .T. ) ;
#15 = ORIENTED_EDGE ( 'NONE', *, *, #184, .F. ) ;
#16 = AXIS2_PLACEMENT_3D ( 'NONE', #78, #9, #45 ) ;
#17 = PRODUCT_DEFINITION_CONTEXT ( 'detailed design', #118, 'design' ) ;
#18 = ADVANCED_FACE ( 'NONE', ( #28 ), #295, .T. ) ;
#19 = EDGE_CURVE ( 'NONE', #102, #125, #277, .T. ) ;
#20 = CARTESIAN_POINT ( 'NONE',  ( 0.04750000000000064587, 6.735557395310483192E-18, 1.500000000000000222 ) ) ;
#21 = CARTESIAN_POINT ( 'NONE',  ( 0.005994000000000001931, 0.0000000000000000000, 0.01799999999999999864 ) ) ;
#22 = COLOUR_RGB ( '',0.7921568627450980005, 0.8196078431372548767, 0.9333333333333333481 ) ;
#23 = VERTEX_POINT ( 'NONE', #248 ) ;
#24 = FACE_OUTER_BOUND ( 'NONE', #259, .T. ) ;
#25 = APPLICATION_PROTOCOL_DEFINITION ( 'draft international standard', 'automotive_design', 1998, #201 ) ;
#26 = LINE ( 'NONE', #187, #40 ) ;
#27 = CARTESIAN_POINT ( 'NONE',  ( 4.144957319887587811E-17, 0.0000000000000000000, 0.3384614504993167516 ) ) ;
#28 = FACE_OUTER_BOUND ( 'NONE', #90, .T. ) ;
#29 = DIRECTION ( 'NONE',  ( -1.224646799147353700E-16, -0.0000000000000000000, -1.000000000000000000 ) ) ;
#30 = COLOUR_RGB ( '',0.7921568627450980005, 0.8196078431372548767, 0.9333333333333333481 ) ;
#31 = DIRECTION ( 'NONE',  ( -1.224646799147353700E-16, -0.0000000000000000000, -1.000000000000000000 ) ) ;
#32 = CIRCLE ( 'NONE', #96, 0.005993999999999999329 ) ;
#33 = DIRECTION ( 'NONE',  ( -1.224646799147353700E-16, -0.0000000000000000000, -1.000000000000000000 ) ) ;
#34 = ORIENTED_EDGE ( 'NONE', *, *, #19, .T. ) ;
#35 = DIRECTION ( 'NONE',  ( 0.0000000000000000000, 0.0000000000000000000, 1.000000000000000000 ) ) ;
#36 = PLANE ( 'NONE',  #112 ) ;
#37 = ADVANCED_BREP_SHAPE_REPRESENTATION ( 'Micro_SME-012-2', ( #188, #63 ), #279 ) ;
#38 = DIRECTION ( 'NONE',  ( -1.224646799147353700E-16, -0.0000000000000000000, -1.000000000000000000 ) ) ;
#39 = ORIENTED_EDGE ( 'NONE', *, *, #281, .F. ) ;
#40 = VECTOR ( 'NONE', #41, 39.37007874015748854 ) ;
#41 = DIRECTION ( 'NONE',  ( 0.7071067811865462405, 8.659560562354916834E-17, -0.7071067811865486830 ) ) ;
#42 = DIRECTION ( 'NONE',  ( 0.0000000000000000000, 0.0000000000000000000, 1.000000000000000000 ) ) ;
#43 = CARTESIAN_POINT ( 'NONE',  ( 2.204364238465236284E-18, 0.0000000000000000000, 0.01799999999999999864 ) ) ;
#44 = UNCERTAINTY_MEASURE_WITH_UNIT (LENGTH_MEASURE( 1.000000000000000082E-05 ), #3, 'distance_accuracy_value', 'NONE');
#45 = DIRECTION ( 'NONE',  ( -1.000000000000000000, 0.0000000000000000000, 0.0000000000000000000 ) ) ;
#46 = FACE_OUTER_BOUND ( 'NONE', #164, .T. ) ;
#47 = APPLICATION_PROTOCOL_DEFINITION ( 'draft international standard', 'automotive_design', 1998, #118 ) ;
#48 = UNCERTAINTY_MEASURE_WITH_UNIT (LENGTH_MEASURE( 1.000000000000000082E-05 ), #49, 'distance_accuracy_value', 'NONE');
#49 =( CONVERSION_BASED_UNIT ( 'INCH', #283 ) LENGTH_UNIT ( ) NAMED_UNIT ( #237 ) );
#50 = AXIS2_PLACEMENT_3D ( 'NONE', #53, #29, #284 ) ;
#51 = ADVANCED_FACE ( 'NONE', ( #24 ), #211, .T. ) ;
#52 = EDGE_CURVE ( 'NONE', #102, #257, #32, .T. ) ;
#53 = CARTESIAN_POINT ( 'NONE',  ( 4.144957319887587811E-17, 0.0000000000000000000, 0.3384614504993167516 ) ) ;
#54 = ORIENTED_EDGE ( 'NONE', *, *, #184, .T. ) ;
#55 = DIRECTION ( 'NONE',  ( 1.000000000000000000, 0.0000000000000000000, 0.0000000000000000000 ) ) ;
#56 = ORIENTED_EDGE ( 'NONE', *, *, #281, .T. ) ;
#57 = DIRECTION ( 'NONE',  ( 1.000000000000000000, 0.0000000000000000000, 0.0000000000000000000 ) ) ;
#58 = ORIENTED_EDGE ( 'NONE', *, *, #136, .T. ) ;
#59 = EDGE_LOOP ( 'NONE', ( #110, #67 ) ) ;
#60 = EDGE_CURVE ( 'NONE', #257, #157, #70, .T. ) ;
#61 = CARTESIAN_POINT ( 'NONE',  ( 0.0000000000000000000, 0.0000000000000000000, 0.0000000000000000000 ) ) ;
#62 = ORIENTED_EDGE ( 'NONE', *, *, #19, .F. ) ;
#63 = AXIS2_PLACEMENT_3D ( 'NONE', #179, #35, #271 ) ;
#64 = LINE ( 'NONE', #298, #286 ) ;
#65 = ORIENTED_EDGE ( 'NONE', *, *, #60, .F. ) ;
#66 = DIRECTION ( 'NONE',  ( -0.0000000000000000000, -0.0000000000000000000, -1.000000000000000000 ) ) ;
#67 = ORIENTED_EDGE ( 'NONE', *, *, #93, .T. ) ;
#68 =( NAMED_UNIT ( * ) PLANE_ANGLE_UNIT ( ) SI_UNIT ( $, .RADIAN. ) );
#69 = DIRECTION ( 'NONE',  ( -0.0000000000000000000, -0.0000000000000000000, -1.000000000000000000 ) ) ;
#70 = LINE ( 'NONE', #166, #91 ) ;
#71 = VECTOR ( 'NONE', #161, 39.37007874015747433 ) ;
#72 = CARTESIAN_POINT ( 'NONE',  ( -0.005994000000000003665, 0.0000000000000000000, 1.468106582817848593E-18 ) ) ;
#73 = DIRECTION ( 'NONE',  ( 0.1736481776669313581, 0.0000000000000000000, 0.9848077530122077983 ) ) ;
#74 = DIRECTION ( 'NONE',  ( -1.000000000000000000, 0.0000000000000000000, 1.224646799147353700E-16 ) ) ;
#75 = ADVANCED_FACE ( 'NONE', ( #46 ), #241, .T. ) ;
#76 = FACE_OUTER_BOUND ( 'NONE', #196, .T. ) ;
#77 = ADVANCED_FACE ( 'NONE', ( #267 ), #124, .T. ) ;
#78 = CARTESIAN_POINT ( 'NONE',  ( 0.0000000000000000000, 0.0000000000000000000, 1.500000000000000222 ) ) ;
#79 = DIRECTION ( 'NONE',  ( 0.0000000000000000000, 0.0000000000000000000, 1.000000000000000000 ) ) ;
#80 = DIMENSIONAL_EXPONENTS ( 1.000000000000000000, 0.0000000000000000000, 0.0000000000000000000, 0.0000000000000000000, 0.0000000000000000000, 0.0000000000000000000, 0.0000000000000000000 ) ;
#81 = CARTESIAN_POINT ( 'NONE',  ( 0.0000000000000000000, 0.0000000000000000000, 1.500000000000000222 ) ) ;
#82 = ADVANCED_FACE ( 'NONE', ( #174 ), #36, .F. ) ;
#83 = ORIENTED_EDGE ( 'NONE', *, *, #240, .F. ) ;
#84 = AXIS2_PLACEMENT_3D ( 'NONE', #213, #31, #192 ) ;
#85 = DIRECTION ( 'NONE',  ( 1.000000000000000000, 0.0000000000000000000, -0.0000000000000000000 ) ) ;
#86 = LINE ( 'NONE', #182, #2 ) ;
#87 = EDGE_LOOP ( 'NONE', ( #243, #131, #34, #222 ) ) ;
#88 = FILL_AREA_STYLE ('',( #129 ) ) ;
#89 = CARTESIAN_POINT ( 'NONE',  ( 2.204364238465236284E-18, 0.0000000000000000000, 0.01799999999999999864 ) ) ;
#90 = EDGE_LOOP ( 'NONE', ( #268, #193, #14, #62 ) ) ;
#91 = VECTOR ( 'NONE', #140, 39.37007874015748143 ) ;
#92 = DIRECTION ( 'NONE',  ( 0.0000000000000000000, 0.0000000000000000000, 1.000000000000000000 ) ) ;
#93 = EDGE_CURVE ( 'NONE', #23, #157, #264, .T. ) ;
#94 = DIRECTION ( 'NONE',  ( 1.000000000000000000, 0.0000000000000000000, 0.0000000000000000000 ) ) ;
#95 = DIRECTION ( 'NONE',  ( -0.0000000000000000000, -0.0000000000000000000, -1.000000000000000000 ) ) ;
#96 = AXIS2_PLACEMENT_3D ( 'NONE', #89, #189, #251 ) ;
#97 = DIRECTION ( 'NONE',  ( -1.224646799147353700E-16, -0.0000000000000000000, -1.000000000000000000 ) ) ;
#98 = CIRCLE ( 'NONE', #173, 0.06250000000000002776 ) ;
#99 = CARTESIAN_POINT ( 'NONE',  ( -0.04750000000000064587, 0.0000000000000000000, 1.500000000000000222 ) ) ;
#100 = FILL_AREA_STYLE_COLOUR ( '', #30 ) ;
#101 = AXIS2_PLACEMENT_3D ( 'NONE', #61, #38, #158 ) ;
#102 = VERTEX_POINT ( 'NONE', #244 ) ;
#103 = EDGE_CURVE ( 'NONE', #119, #105, #180, .T. ) ;
#104 = VERTEX_POINT ( 'NONE', #274 ) ;
#105 = VERTEX_POINT ( 'NONE', #133 ) ;
#106 = AXIS2_PLACEMENT_3D ( 'NONE', #181, #33, #272 ) ;
#107 = ORIENTED_EDGE ( 'NONE', *, *, #137, .F. ) ;
#108 = CARTESIAN_POINT ( 'NONE',  ( -0.005993999999999997594, 7.340532914089234300E-19, 0.01799999999999999864 ) ) ;
#109 =( LENGTH_UNIT ( ) NAMED_UNIT ( * ) SI_UNIT ( $, .METRE. ) );
#110 = ORIENTED_EDGE ( 'NONE', *, *, #290, .T. ) ;
#111 = DIRECTION ( 'NONE',  ( 1.000000000000000000, 0.0000000000000000000, 0.0000000000000000000 ) ) ;
#112 = AXIS2_PLACEMENT_3D ( 'NONE', #153, #127, #85 ) ;
#113 = UNCERTAINTY_MEASURE_WITH_UNIT (LENGTH_MEASURE( 1.000000000000000082E-05 ), #261, 'distance_accuracy_value', 'NONE');
#114 = DIRECTION ( 'NONE',  ( 1.000000000000000000, 0.0000000000000000000, 0.0000000000000000000 ) ) ;
#115 = EDGE_CURVE ( 'NONE', #257, #159, #183, .T. ) ;
#116 = ORIENTED_EDGE ( 'NONE', *, *, #103, .T. ) ;
#117 = CARTESIAN_POINT ( 'NONE',  ( 0.0000000000000000000, 0.0000000000000000000, 1.500000000000000222 ) ) ;
#118 = APPLICATION_CONTEXT ( 'automotive_design' ) ;
#119 = VERTEX_POINT ( 'NONE', #139 ) ;
#120 = ORIENTED_EDGE ( 'NONE', *, *, #126, .T. ) ;
#121 = LENGTH_MEASURE_WITH_UNIT ( LENGTH_MEASURE( 0.02539999999999999897 ), #167 );
#122 = AXIS2_PLACEMENT_3D ( 'NONE', #231, #293, #5 ) ;
#123 =( NAMED_UNIT ( * ) PLANE_ANGLE_UNIT ( ) SI_UNIT ( $, .RADIAN. ) );
#124 = CONICAL_SURFACE ( 'NONE', #292, 0.005993999999999999329, 0.1745329251994338637 ) ;
#125 = VERTEX_POINT ( 'NONE', #138 ) ;
#126 = EDGE_CURVE ( 'NONE', #128, #119, #26, .T. ) ;
#127 = DIRECTION ( 'NONE',  ( 0.0000000000000000000, 0.0000000000000000000, 1.000000000000000000 ) ) ;
#128 = VERTEX_POINT ( 'NONE', #20 ) ;
#129 = FILL_AREA_STYLE_COLOUR ( '', #22 ) ;
#130 = STYLED_ITEM ( 'NONE', ( #249 ), #188 ) ;
#131 = ORIENTED_EDGE ( 'NONE', *, *, #52, .F. ) ;
#132 = AXIS2_PLACEMENT_3D ( 'NONE', #258, #92, #94 ) ;
#133 = CARTESIAN_POINT ( 'NONE',  ( -0.06250000000000002776, 0.0000000000000000000, 1.485000000000000764 ) ) ;
#134 = FACE_OUTER_BOUND ( 'NONE', #178, .T. ) ;
#135 = ORIENTED_EDGE ( 'NONE', *, *, #52, .T. ) ;
#136 = EDGE_CURVE ( 'NONE', #105, #159, #86, .T. ) ;
#137 = EDGE_CURVE ( 'NONE', #119, #125, #294, .T. ) ;
#138 = CARTESIAN_POINT ( 'NONE',  ( 0.06250000000000006939, 7.654042494670963708E-18, 0.3384614504993167516 ) ) ;
#139 = CARTESIAN_POINT ( 'NONE',  ( 0.06250000000000002776, 7.654042494670959086E-18, 1.485000000000000764 ) ) ;
#140 = DIRECTION ( 'NONE',  ( -1.224646799147353700E-16, -0.0000000000000000000, -1.000000000000000000 ) ) ;
#141 = PRODUCT_DEFINITION ( 'UNKNOWN', '', #217, #17 ) ;
#142 = FACE_OUTER_BOUND ( 'NONE', #239, .T. ) ;
#143 = SHAPE_DEFINITION_REPRESENTATION ( #273, #37 ) ;
#144 =( NAMED_UNIT ( * ) SI_UNIT ( $, .STERADIAN. ) SOLID_ANGLE_UNIT ( ) );
#145 = PRESENTATION_LAYER_ASSIGNMENT (  '', '', ( #220 ) ) ;
#146 = CARTESIAN_POINT ( 'NONE',  ( -0.005993999999999997594, 4.194047893039942847E-18, 0.01799999999999999864 ) ) ;
#147 = CONICAL_SURFACE ( 'NONE', #16, 0.04750000000000064587, 0.7853981633974466137 ) ;
#148 = LENGTH_MEASURE_WITH_UNIT ( LENGTH_MEASURE( 0.02539999999999999897 ), #198 );
#149 = ADVANCED_FACE ( 'NONE', ( #134 ), #278, .T. ) ;
#150 = EDGE_CURVE ( 'NONE', #102, #23, #64, .T. ) ;
#151 = ORIENTED_EDGE ( 'NONE', *, *, #136, .F. ) ;
#152 = AXIS2_PLACEMENT_3D ( 'NONE', #246, #42, #114 ) ;
#153 = CARTESIAN_POINT ( 'NONE',  ( 0.0000000000000000000, 0.0000000000000000000, 0.0000000000000000000 ) ) ;
#154 = ORIENTED_EDGE ( 'NONE', *, *, #126, .F. ) ;
#155 = SURFACE_STYLE_USAGE ( .BOTH. , #230 ) ;
#156 = CARTESIAN_POINT ( 'NONE',  ( 2.204364238465236284E-18, 0.0000000000000000000, 0.01799999999999999864 ) ) ;
#157 = VERTEX_POINT ( 'NONE', #72 ) ;
#158 = DIRECTION ( 'NONE',  ( -1.000000000000000000, 0.0000000000000000000, 1.224646799147353700E-16 ) ) ;
#159 = VERTEX_POINT ( 'NONE', #208 ) ;
#160 = PRODUCT ( 'Micro_SME-012-2', 'Micro_SME-012-2', '', ( #252 ) ) ;
#161 = DIRECTION ( 'NONE',  ( -0.1736481776669311639, 2.126576849575783008E-17, 0.9848077530122080203 ) ) ;
#162 = ORIENTED_EDGE ( 'NONE', *, *, #150, .T. ) ;
#163 = PLANE ( 'NONE',  #228 ) ;
#164 = EDGE_LOOP ( 'NONE', ( #154, #39, #175, #223 ) ) ;
#165 = DIRECTION ( 'NONE',  ( -1.224646799147353700E-16, -0.0000000000000000000, -1.000000000000000000 ) ) ;
#166 = CARTESIAN_POINT ( 'NONE',  ( -0.005994000000000001931, 0.0000000000000000000, 7.340532914089240078E-19 ) ) ;
#167 =( LENGTH_UNIT ( ) NAMED_UNIT ( * ) SI_UNIT ( $, .METRE. ) );
#168 = AXIS2_PLACEMENT_3D ( 'NONE', #7, #97, #74 ) ;
#169 = DIRECTION ( 'NONE',  ( -0.0000000000000000000, -0.0000000000000000000, -1.000000000000000000 ) ) ;
#170 = CYLINDRICAL_SURFACE ( 'NONE', #185, 0.06250000000000002776 ) ;
#171 = VECTOR ( 'NONE', #69, 39.37007874015748143 ) ;
#172 = DIRECTION ( 'NONE',  ( 1.000000000000000000, 0.0000000000000000000, 0.0000000000000000000 ) ) ;
#173 = AXIS2_PLACEMENT_3D ( 'NONE', #27, #4, #172 ) ;
#174 = FACE_OUTER_BOUND ( 'NONE', #59, .T. ) ;
#175 = ORIENTED_EDGE ( 'NONE', *, *, #240, .T. ) ;
#176 = CARTESIAN_POINT ( 'NONE',  ( 0.0000000000000000000, 0.0000000000000000000, 1.485000000000000764 ) ) ;
#177 = ORIENTED_EDGE ( 'NONE', *, *, #137, .T. ) ;
#178 = EDGE_LOOP ( 'NONE', ( #200, #162, #285, #65 ) ) ;
#179 = CARTESIAN_POINT ( 'NONE',  ( 0.0000000000000000000, 0.0000000000000000000, 0.0000000000000000000 ) ) ;
#180 = CIRCLE ( 'NONE', #297, 0.06250000000000002776 ) ;
#181 = CARTESIAN_POINT ( 'NONE',  ( 8.989560137275187631E-35, 0.0000000000000000000, 7.340532914089242967E-19 ) ) ;
#182 = CARTESIAN_POINT ( 'NONE',  ( -0.06250000000000002776, 0.0000000000000000000, 1.500000000000000222 ) ) ;
#183 = LINE ( 'NONE', #108, #71 ) ;
#184 = EDGE_CURVE ( 'NONE', #128, #104, #8, .T. ) ;
#185 = AXIS2_PLACEMENT_3D ( 'NONE', #6, #95, #194 ) ;
#186 = EDGE_LOOP ( 'NONE', ( #56, #54 ) ) ;
#187 = CARTESIAN_POINT ( 'NONE',  ( 0.04750000000000064587, 5.817072295950006528E-18, 1.500000000000000222 ) ) ;
#188 = MANIFOLD_SOLID_BREP ( 'Cut-Revolve1', #262 ) ;
#189 = DIRECTION ( 'NONE',  ( -1.224646799147353700E-16, -0.0000000000000000000, -1.000000000000000000 ) ) ;
#190 = SURFACE_STYLE_FILL_AREA ( #275 ) ;
#191 = AXIS2_PLACEMENT_3D ( 'NONE', #199, #235, #250 ) ;
#192 = DIRECTION ( 'NONE',  ( -1.000000000000000000, 0.0000000000000000000, 1.224646799147353700E-16 ) ) ;
#193 = ORIENTED_EDGE ( 'NONE', *, *, #115, .T. ) ;
#194 = DIRECTION ( 'NONE',  ( -1.000000000000000000, 0.0000000000000000000, 0.0000000000000000000 ) ) ;
#195 = ADVANCED_FACE ( 'NONE', ( #214 ), #163, .T. ) ;
#196 = EDGE_LOOP ( 'NONE', ( #236, #177, #203, #151 ) ) ;
#197 = PRESENTATION_LAYER_ASSIGNMENT (  '', '', ( #130 ) ) ;
#198 =( LENGTH_UNIT ( ) NAMED_UNIT ( * ) SI_UNIT ( $, .METRE. ) );
#199 = CARTESIAN_POINT ( 'NONE',  ( 0.0000000000000000000, 0.0000000000000000000, 1.485000000000000764 ) ) ;
#200 = ORIENTED_EDGE ( 'NONE', *, *, #10, .T. ) ;
#201 = APPLICATION_CONTEXT ( 'automotive_design' ) ;
#202 =( GEOMETRIC_REPRESENTATION_CONTEXT ( 3 ) GLOBAL_UNCERTAINTY_ASSIGNED_CONTEXT ( ( #44 ) ) GLOBAL_UNIT_ASSIGNED_CONTEXT ( ( #3, #68, #225 ) ) REPRESENTATION_CONTEXT ( 'NONE', 'WORKASPACE' ) );
#203 = ORIENTED_EDGE ( 'NONE', *, *, #265, .F. ) ;
#204 = DIRECTION ( 'NONE',  ( 1.224646799147353700E-16, 0.0000000000000000000, 1.000000000000000000 ) ) ;
#205 = ORIENTED_EDGE ( 'NONE', *, *, #93, .F. ) ;
#206 = CIRCLE ( 'NONE', #84, 0.005994000000000003665 ) ;
#207 = EDGE_CURVE ( 'NONE', #125, #159, #13, .T. ) ;
#208 = CARTESIAN_POINT ( 'NONE',  ( -0.06249999999999997918, 0.0000000000000000000, 0.3384614504993167516 ) ) ;
#209 = DIRECTION ( 'NONE',  ( -1.224646799147353700E-16, -0.0000000000000000000, -1.000000000000000000 ) ) ;
#210 = DIRECTION ( 'NONE',  ( -1.000000000000000000, 0.0000000000000000000, 0.0000000000000000000 ) ) ;
#211 = CYLINDRICAL_SURFACE ( 'NONE', #269, 0.06250000000000002776 ) ;
#212 = MECHANICAL_DESIGN_GEOMETRIC_PRESENTATION_REPRESENTATION (  '', ( #130 ), #233 ) ;
#213 = CARTESIAN_POINT ( 'NONE',  ( 8.989560137275187631E-35, 0.0000000000000000000, 7.340532914089242967E-19 ) ) ;
#214 = FACE_OUTER_BOUND ( 'NONE', #186, .T. ) ;
#215 = CYLINDRICAL_SURFACE ( 'NONE', #168, 0.005994000000000001931 ) ;
#216 = AXIS2_PLACEMENT_3D ( 'NONE', #299, #209, #229 ) ;
#217 = PRODUCT_DEFINITION_FORMATION_WITH_SPECIFIED_SOURCE ( 'ANY', '', #160, .NOT_KNOWN. ) ;
#218 = ADVANCED_FACE ( 'NONE', ( #76 ), #170, .T. ) ;
#219 = ORIENTED_EDGE ( 'NONE', *, *, #150, .F. ) ;
#220 = STYLED_ITEM ( 'NONE', ( #280 ), #37 ) ;
#221 = SURFACE_STYLE_FILL_AREA ( #88 ) ;
#222 = ORIENTED_EDGE ( 'NONE', *, *, #207, .T. ) ;
#223 = ORIENTED_EDGE ( 'NONE', *, *, #103, .F. ) ;
#224 = DIRECTION ( 'NONE',  ( 1.224646799147353700E-16, 0.0000000000000000000, 1.000000000000000000 ) ) ;
#225 =( NAMED_UNIT ( * ) SI_UNIT ( $, .STERADIAN. ) SOLID_ANGLE_UNIT ( ) );
#226 = CARTESIAN_POINT ( 'NONE',  ( 0.06250000000000002776, 7.654042494670959086E-18, 1.500000000000000222 ) ) ;
#227 = VECTOR ( 'NONE', #73, 39.37007874015748143 ) ;
#228 = AXIS2_PLACEMENT_3D ( 'NONE', #81, #79, #254 ) ;
#229 = DIRECTION ( 'NONE',  ( -1.000000000000000000, 0.0000000000000000000, 0.0000000000000000000 ) ) ;
#230 = SURFACE_SIDE_STYLE ('',( #190 ) ) ;
#231 = CARTESIAN_POINT ( 'NONE',  ( 0.0000000000000000000, 0.0000000000000000000, 1.500000000000000222 ) ) ;
#232 = LINE ( 'NONE', #99, #1 ) ;
#233 =( GEOMETRIC_REPRESENTATION_CONTEXT ( 3 ) GLOBAL_UNCERTAINTY_ASSIGNED_CONTEXT ( ( #48 ) ) GLOBAL_UNIT_ASSIGNED_CONTEXT ( ( #49, #123, #144 ) ) REPRESENTATION_CONTEXT ( 'NONE', 'WORKASPACE' ) );
#234 = ADVANCED_FACE ( 'NONE', ( #238 ), #147, .T. ) ;
#235 = DIRECTION ( 'NONE',  ( 0.0000000000000000000, 0.0000000000000000000, -1.000000000000000000 ) ) ;
#236 = ORIENTED_EDGE ( 'NONE', *, *, #282, .T. ) ;
#237 = DIMENSIONAL_EXPONENTS ( 1.000000000000000000, 0.0000000000000000000, 0.0000000000000000000, 0.0000000000000000000, 0.0000000000000000000, 0.0000000000000000000, 0.0000000000000000000 ) ;
#238 = FACE_OUTER_BOUND ( 'NONE', #242, .T. ) ;
#239 = EDGE_LOOP ( 'NONE', ( #219, #135, #266, #205 ) ) ;
#240 = EDGE_CURVE ( 'NONE', #104, #105, #232, .T. ) ;
#241 = CONICAL_SURFACE ( 'NONE', #122, 0.04750000000000064587, 0.7853981633974466137 ) ;
#242 = EDGE_LOOP ( 'NONE', ( #15, #120, #255, #83 ) ) ;
#243 = ORIENTED_EDGE ( 'NONE', *, *, #115, .F. ) ;
#244 = CARTESIAN_POINT ( 'NONE',  ( 0.005994000000000001931, 0.0000000000000000000, 0.01799999999999999864 ) ) ;
#245 = CIRCLE ( 'NONE', #191, 0.06250000000000002776 ) ;
#246 = CARTESIAN_POINT ( 'NONE',  ( 0.0000000000000000000, 0.0000000000000000000, 1.500000000000000222 ) ) ;
#247 = SURFACE_STYLE_USAGE ( .BOTH. , #276 ) ;
#248 = CARTESIAN_POINT ( 'NONE',  ( 0.005994000000000003665, 7.340532914089238152E-19, 1.184750211852384294E-34 ) ) ;
#249 = PRESENTATION_STYLE_ASSIGNMENT (( #247 ) ) ;
#250 = DIRECTION ( 'NONE',  ( 1.000000000000000000, 0.0000000000000000000, 0.0000000000000000000 ) ) ;
#251 = DIRECTION ( 'NONE',  ( -1.000000000000000000, 0.0000000000000000000, 0.0000000000000000000 ) ) ;
#252 = PRODUCT_CONTEXT ( 'NONE', #201, 'mechanical' ) ;
#253 = PRODUCT_RELATED_PRODUCT_CATEGORY ( 'part', '', ( #160 ) ) ;
#254 = DIRECTION ( 'NONE',  ( 1.000000000000000000, 0.0000000000000000000, -0.0000000000000000000 ) ) ;
#255 = ORIENTED_EDGE ( 'NONE', *, *, #282, .F. ) ;
#256 = DIMENSIONAL_EXPONENTS ( 1.000000000000000000, 0.0000000000000000000, 0.0000000000000000000, 0.0000000000000000000, 0.0000000000000000000, 0.0000000000000000000, 0.0000000000000000000 ) ;
#257 = VERTEX_POINT ( 'NONE', #146 ) ;
#258 = CARTESIAN_POINT ( 'NONE',  ( 0.0000000000000000000, 0.0000000000000000000, 1.500000000000000222 ) ) ;
#259 = EDGE_LOOP ( 'NONE', ( #107, #116, #58, #12 ) ) ;
#260 = DIRECTION ( 'NONE',  ( -0.7071067811865462405, 0.0000000000000000000, -0.7071067811865486830 ) ) ;
#261 =( CONVERSION_BASED_UNIT ( 'INCH', #148 ) LENGTH_UNIT ( ) NAMED_UNIT ( #256 ) );
#262 = CLOSED_SHELL ( 'NONE', ( #149, #18, #234, #218, #51, #195, #75, #77, #296, #82 ) ) ;
#263 = AXIS2_PLACEMENT_3D ( 'NONE', #43, #224, #111 ) ;
#264 = CIRCLE ( 'NONE', #106, 0.005994000000000003665 ) ;
#265 = EDGE_CURVE ( 'NONE', #159, #125, #98, .T. ) ;
#266 = ORIENTED_EDGE ( 'NONE', *, *, #60, .T. ) ;
#267 = FACE_OUTER_BOUND ( 'NONE', #87, .T. ) ;
#268 = ORIENTED_EDGE ( 'NONE', *, *, #10, .F. ) ;
#269 = AXIS2_PLACEMENT_3D ( 'NONE', #117, #169, #210 ) ;
#270 = CIRCLE ( 'NONE', #132, 0.04750000000000064587 ) ;
#271 = DIRECTION ( 'NONE',  ( 1.000000000000000000, 0.0000000000000000000, 0.0000000000000000000 ) ) ;
#272 = DIRECTION ( 'NONE',  ( -1.000000000000000000, 0.0000000000000000000, 1.224646799147353700E-16 ) ) ;
#273 = PRODUCT_DEFINITION_SHAPE ( 'NONE', 'NONE',  #141 ) ;
#274 = CARTESIAN_POINT ( 'NONE',  ( -0.04750000000000064587, 0.0000000000000000000, 1.500000000000000222 ) ) ;
#275 = FILL_AREA_STYLE ('',( #100 ) ) ;
#276 = SURFACE_SIDE_STYLE ('',( #221 ) ) ;
#277 = LINE ( 'NONE', #21, #227 ) ;
#278 = CYLINDRICAL_SURFACE ( 'NONE', #101, 0.005994000000000001931 ) ;
#279 =( GEOMETRIC_REPRESENTATION_CONTEXT ( 3 ) GLOBAL_UNCERTAINTY_ASSIGNED_CONTEXT ( ( #113 ) ) GLOBAL_UNIT_ASSIGNED_CONTEXT ( ( #261, #291, #11 ) ) REPRESENTATION_CONTEXT ( 'NONE', 'WORKASPACE' ) );
#280 = PRESENTATION_STYLE_ASSIGNMENT (( #155 ) ) ;
#281 = EDGE_CURVE ( 'NONE', #104, #128, #270, .T. ) ;
#282 = EDGE_CURVE ( 'NONE', #105, #119, #245, .T. ) ;
#283 = LENGTH_MEASURE_WITH_UNIT ( LENGTH_MEASURE( 0.02539999999999999897 ), #109 );
#284 = DIRECTION ( 'NONE',  ( 1.000000000000000000, 0.0000000000000000000, 0.0000000000000000000 ) ) ;
#285 = ORIENTED_EDGE ( 'NONE', *, *, #290, .F. ) ;
#286 = VECTOR ( 'NONE', #165, 39.37007874015748143 ) ;
#287 = DIRECTION ( 'NONE',  ( 0.0000000000000000000, 0.0000000000000000000, -1.000000000000000000 ) ) ;
#288 = CIRCLE ( 'NONE', #216, 0.005993999999999999329 ) ;
#289 = MECHANICAL_DESIGN_GEOMETRIC_PRESENTATION_REPRESENTATION (  '', ( #220 ), #202 ) ;
#290 = EDGE_CURVE ( 'NONE', #157, #23, #206, .T. ) ;
#291 =( NAMED_UNIT ( * ) PLANE_ANGLE_UNIT ( ) SI_UNIT ( $, .RADIAN. ) );
#292 = AXIS2_PLACEMENT_3D ( 'NONE', #156, #204, #57 ) ;
#293 = DIRECTION ( 'NONE',  ( 0.0000000000000000000, 0.0000000000000000000, -1.000000000000000000 ) ) ;
#294 = LINE ( 'NONE', #226, #171 ) ;
#295 = CONICAL_SURFACE ( 'NONE', #263, 0.005993999999999999329, 0.1745329251994338637 ) ;
#296 = ADVANCED_FACE ( 'NONE', ( #142 ), #215, .T. ) ;
#297 = AXIS2_PLACEMENT_3D ( 'NONE', #176, #287, #55 ) ;
#298 = CARTESIAN_POINT ( 'NONE',  ( 0.005994000000000001931, 7.340532914089237189E-19, -7.340532914089240078E-19 ) ) ;
#299 = CARTESIAN_POINT ( 'NONE',  ( 2.204364238465236284E-18, 0.0000000000000000000, 0.01799999999999999864 ) ) ;
ENDSEC;
END-ISO-10303-21;
