ISO-10303-21;
HEADER;
FILE_DESCRIPTION (( 'STEP AP214' ),
    '1' );
FILE_NAME ('Micro_GELM-180-2X.STEP',
    '2021-09-01T18:37:57',
    ( '' ),
    ( '' ),
    'SwSTEP 2.0',
    'SolidWorks 2020',
    '' );
FILE_SCHEMA (( 'AUTOMOTIVE_DESIGN' ));
ENDSEC;

DATA;
#1 = ORIENTED_EDGE ( 'NONE', *, *, #266, .T. ) ;
#2 = DIRECTION ( 'NONE',  ( -1.224646799147353207E-16, -0.0000000000000000000, -1.000000000000000000 ) ) ;
#3 = DIRECTION ( 'NONE',  ( -1.224646799147353207E-16, -0.0000000000000000000, -1.000000000000000000 ) ) ;
#4 = DIRECTION ( 'NONE',  ( -1.000000000000000000, 0.0000000000000000000, 1.224646799147353207E-16 ) ) ;
#5 = EDGE_CURVE ( 'NONE', #226, #66, #108, .T. ) ;
#6 = LINE ( 'NONE', #214, #167 ) ;
#7 = AXIS2_PLACEMENT_3D ( 'NONE', #230, #29, #71 ) ;
#8 = DIRECTION ( 'NONE',  ( -1.000000000000000000, 0.0000000000000000000, 0.0000000000000000000 ) ) ;
#9 = VERTEX_POINT ( 'NONE', #94 ) ;
#10 = CARTESIAN_POINT ( 'NONE',  ( -0.3539761694999999930, 0.0000000000000000000, 4.334957829526159343E-17 ) ) ;
#11 = CARTESIAN_POINT ( 'NONE',  ( 0.3539761694999999930, 4.334957829526159343E-17, -4.334957829526159343E-17 ) ) ;
#12 = PRESENTATION_LAYER_ASSIGNMENT (  '', '', ( #77 ) ) ;
#13 = ORIENTED_EDGE ( 'NONE', *, *, #261, .T. ) ;
#14 = DIRECTION ( 'NONE',  ( 0.0000000000000000000, 0.0000000000000000000, -1.000000000000000000 ) ) ;
#15 = EDGE_CURVE ( 'NONE', #157, #19, #231, .T. ) ;
#16 = LENGTH_MEASURE_WITH_UNIT ( LENGTH_MEASURE( 0.02539999999999999897 ), #18 );
#17 = AXIS2_PLACEMENT_3D ( 'NONE', #188, #209, #96 ) ;
#18 =( LENGTH_UNIT ( ) NAMED_UNIT ( * ) SI_UNIT ( $, .METRE. ) );
#19 = VERTEX_POINT ( 'NONE', #129 ) ;
#20 = EDGE_CURVE ( 'NONE', #179, #121, #268, .T. ) ;
#21 = AXIS2_PLACEMENT_3D ( 'NONE', #74, #279, #260 ) ;
#22 = AXIS2_PLACEMENT_3D ( 'NONE', #45, #273, #205 ) ;
#23 = ORIENTED_EDGE ( 'NONE', *, *, #48, .F. ) ;
#24 = DIRECTION ( 'NONE',  ( -1.224646799147353207E-16, -0.0000000000000000000, -1.000000000000000000 ) ) ;
#25 = STYLED_ITEM ( 'NONE', ( #252 ), #139 ) ;
#26 = FACE_OUTER_BOUND ( 'NONE', #135, .T. ) ;
#27 = EDGE_CURVE ( 'NONE', #19, #66, #75, .T. ) ;
#28 = SURFACE_STYLE_USAGE ( .BOTH. , #156 ) ;
#29 = DIRECTION ( 'NONE',  ( 1.224646799147353207E-16, 0.0000000000000000000, 1.000000000000000000 ) ) ;
#30 = CARTESIAN_POINT ( 'NONE',  ( 0.3539761695000003261, 0.0000000000000000000, 2.952755999999999936 ) ) ;
#31 = VERTEX_POINT ( 'NONE', #217 ) ;
#32 = CYLINDRICAL_SURFACE ( 'NONE', #21, 0.3543304999999999927 ) ;
#33 = DIRECTION ( 'NONE',  ( -0.1736481776669311916, 2.126576849575783316E-17, 0.9848077530122080203 ) ) ;
#34 = PRESENTATION_LAYER_ASSIGNMENT (  '', '', ( #25 ) ) ;
#35 = EDGE_LOOP ( 'NONE', ( #61, #101 ) ) ;
#36 =( NAMED_UNIT ( * ) SI_UNIT ( $, .STERADIAN. ) SOLID_ANGLE_UNIT ( ) );
#37 = EDGE_CURVE ( 'NONE', #157, #121, #276, .T. ) ;
#38 = CARTESIAN_POINT ( 'NONE',  ( 0.0000000000000000000, 0.0000000000000000000, 5.905511999999999873 ) ) ;
#39 = EDGE_LOOP ( 'NONE', ( #285, #178, #204, #247 ) ) ;
#40 = EDGE_LOOP ( 'NONE', ( #23, #233, #63, #222 ) ) ;
#41 = AXIS2_PLACEMENT_3D ( 'NONE', #95, #24, #187 ) ;
#42 = COLOUR_RGB ( '',0.7921568627450980005, 0.8196078431372548767, 0.9333333333333333481 ) ;
#43 = EDGE_CURVE ( 'NONE', #66, #19, #272, .T. ) ;
#44 = ORIENTED_EDGE ( 'NONE', *, *, #15, .F. ) ;
#45 = CARTESIAN_POINT ( 'NONE',  ( 0.0000000000000000000, 0.0000000000000000000, 0.0000000000000000000 ) ) ;
#46 = AXIS2_PLACEMENT_3D ( 'NONE', #255, #143, #147 ) ;
#47 = CIRCLE ( 'NONE', #17, 0.3543304999999999927 ) ;
#48 = EDGE_CURVE ( 'NONE', #9, #31, #69, .T. ) ;
#49 = ORIENTED_EDGE ( 'NONE', *, *, #266, .F. ) ;
#50 = PLANE ( 'NONE',  #212 ) ;
#51 = AXIS2_PLACEMENT_3D ( 'NONE', #282, #98, #8 ) ;
#52 = ADVANCED_FACE ( 'NONE', ( #281 ), #145, .T. ) ;
#53 = CARTESIAN_POINT ( 'NONE',  ( 3.618544121753573079E-16, 0.0000000000000000000, 2.954765508122786155 ) ) ;
#54 = DIRECTION ( 'NONE',  ( 1.000000000000000000, 0.0000000000000000000, -0.0000000000000000000 ) ) ;
#55 = FACE_OUTER_BOUND ( 'NONE', #86, .T. ) ;
#56 = CARTESIAN_POINT ( 'NONE',  ( -0.3539761694999999930, 0.0000000000000000000, 8.669915659052318686E-17 ) ) ;
#57 = ADVANCED_FACE ( 'NONE', ( #186 ), #275, .T. ) ;
#58 = FILL_AREA_STYLE ('',( #62 ) ) ;
#59 = CIRCLE ( 'NONE', #283, 0.3539761694999999930 ) ;
#60 = CIRCLE ( 'NONE', #116, 0.3539761694999999930 ) ;
#61 = ORIENTED_EDGE ( 'NONE', *, *, #20, .T. ) ;
#62 = FILL_AREA_STYLE_COLOUR ( '', #42 ) ;
#63 = ORIENTED_EDGE ( 'NONE', *, *, #238, .F. ) ;
#64 = CARTESIAN_POINT ( 'NONE',  ( -0.3543304999999999927, 0.0000000000000000000, 5.890512000000001969 ) ) ;
#65 = ORIENTED_EDGE ( 'NONE', *, *, #5, .T. ) ;
#66 = VERTEX_POINT ( 'NONE', #254 ) ;
#67 = CIRCLE ( 'NONE', #286, 0.3543304999999999927 ) ;
#68 =( NAMED_UNIT ( * ) PLANE_ANGLE_UNIT ( ) SI_UNIT ( $, .RADIAN. ) );
#69 = CIRCLE ( 'NONE', #46, 0.3393305000000013671 ) ;
#70 = PRODUCT_DEFINITION_FORMATION_WITH_SPECIFIED_SOURCE ( 'ANY', '', #274, .NOT_KNOWN. ) ;
#71 = DIRECTION ( 'NONE',  ( 1.000000000000000000, 0.0000000000000000000, 0.0000000000000000000 ) ) ;
#72 = ADVANCED_FACE ( 'NONE', ( #263 ), #50, .T. ) ;
#73 = ORIENTED_EDGE ( 'NONE', *, *, #238, .T. ) ;
#74 = CARTESIAN_POINT ( 'NONE',  ( 0.0000000000000000000, 0.0000000000000000000, 5.905511999999999873 ) ) ;
#75 = CIRCLE ( 'NONE', #160, 0.3543304999999999927 ) ;
#76 = DIRECTION ( 'NONE',  ( 1.224646799147353207E-16, 0.0000000000000000000, 1.000000000000000000 ) ) ;
#77 = STYLED_ITEM ( 'NONE', ( #242 ), #207 ) ;
#78 = DIRECTION ( 'NONE',  ( 1.000000000000000000, 0.0000000000000000000, 0.0000000000000000000 ) ) ;
#79 = DIRECTION ( 'NONE',  ( 1.000000000000000000, 0.0000000000000000000, -0.0000000000000000000 ) ) ;
#80 = DIMENSIONAL_EXPONENTS ( 1.000000000000000000, 0.0000000000000000000, 0.0000000000000000000, 0.0000000000000000000, 0.0000000000000000000, 0.0000000000000000000, 0.0000000000000000000 ) ;
#81 = CARTESIAN_POINT ( 'NONE',  ( 0.0000000000000000000, 0.0000000000000000000, 5.905511999999999873 ) ) ;
#82 = LINE ( 'NONE', #175, #181 ) ;
#83 = CARTESIAN_POINT ( 'NONE',  ( 3.616083184063142379E-16, 0.0000000000000000000, 2.952755999999999936 ) ) ;
#84 = CARTESIAN_POINT ( 'NONE',  ( 3.618544121753573079E-16, 0.0000000000000000000, 2.954765508122786155 ) ) ;
#85 = ADVANCED_FACE ( 'NONE', ( #55 ), #258, .T. ) ;
#86 = EDGE_LOOP ( 'NONE', ( #113, #253, #295, #215 ) ) ;
#87 = APPLICATION_PROTOCOL_DEFINITION ( 'draft international standard', 'automotive_design', 1998, #149 ) ;
#88 = ORIENTED_EDGE ( 'NONE', *, *, #91, .T. ) ;
#89 =( NAMED_UNIT ( * ) SI_UNIT ( $, .STERADIAN. ) SOLID_ANGLE_UNIT ( ) );
#90 =( CONVERSION_BASED_UNIT ( 'INCH', #110 ) LENGTH_UNIT ( ) NAMED_UNIT ( #102 ) );
#91 = EDGE_CURVE ( 'NONE', #294, #66, #6, .T. ) ;
#92 = AXIS2_PLACEMENT_3D ( 'NONE', #264, #211, #236 ) ;
#93 = MECHANICAL_DESIGN_GEOMETRIC_PRESENTATION_REPRESENTATION (  '', ( #25 ), #213 ) ;
#94 = CARTESIAN_POINT ( 'NONE',  ( 0.3393305000000013671, 4.247448616716769688E-17, 5.905511999999999873 ) ) ;
#95 = CARTESIAN_POINT ( 'NONE',  ( 5.308792230367967873E-33, 0.0000000000000000000, 4.334957829526159343E-17 ) ) ;
#96 = DIRECTION ( 'NONE',  ( 1.000000000000000000, 0.0000000000000000000, 0.0000000000000000000 ) ) ;
#97 = AXIS2_PLACEMENT_3D ( 'NONE', #153, #170, #79 ) ;
#98 = DIRECTION ( 'NONE',  ( 0.0000000000000000000, 0.0000000000000000000, -1.000000000000000000 ) ) ;
#99 = ADVANCED_FACE ( 'NONE', ( #148 ), #152, .T. ) ;
#100 = CARTESIAN_POINT ( 'NONE',  ( 0.3539761694999999930, 4.334957829526159343E-17, 0.0000000000000000000 ) ) ;
#101 = ORIENTED_EDGE ( 'NONE', *, *, #185, .T. ) ;
#102 = DIMENSIONAL_EXPONENTS ( 1.000000000000000000, 0.0000000000000000000, 0.0000000000000000000, 0.0000000000000000000, 0.0000000000000000000, 0.0000000000000000000, 0.0000000000000000000 ) ;
#103 = FACE_OUTER_BOUND ( 'NONE', #126, .T. ) ;
#104 = DIRECTION ( 'NONE',  ( 1.000000000000000000, 0.0000000000000000000, 0.0000000000000000000 ) ) ;
#105 =( NAMED_UNIT ( * ) PLANE_ANGLE_UNIT ( ) SI_UNIT ( $, .RADIAN. ) );
#106 = MECHANICAL_DESIGN_GEOMETRIC_PRESENTATION_REPRESENTATION (  '', ( #77 ), #245 ) ;
#107 = ADVANCED_FACE ( 'NONE', ( #216 ), #131, .T. ) ;
#108 = LINE ( 'NONE', #288, #130 ) ;
#109 = SURFACE_SIDE_STYLE ('',( #251 ) ) ;
#110 = LENGTH_MEASURE_WITH_UNIT ( LENGTH_MEASURE( 0.02539999999999999897 ), #289 );
#111 = CARTESIAN_POINT ( 'NONE',  ( 0.0000000000000000000, 0.0000000000000000000, 5.890512000000001969 ) ) ;
#112 = AXIS2_PLACEMENT_3D ( 'NONE', #199, #180, #183 ) ;
#113 = ORIENTED_EDGE ( 'NONE', *, *, #37, .F. ) ;
#114 = ORIENTED_EDGE ( 'NONE', *, *, #115, .F. ) ;
#115 = EDGE_CURVE ( 'NONE', #226, #179, #237, .T. ) ;
#116 = AXIS2_PLACEMENT_3D ( 'NONE', #83, #133, #271 ) ;
#117 = ORIENTED_EDGE ( 'NONE', *, *, #27, .F. ) ;
#118 = CIRCLE ( 'NONE', #292, 0.3539761694999999930 ) ;
#119 = ORIENTED_EDGE ( 'NONE', *, *, #166, .T. ) ;
#120 = CYLINDRICAL_SURFACE ( 'NONE', #92, 0.3539761694999999930 ) ;
#121 = VERTEX_POINT ( 'NONE', #100 ) ;
#122 = UNCERTAINTY_MEASURE_WITH_UNIT (LENGTH_MEASURE( 1.000000000000000082E-05 ), #200, 'distance_accuracy_value', 'NONE');
#123 =( LENGTH_UNIT ( ) NAMED_UNIT ( * ) SI_UNIT ( $, .METRE. ) );
#124 = LENGTH_MEASURE_WITH_UNIT ( LENGTH_MEASURE( 0.02539999999999999897 ), #123 );
#125 = COLOUR_RGB ( '',0.7921568627450980005, 0.8196078431372548767, 0.9333333333333333481 ) ;
#126 = EDGE_LOOP ( 'NONE', ( #73, #119, #225, #136 ) ) ;
#127 = DIRECTION ( 'NONE',  ( -0.0000000000000000000, -0.0000000000000000000, -1.000000000000000000 ) ) ;
#128 = EDGE_LOOP ( 'NONE', ( #241, #132, #88, #117 ) ) ;
#129 = CARTESIAN_POINT ( 'NONE',  ( 0.3543305000000003258, 4.339297126652816661E-17, 2.954765508122786155 ) ) ;
#130 = VECTOR ( 'NONE', #33, 39.37007874015747433 ) ;
#131 = CONICAL_SURFACE ( 'NONE', #51, 0.3393305000000013671, 0.7853981633974482790 ) ;
#132 = ORIENTED_EDGE ( 'NONE', *, *, #189, .T. ) ;
#133 = DIRECTION ( 'NONE',  ( -1.224646799147353207E-16, -0.0000000000000000000, -1.000000000000000000 ) ) ;
#134 =( CONVERSION_BASED_UNIT ( 'INCH', #124 ) LENGTH_UNIT ( ) NAMED_UNIT ( #80 ) );
#135 = EDGE_LOOP ( 'NONE', ( #1, #154, #176, #114 ) ) ;
#136 = ORIENTED_EDGE ( 'NONE', *, *, #91, .F. ) ;
#137 = APPLICATION_PROTOCOL_DEFINITION ( 'draft international standard', 'automotive_design', 1998, #190 ) ;
#138 = ADVANCED_FACE ( 'NONE', ( #103 ), #32, .T. ) ;
#139 = ADVANCED_BREP_SHAPE_REPRESENTATION ( 'Micro_GELM-180-2X', ( #207, #22 ), #141 ) ;
#140 = VECTOR ( 'NONE', #171, 39.37007874015748854 ) ;
#141 =( GEOMETRIC_REPRESENTATION_CONTEXT ( 3 ) GLOBAL_UNCERTAINTY_ASSIGNED_CONTEXT ( ( #122 ) ) GLOBAL_UNIT_ASSIGNED_CONTEXT ( ( #200, #246, #36 ) ) REPRESENTATION_CONTEXT ( 'NONE', 'WORKASPACE' ) );
#142 = ADVANCED_FACE ( 'NONE', ( #193 ), #192, .F. ) ;
#143 = DIRECTION ( 'NONE',  ( 0.0000000000000000000, 0.0000000000000000000, 1.000000000000000000 ) ) ;
#144 = EDGE_LOOP ( 'NONE', ( #49, #65, #270, #44 ) ) ;
#145 = CONICAL_SURFACE ( 'NONE', #7, 0.3539761694999999930, 0.1745329251994338915 ) ;
#146 = CIRCLE ( 'NONE', #112, 0.3393305000000013671 ) ;
#147 = DIRECTION ( 'NONE',  ( 1.000000000000000000, 0.0000000000000000000, 0.0000000000000000000 ) ) ;
#148 = FACE_OUTER_BOUND ( 'NONE', #144, .T. ) ;
#149 = APPLICATION_CONTEXT ( 'automotive_design' ) ;
#150 = CARTESIAN_POINT ( 'NONE',  ( 0.0000000000000000000, 0.0000000000000000000, 0.0000000000000000000 ) ) ;
#151 = UNCERTAINTY_MEASURE_WITH_UNIT (LENGTH_MEASURE( 1.000000000000000082E-05 ), #90, 'distance_accuracy_value', 'NONE');
#152 = CONICAL_SURFACE ( 'NONE', #228, 0.3539761694999999930, 0.1745329251994338915 ) ;
#153 = CARTESIAN_POINT ( 'NONE',  ( 0.0000000000000000000, 0.0000000000000000000, 0.0000000000000000000 ) ) ;
#154 = ORIENTED_EDGE ( 'NONE', *, *, #37, .T. ) ;
#155 = EDGE_CURVE ( 'NONE', #31, #294, #256, .T. ) ;
#156 = SURFACE_SIDE_STYLE ('',( #239 ) ) ;
#157 = VERTEX_POINT ( 'NONE', #30 ) ;
#158 = DIRECTION ( 'NONE',  ( -1.000000000000000000, 0.0000000000000000000, 0.0000000000000000000 ) ) ;
#159 = CLOSED_SHELL ( 'NONE', ( #184, #99, #299, #138, #57, #72, #107, #52, #85, #142 ) ) ;
#160 = AXIS2_PLACEMENT_3D ( 'NONE', #53, #194, #219 ) ;
#161 =( NAMED_UNIT ( * ) SI_UNIT ( $, .STERADIAN. ) SOLID_ANGLE_UNIT ( ) );
#162 = PRODUCT_RELATED_PRODUCT_CATEGORY ( 'part', '', ( #274 ) ) ;
#163 = DIRECTION ( 'NONE',  ( -1.224646799147353207E-16, -0.0000000000000000000, -1.000000000000000000 ) ) ;
#164 = ORIENTED_EDGE ( 'NONE', *, *, #15, .T. ) ;
#165 = CONICAL_SURFACE ( 'NONE', #232, 0.3393305000000013671, 0.7853981633974482790 ) ;
#166 = EDGE_CURVE ( 'NONE', #265, #19, #82, .T. ) ;
#167 = VECTOR ( 'NONE', #127, 39.37007874015748143 ) ;
#168 = DIRECTION ( 'NONE',  ( -1.000000000000000000, 0.0000000000000000000, 0.0000000000000000000 ) ) ;
#169 = DIRECTION ( 'NONE',  ( -1.224646799147353207E-16, -0.0000000000000000000, -1.000000000000000000 ) ) ;
#170 = DIRECTION ( 'NONE',  ( 0.0000000000000000000, 0.0000000000000000000, 1.000000000000000000 ) ) ;
#171 = DIRECTION ( 'NONE',  ( -0.7071067811865474617, 0.0000000000000000000, -0.7071067811865474617 ) ) ;
#172 = DIRECTION ( 'NONE',  ( -1.224646799147353207E-16, -0.0000000000000000000, -1.000000000000000000 ) ) ;
#173 = DIRECTION ( 'NONE',  ( 0.0000000000000000000, 0.0000000000000000000, 1.000000000000000000 ) ) ;
#174 = DIRECTION ( 'NONE',  ( -0.0000000000000000000, -0.0000000000000000000, -1.000000000000000000 ) ) ;
#175 = CARTESIAN_POINT ( 'NONE',  ( 0.3543304999999999927, 4.339297126652812347E-17, 5.905511999999999873 ) ) ;
#176 = ORIENTED_EDGE ( 'NONE', *, *, #20, .F. ) ;
#177 = DIRECTION ( 'NONE',  ( 0.7071067811865474617, 8.659560562354932858E-17, -0.7071067811865474617 ) ) ;
#178 = ORIENTED_EDGE ( 'NONE', *, *, #261, .F. ) ;
#179 = VERTEX_POINT ( 'NONE', #56 ) ;
#180 = DIRECTION ( 'NONE',  ( 0.0000000000000000000, 0.0000000000000000000, 1.000000000000000000 ) ) ;
#181 = VECTOR ( 'NONE', #234, 39.37007874015748143 ) ;
#182 = FILL_AREA_STYLE ('',( #220 ) ) ;
#183 = DIRECTION ( 'NONE',  ( 1.000000000000000000, 0.0000000000000000000, 0.0000000000000000000 ) ) ;
#184 = ADVANCED_FACE ( 'NONE', ( #26 ), #120, .T. ) ;
#185 = EDGE_CURVE ( 'NONE', #121, #179, #59, .T. ) ;
#186 = FACE_OUTER_BOUND ( 'NONE', #128, .T. ) ;
#187 = DIRECTION ( 'NONE',  ( -1.000000000000000000, 0.0000000000000000000, 1.224646799147353207E-16 ) ) ;
#188 = CARTESIAN_POINT ( 'NONE',  ( 0.0000000000000000000, 0.0000000000000000000, 5.890512000000001969 ) ) ;
#189 = EDGE_CURVE ( 'NONE', #265, #294, #47, .T. ) ;
#190 = APPLICATION_CONTEXT ( 'automotive_design' ) ;
#191 = CARTESIAN_POINT ( 'NONE',  ( -0.3539761694999996600, 4.337127478089486461E-17, 2.952755999999999936 ) ) ;
#192 = PLANE ( 'NONE',  #97 ) ;
#193 = FACE_OUTER_BOUND ( 'NONE', #35, .T. ) ;
#194 = DIRECTION ( 'NONE',  ( -1.224646799147353207E-16, -0.0000000000000000000, -1.000000000000000000 ) ) ;
#195 = CARTESIAN_POINT ( 'NONE',  ( -0.3393305000000013671, 0.0000000000000000000, 5.905511999999999873 ) ) ;
#196 = CARTESIAN_POINT ( 'NONE',  ( 0.3539761695000003261, 0.0000000000000000000, 2.952755999999999936 ) ) ;
#197 = VECTOR ( 'NONE', #177, 39.37007874015748854 ) ;
#198 = SURFACE_STYLE_USAGE ( .BOTH. , #109 ) ;
#199 = CARTESIAN_POINT ( 'NONE',  ( 0.0000000000000000000, 0.0000000000000000000, 5.905511999999999873 ) ) ;
#200 =( CONVERSION_BASED_UNIT ( 'INCH', #16 ) LENGTH_UNIT ( ) NAMED_UNIT ( #259 ) );
#201 = VECTOR ( 'NONE', #169, 39.37007874015748143 ) ;
#202 = PRODUCT_DEFINITION ( 'UNKNOWN', '', #70, #278 ) ;
#203 = ORIENTED_EDGE ( 'NONE', *, *, #27, .T. ) ;
#204 = ORIENTED_EDGE ( 'NONE', *, *, #155, .T. ) ;
#205 = DIRECTION ( 'NONE',  ( 1.000000000000000000, 0.0000000000000000000, 0.0000000000000000000 ) ) ;
#206 = ORIENTED_EDGE ( 'NONE', *, *, #249, .F. ) ;
#207 = MANIFOLD_SOLID_BREP ( 'Cut-Revolve1', #159 ) ;
#208 = ORIENTED_EDGE ( 'NONE', *, *, #5, .F. ) ;
#209 = DIRECTION ( 'NONE',  ( 0.0000000000000000000, 0.0000000000000000000, -1.000000000000000000 ) ) ;
#210 = DIRECTION ( 'NONE',  ( -1.224646799147353207E-16, -0.0000000000000000000, -1.000000000000000000 ) ) ;
#211 = DIRECTION ( 'NONE',  ( -1.224646799147353207E-16, -0.0000000000000000000, -1.000000000000000000 ) ) ;
#212 = AXIS2_PLACEMENT_3D ( 'NONE', #284, #173, #54 ) ;
#213 =( GEOMETRIC_REPRESENTATION_CONTEXT ( 3 ) GLOBAL_UNCERTAINTY_ASSIGNED_CONTEXT ( ( #151 ) ) GLOBAL_UNIT_ASSIGNED_CONTEXT ( ( #90, #68, #89 ) ) REPRESENTATION_CONTEXT ( 'NONE', 'WORKASPACE' ) );
#214 = CARTESIAN_POINT ( 'NONE',  ( -0.3543304999999999927, 0.0000000000000000000, 5.905511999999999873 ) ) ;
#215 = ORIENTED_EDGE ( 'NONE', *, *, #185, .F. ) ;
#216 = FACE_OUTER_BOUND ( 'NONE', #39, .T. ) ;
#217 = CARTESIAN_POINT ( 'NONE',  ( -0.3393305000000013671, 0.0000000000000000000, 5.905511999999999873 ) ) ;
#218 = DIRECTION ( 'NONE',  ( -1.000000000000000000, 0.0000000000000000000, 0.0000000000000000000 ) ) ;
#219 = DIRECTION ( 'NONE',  ( 1.000000000000000000, 0.0000000000000000000, 0.0000000000000000000 ) ) ;
#220 = FILL_AREA_STYLE_COLOUR ( '', #125 ) ;
#221 = LINE ( 'NONE', #290, #197 ) ;
#222 = ORIENTED_EDGE ( 'NONE', *, *, #155, .F. ) ;
#223 = DIRECTION ( 'NONE',  ( 1.000000000000000000, 0.0000000000000000000, 0.0000000000000000000 ) ) ;
#224 = AXIS2_PLACEMENT_3D ( 'NONE', #84, #2, #104 ) ;
#225 = ORIENTED_EDGE ( 'NONE', *, *, #43, .F. ) ;
#226 = VERTEX_POINT ( 'NONE', #191 ) ;
#227 = EDGE_LOOP ( 'NONE', ( #208, #206, #164, #203 ) ) ;
#228 = AXIS2_PLACEMENT_3D ( 'NONE', #277, #76, #78 ) ;
#229 = PRODUCT_DEFINITION_SHAPE ( 'NONE', 'NONE',  #202 ) ;
#230 = CARTESIAN_POINT ( 'NONE',  ( 3.616083184063142379E-16, 0.0000000000000000000, 2.952755999999999936 ) ) ;
#231 = LINE ( 'NONE', #196, #291 ) ;
#232 = AXIS2_PLACEMENT_3D ( 'NONE', #38, #287, #158 ) ;
#233 = ORIENTED_EDGE ( 'NONE', *, *, #293, .T. ) ;
#234 = DIRECTION ( 'NONE',  ( -0.0000000000000000000, -0.0000000000000000000, -1.000000000000000000 ) ) ;
#235 = UNCERTAINTY_MEASURE_WITH_UNIT (LENGTH_MEASURE( 1.000000000000000082E-05 ), #134, 'distance_accuracy_value', 'NONE');
#236 = DIRECTION ( 'NONE',  ( -1.000000000000000000, 0.0000000000000000000, 1.224646799147353207E-16 ) ) ;
#237 = LINE ( 'NONE', #10, #296 ) ;
#238 = EDGE_CURVE ( 'NONE', #294, #265, #67, .T. ) ;
#239 = SURFACE_STYLE_FILL_AREA ( #58 ) ;
#240 = ORIENTED_EDGE ( 'NONE', *, *, #48, .T. ) ;
#241 = ORIENTED_EDGE ( 'NONE', *, *, #166, .F. ) ;
#242 = PRESENTATION_STYLE_ASSIGNMENT (( #28 ) ) ;
#243 = DIRECTION ( 'NONE',  ( 0.1736481776669313859, 0.0000000000000000000, 0.9848077530122077983 ) ) ;
#244 = AXIS2_PLACEMENT_3D ( 'NONE', #81, #174, #168 ) ;
#245 =( GEOMETRIC_REPRESENTATION_CONTEXT ( 3 ) GLOBAL_UNCERTAINTY_ASSIGNED_CONTEXT ( ( #235 ) ) GLOBAL_UNIT_ASSIGNED_CONTEXT ( ( #134, #105, #161 ) ) REPRESENTATION_CONTEXT ( 'NONE', 'WORKASPACE' ) );
#246 =( NAMED_UNIT ( * ) PLANE_ANGLE_UNIT ( ) SI_UNIT ( $, .RADIAN. ) );
#247 = ORIENTED_EDGE ( 'NONE', *, *, #189, .F. ) ;
#248 = CARTESIAN_POINT ( 'NONE',  ( 0.3543304999999999927, 4.339297126652812347E-17, 5.890512000000001969 ) ) ;
#249 = EDGE_CURVE ( 'NONE', #157, #226, #118, .T. ) ;
#250 = EDGE_LOOP ( 'NONE', ( #13, #240 ) ) ;
#251 = SURFACE_STYLE_FILL_AREA ( #182 ) ;
#252 = PRESENTATION_STYLE_ASSIGNMENT (( #198 ) ) ;
#253 = ORIENTED_EDGE ( 'NONE', *, *, #249, .T. ) ;
#254 = CARTESIAN_POINT ( 'NONE',  ( -0.3543304999999996596, 0.0000000000000000000, 2.954765508122786155 ) ) ;
#255 = CARTESIAN_POINT ( 'NONE',  ( 0.0000000000000000000, 0.0000000000000000000, 5.905511999999999873 ) ) ;
#256 = LINE ( 'NONE', #195, #140 ) ;
#257 = AXIS2_PLACEMENT_3D ( 'NONE', #150, #3, #280 ) ;
#258 = CYLINDRICAL_SURFACE ( 'NONE', #257, 0.3539761694999999930 ) ;
#259 = DIMENSIONAL_EXPONENTS ( 1.000000000000000000, 0.0000000000000000000, 0.0000000000000000000, 0.0000000000000000000, 0.0000000000000000000, 0.0000000000000000000, 0.0000000000000000000 ) ;
#260 = DIRECTION ( 'NONE',  ( -1.000000000000000000, 0.0000000000000000000, 0.0000000000000000000 ) ) ;
#261 = EDGE_CURVE ( 'NONE', #31, #9, #146, .T. ) ;
#262 = CARTESIAN_POINT ( 'NONE',  ( 5.308792230367967873E-33, 0.0000000000000000000, 4.334957829526159343E-17 ) ) ;
#263 = FACE_OUTER_BOUND ( 'NONE', #250, .T. ) ;
#264 = CARTESIAN_POINT ( 'NONE',  ( 0.0000000000000000000, 0.0000000000000000000, 0.0000000000000000000 ) ) ;
#265 = VERTEX_POINT ( 'NONE', #248 ) ;
#266 = EDGE_CURVE ( 'NONE', #226, #157, #60, .T. ) ;
#267 = FACE_OUTER_BOUND ( 'NONE', #40, .T. ) ;
#268 = CIRCLE ( 'NONE', #41, 0.3539761694999999930 ) ;
#269 = CARTESIAN_POINT ( 'NONE',  ( 3.616083184063142379E-16, 0.0000000000000000000, 2.952755999999999936 ) ) ;
#270 = ORIENTED_EDGE ( 'NONE', *, *, #43, .T. ) ;
#271 = DIRECTION ( 'NONE',  ( -1.000000000000000000, 0.0000000000000000000, 0.0000000000000000000 ) ) ;
#272 = CIRCLE ( 'NONE', #224, 0.3543304999999999927 ) ;
#273 = DIRECTION ( 'NONE',  ( 0.0000000000000000000, 0.0000000000000000000, 1.000000000000000000 ) ) ;
#274 = PRODUCT ( 'Micro_GELM-180-2X', 'Micro_GELM-180-2X', '', ( #298 ) ) ;
#275 = CYLINDRICAL_SURFACE ( 'NONE', #244, 0.3543304999999999927 ) ;
#276 = LINE ( 'NONE', #11, #201 ) ;
#277 = CARTESIAN_POINT ( 'NONE',  ( 3.616083184063142379E-16, 0.0000000000000000000, 2.952755999999999936 ) ) ;
#278 = PRODUCT_DEFINITION_CONTEXT ( 'detailed design', #190, 'design' ) ;
#279 = DIRECTION ( 'NONE',  ( -0.0000000000000000000, -0.0000000000000000000, -1.000000000000000000 ) ) ;
#280 = DIRECTION ( 'NONE',  ( -1.000000000000000000, 0.0000000000000000000, 1.224646799147353207E-16 ) ) ;
#281 = FACE_OUTER_BOUND ( 'NONE', #227, .T. ) ;
#282 = CARTESIAN_POINT ( 'NONE',  ( 0.0000000000000000000, 0.0000000000000000000, 5.905511999999999873 ) ) ;
#283 = AXIS2_PLACEMENT_3D ( 'NONE', #262, #210, #4 ) ;
#284 = CARTESIAN_POINT ( 'NONE',  ( 0.0000000000000000000, 0.0000000000000000000, 5.905511999999999873 ) ) ;
#285 = ORIENTED_EDGE ( 'NONE', *, *, #293, .F. ) ;
#286 = AXIS2_PLACEMENT_3D ( 'NONE', #111, #14, #223 ) ;
#287 = DIRECTION ( 'NONE',  ( 0.0000000000000000000, 0.0000000000000000000, -1.000000000000000000 ) ) ;
#288 = CARTESIAN_POINT ( 'NONE',  ( -0.3539761694999996600, 4.334957829526159343E-17, 2.952755999999999936 ) ) ;
#289 =( LENGTH_UNIT ( ) NAMED_UNIT ( * ) SI_UNIT ( $, .METRE. ) );
#290 = CARTESIAN_POINT ( 'NONE',  ( 0.3393305000000013671, 4.155600106780726413E-17, 5.905511999999999873 ) ) ;
#291 = VECTOR ( 'NONE', #243, 39.37007874015748143 ) ;
#292 = AXIS2_PLACEMENT_3D ( 'NONE', #269, #163, #218 ) ;
#293 = EDGE_CURVE ( 'NONE', #9, #265, #221, .T. ) ;
#294 = VERTEX_POINT ( 'NONE', #64 ) ;
#295 = ORIENTED_EDGE ( 'NONE', *, *, #115, .T. ) ;
#296 = VECTOR ( 'NONE', #172, 39.37007874015748143 ) ;
#297 = SHAPE_DEFINITION_REPRESENTATION ( #229, #139 ) ;
#298 = PRODUCT_CONTEXT ( 'NONE', #149, 'mechanical' ) ;
#299 = ADVANCED_FACE ( 'NONE', ( #267 ), #165, .T. ) ;
ENDSEC;
END-ISO-10303-21;
