ISO-10303-21;
HEADER;
FILE_DESCRIPTION (( 'STEP AP214' ),
    '1' );
FILE_NAME ('03015.STEP',
    '2023-06-22T14:50:26',
    ( '' ),
    ( '' ),
    'SwSTEP 2.0',
    'SolidWorks 2023',
    '' );
FILE_SCHEMA (( 'AUTOMOTIVE_DESIGN' ));
ENDSEC;

DATA;
#1 =( NAMED_UNIT ( * ) PLANE_ANGLE_UNIT ( ) SI_UNIT ( $, .RADIAN. ) );
#2 = ORIENTED_EDGE ( 'NONE', *, *, #80, .T. ) ;
#3 = ORIENTED_EDGE ( 'NONE', *, *, #300, .T. ) ;
#4 = PRESENTATION_LAYER_ASSIGNMENT (  '', '', ( #134 ) ) ;
#5 = AXIS2_PLACEMENT_3D ( 'NONE', #31, #72, #272 ) ;
#6 = LENGTH_MEASURE_WITH_UNIT ( LENGTH_MEASURE( 0.02539999999999999897 ), #293 );
#7 = CYLINDRICAL_SURFACE ( 'NONE', #161, 0.06249999999999967387 ) ;
#8 = AXIS2_PLACEMENT_3D ( 'NONE', #197, #275, #199 ) ;
#9 = APPLICATION_PROTOCOL_DEFINITION ( 'draft international standard', 'automotive_design', 1998, #26 ) ;
#10 = CARTESIAN_POINT ( 'NONE',  ( 0.000000000000000000, 0.2499999999999998057, 0.000000000000000000 ) ) ;
#11 = CIRCLE ( 'NONE', #49, 0.06250000000000001388 ) ;
#12 = ORIENTED_EDGE ( 'NONE', *, *, #300, .F. ) ;
#13 = VERTEX_POINT ( 'NONE', #188 ) ;
#14 = DIRECTION ( 'NONE',  ( 0.000000000000000000, 0.000000000000000000, -1.000000000000000000 ) ) ;
#15 = DIRECTION ( 'NONE',  ( -1.000000000000000000, 0.000000000000000000, 0.000000000000000000 ) ) ;
#16 = AXIS2_PLACEMENT_3D ( 'NONE', #70, #19, #115 ) ;
#17 = CARTESIAN_POINT ( 'NONE',  ( -0.06249999999999866773, 1.499999999999999778, 0.000000000000000000 ) ) ;
#18 = ORIENTED_EDGE ( 'NONE', *, *, #223, .T. ) ;
#19 = DIRECTION ( 'NONE',  ( 5.388445916248354013E-16, 1.000000000000000000, -0.000000000000000000 ) ) ;
#20 = EDGE_CURVE ( 'NONE', #47, #45, #22, .T. ) ;
#21 = ORIENTED_EDGE ( 'NONE', *, *, #75, .F. ) ;
#22 = CIRCLE ( 'NONE', #84, 0.06250000000000001388 ) ;
#23 = UNCERTAINTY_MEASURE_WITH_UNIT (LENGTH_MEASURE( 1.000000000000000082E-05 ), #273, 'distance_accuracy_value', 'NONE');
#24 = EDGE_LOOP ( 'NONE', ( #12, #210, #286, #283 ) ) ;
#25 =( NAMED_UNIT ( * ) SI_UNIT ( $, .STERADIAN. ) SOLID_ANGLE_UNIT ( ) );
#26 = APPLICATION_CONTEXT ( 'automotive_design' ) ;
#27 = CIRCLE ( 'NONE', #110, 0.06250000000000001388 ) ;
#28 = MECHANICAL_DESIGN_GEOMETRIC_PRESENTATION_REPRESENTATION (  '', ( #102 ), #141 ) ;
#29 = LINE ( 'NONE', #175, #64 ) ;
#30 = DIRECTION ( 'NONE',  ( 0.000000000000000000, -0.000000000000000000, 1.000000000000000000 ) ) ;
#31 = CARTESIAN_POINT ( 'NONE',  ( 0.000000000000000000, 0.000000000000000000, 0.000000000000000000 ) ) ;
#32 = PRODUCT_DEFINITION_SHAPE ( 'NONE', 'NONE',  #145 ) ;
#33 = SURFACE_STYLE_FILL_AREA ( #126 ) ;
#34 = FACE_OUTER_BOUND ( 'NONE', #308, .T. ) ;
#35 =( GEOMETRIC_REPRESENTATION_CONTEXT ( 3 ) GLOBAL_UNCERTAINTY_ASSIGNED_CONTEXT ( ( #256 ) ) GLOBAL_UNIT_ASSIGNED_CONTEXT ( ( #306, #111, #294 ) ) REPRESENTATION_CONTEXT ( 'NONE', 'WORKASPACE' ) );
#36 = CARTESIAN_POINT ( 'NONE',  ( -1.213184216936841517E-31, 0.2499999999999998057, 0.000000000000000000 ) ) ;
#37 = ADVANCED_BREP_SHAPE_REPRESENTATION ( '03015', ( #144, #44, #267 ), #91 ) ;
#38 = UNCERTAINTY_MEASURE_WITH_UNIT (LENGTH_MEASURE( 1.000000000000000082E-05 ), #92, 'distance_accuracy_value', 'NONE');
#39 = ORIENTED_EDGE ( 'NONE', *, *, #201, .F. ) ;
#40 = STYLED_ITEM ( 'NONE', ( #69 ), #44 ) ;
#41 = ORIENTED_EDGE ( 'NONE', *, *, #113, .T. ) ;
#42 = CARTESIAN_POINT ( 'NONE',  ( 0.000000000000000000, 0.2499999999999998057, -0.06250000000000001388 ) ) ;
#43 = VECTOR ( 'NONE', #261, 39.37007874015748143 ) ;
#44 = MANIFOLD_SOLID_BREP ( 'Revolve - Tool Body (Straight Shanked)', #68 ) ;
#45 = VERTEX_POINT ( 'NONE', #96 ) ;
#46 = DIRECTION ( 'NONE',  ( 0.000000000000000000, 0.000000000000000000, -1.000000000000000000 ) ) ;
#47 = VERTEX_POINT ( 'NONE', #236 ) ;
#48 = CARTESIAN_POINT ( 'NONE',  ( 6.735557395310442023E-16, 1.499999999999999778, 0.000000000000000000 ) ) ;
#49 = AXIS2_PLACEMENT_3D ( 'NONE', #129, #176, #81 ) ;
#50 = SURFACE_STYLE_USAGE ( .BOTH. , #94 ) ;
#51 = PLANE ( 'NONE',  #5 ) ;
#52 = SURFACE_STYLE_FILL_AREA ( #118 ) ;
#53 = FILL_AREA_STYLE ('',( #213 ) ) ;
#54 = SURFACE_SIDE_STYLE ('',( #301 ) ) ;
#55 = MECHANICAL_DESIGN_GEOMETRIC_PRESENTATION_REPRESENTATION (  '', ( #307 ), #224 ) ;
#56 = CARTESIAN_POINT ( 'NONE',  ( 0.000000000000000000, 0.000000000000000000, 0.000000000000000000 ) ) ;
#57 = ADVANCED_FACE ( 'NONE', ( #271 ), #234, .T. ) ;
#58 = PRESENTATION_STYLE_ASSIGNMENT (( #82 ) ) ;
#59 = VECTOR ( 'NONE', #165, 39.37007874015748143 ) ;
#60 = SURFACE_STYLE_USAGE ( .BOTH. , #281 ) ;
#61 = EDGE_CURVE ( 'NONE', #182, #229, #245, .T. ) ;
#62 = ORIENTED_EDGE ( 'NONE', *, *, #113, .F. ) ;
#63 = PRESENTATION_LAYER_ASSIGNMENT (  '', '', ( #307 ) ) ;
#64 = VECTOR ( 'NONE', #120, 39.37007874015748143 ) ;
#65 = DIRECTION ( 'NONE',  ( -1.000000000000000000, 5.463695987328525451E-16, 0.000000000000000000 ) ) ;
#66 = SURFACE_STYLE_FILL_AREA ( #233 ) ;
#67 = SURFACE_SIDE_STYLE ('',( #66 ) ) ;
#68 = CLOSED_SHELL ( 'NONE', ( #203, #309, #166, #108 ) ) ;
#69 = PRESENTATION_STYLE_ASSIGNMENT (( #219 ) ) ;
#70 = CARTESIAN_POINT ( 'NONE',  ( 6.735557395310442023E-16, 1.499999999999999778, 0.000000000000000000 ) ) ;
#71 = ORIENTED_EDGE ( 'NONE', *, *, #20, .T. ) ;
#72 = DIRECTION ( 'NONE',  ( 0.000000000000000000, -1.000000000000000000, -0.000000000000000000 ) ) ;
#73 = PRODUCT ( '03015', '03015', '', ( #255 ) ) ;
#74 = ORIENTED_EDGE ( 'NONE', *, *, #216, .T. ) ;
#75 = EDGE_CURVE ( 'NONE', #13, #228, #237, .T. ) ;
#76 = DIRECTION ( 'NONE',  ( -0.000000000000000000, -1.000000000000000000, -0.000000000000000000 ) ) ;
#77 = SURFACE_STYLE_FILL_AREA ( #53 ) ;
#78 =( CONVERSION_BASED_UNIT ( 'INCH', #125 ) LENGTH_UNIT ( ) NAMED_UNIT ( #254 ) );
#79 = SURFACE_STYLE_USAGE ( .BOTH. , #148 ) ;
#80 = EDGE_CURVE ( 'NONE', #45, #47, #11, .T. ) ;
#81 = DIRECTION ( 'NONE',  ( 0.000000000000000000, 0.000000000000000000, -1.000000000000000000 ) ) ;
#82 = SURFACE_STYLE_USAGE ( .BOTH. , #54 ) ;
#83 = DIRECTION ( 'NONE',  ( -0.000000000000000000, -1.000000000000000000, -0.000000000000000000 ) ) ;
#84 = AXIS2_PLACEMENT_3D ( 'NONE', #194, #76, #189 ) ;
#85 = DIMENSIONAL_EXPONENTS ( 1.000000000000000000, 0.000000000000000000, 0.000000000000000000, 0.000000000000000000, 0.000000000000000000, 0.000000000000000000, 0.000000000000000000 ) ;
#86 = PRODUCT_RELATED_PRODUCT_CATEGORY ( 'part', '', ( #73 ) ) ;
#87 = STYLED_ITEM ( 'NONE', ( #154 ), #144 ) ;
#88 = CARTESIAN_POINT ( 'NONE',  ( 0.000000000000000000, 0.2499999999999998057, 0.000000000000000000 ) ) ;
#89 = UNCERTAINTY_MEASURE_WITH_UNIT (LENGTH_MEASURE( 1.000000000000000082E-05 ), #78, 'distance_accuracy_value', 'NONE');
#90 = FILL_AREA_STYLE_COLOUR ( '', #279 ) ;
#91 =( GEOMETRIC_REPRESENTATION_CONTEXT ( 3 ) GLOBAL_UNCERTAINTY_ASSIGNED_CONTEXT ( ( #23 ) ) GLOBAL_UNIT_ASSIGNED_CONTEXT ( ( #273, #270, #143 ) ) REPRESENTATION_CONTEXT ( 'NONE', 'WORKASPACE' ) );
#92 =( CONVERSION_BASED_UNIT ( 'INCH', #242 ) LENGTH_UNIT ( ) NAMED_UNIT ( #107 ) );
#93 = LENGTH_MEASURE_WITH_UNIT ( LENGTH_MEASURE( 0.02539999999999999897 ), #258 );
#94 = SURFACE_SIDE_STYLE ('',( #77 ) ) ;
#95 = PRESENTATION_STYLE_ASSIGNMENT (( #79 ) ) ;
#96 = CARTESIAN_POINT ( 'NONE',  ( 7.654042494670959086E-18, 0.000000000000000000, 0.06250000000000001388 ) ) ;
#97 = DIRECTION ( 'NONE',  ( 5.388445916248354013E-16, 1.000000000000000000, -0.000000000000000000 ) ) ;
#98 = EDGE_LOOP ( 'NONE', ( #18, #74, #62, #116 ) ) ;
#99 = DIRECTION ( 'NONE',  ( -1.000000000000000000, 5.388445916248354013E-16, 0.000000000000000000 ) ) ;
#100 =( GEOMETRIC_REPRESENTATION_CONTEXT ( 3 ) GLOBAL_UNCERTAINTY_ASSIGNED_CONTEXT ( ( #38 ) ) GLOBAL_UNIT_ASSIGNED_CONTEXT ( ( #92, #217, #25 ) ) REPRESENTATION_CONTEXT ( 'NONE', 'WORKASPACE' ) );
#101 = COLOUR_RGB ( '',0.7921568627450980005, 0.8196078431372548767, 0.9333333333333333481 ) ;
#102 = STYLED_ITEM ( 'NONE', ( #95 ), #303 ) ;
#103 = DIRECTION ( 'NONE',  ( 0.000000000000000000, 0.000000000000000000, -1.000000000000000000 ) ) ;
#104 = PRESENTATION_LAYER_ASSIGNMENT (  '', '', ( #284 ) ) ;
#105 = SHAPE_DEFINITION_REPRESENTATION ( #32, #37 ) ;
#106 = EDGE_LOOP ( 'NONE', ( #114, #21 ) ) ;
#107 = DIMENSIONAL_EXPONENTS ( 1.000000000000000000, 0.000000000000000000, 0.000000000000000000, 0.000000000000000000, 0.000000000000000000, 0.000000000000000000, 0.000000000000000000 ) ;
#108 = ADVANCED_FACE ( 'NONE', ( #173 ), #151, .F. ) ;
#109 = CARTESIAN_POINT ( 'NONE',  ( 6.735557395310442023E-16, 1.499999999999999778, 0.000000000000000000 ) ) ;
#110 = AXIS2_PLACEMENT_3D ( 'NONE', #88, #264, #46 ) ;
#111 =( NAMED_UNIT ( * ) PLANE_ANGLE_UNIT ( ) SI_UNIT ( $, .RADIAN. ) );
#112 = CYLINDRICAL_SURFACE ( 'NONE', #251, 0.06250000000000001388 ) ;
#113 = EDGE_CURVE ( 'NONE', #170, #232, #122, .T. ) ;
#114 = ORIENTED_EDGE ( 'NONE', *, *, #223, .F. ) ;
#115 = DIRECTION ( 'NONE',  ( -1.000000000000000000, 0.000000000000000000, 0.000000000000000000 ) ) ;
#116 = ORIENTED_EDGE ( 'NONE', *, *, #262, .F. ) ;
#117 = FACE_OUTER_BOUND ( 'NONE', #24, .T. ) ;
#118 = FILL_AREA_STYLE ('',( #123 ) ) ;
#119 = SURFACE_SIDE_STYLE ('',( #52 ) ) ;
#120 = DIRECTION ( 'NONE',  ( -0.000000000000000000, -1.000000000000000000, -0.000000000000000000 ) ) ;
#121 = ORIENTED_EDGE ( 'NONE', *, *, #20, .F. ) ;
#122 = CIRCLE ( 'NONE', #196, 0.06249999999999934081 ) ;
#123 = FILL_AREA_STYLE_COLOUR ( '', #185 ) ;
#124 = FILL_AREA_STYLE_COLOUR ( '', #101 ) ;
#125 = LENGTH_MEASURE_WITH_UNIT ( LENGTH_MEASURE( 0.02539999999999999897 ), #252 );
#126 = FILL_AREA_STYLE ('',( #243 ) ) ;
#127 = DIRECTION ( 'NONE',  ( 5.388445916248354013E-16, 1.000000000000000000, -0.000000000000000000 ) ) ;
#128 = AXIS2_PLACEMENT_3D ( 'NONE', #277, #226, #14 ) ;
#129 = CARTESIAN_POINT ( 'NONE',  ( 0.000000000000000000, 0.000000000000000000, 0.000000000000000000 ) ) ;
#130 = EDGE_LOOP ( 'NONE', ( #132, #3, #121, #168 ) ) ;
#131 = ADVANCED_FACE ( 'NONE', ( #34 ), #247, .T. ) ;
#132 = ORIENTED_EDGE ( 'NONE', *, *, #201, .T. ) ;
#133 =( LENGTH_UNIT ( ) NAMED_UNIT ( * ) SI_UNIT ( $, .METRE. ) );
#134 = STYLED_ITEM ( 'NONE', ( #208 ), #278 ) ;
#135 = LINE ( 'NONE', #235, #43 ) ;
#136 = UNCERTAINTY_MEASURE_WITH_UNIT (LENGTH_MEASURE( 1.000000000000000082E-05 ), #193, 'distance_accuracy_value', 'NONE');
#137 =( LENGTH_UNIT ( ) NAMED_UNIT ( * ) SI_UNIT ( $, .METRE. ) );
#138 = ORIENTED_EDGE ( 'NONE', *, *, #216, .F. ) ;
#139 = CARTESIAN_POINT ( 'NONE',  ( -1.213184216936841517E-31, 0.2499999999999998057, 0.000000000000000000 ) ) ;
#140 = CLOSED_SHELL ( 'NONE', ( #57, #131, #278, #303 ) ) ;
#141 =( GEOMETRIC_REPRESENTATION_CONTEXT ( 3 ) GLOBAL_UNCERTAINTY_ASSIGNED_CONTEXT ( ( #136 ) ) GLOBAL_UNIT_ASSIGNED_CONTEXT ( ( #193, #1, #268 ) ) REPRESENTATION_CONTEXT ( 'NONE', 'WORKASPACE' ) );
#142 = PLANE ( 'NONE',  #280 ) ;
#143 =( NAMED_UNIT ( * ) SI_UNIT ( $, .STERADIAN. ) SOLID_ANGLE_UNIT ( ) );
#144 = MANIFOLD_SOLID_BREP ( 'Revolve - Cutting Edge', #140 ) ;
#145 = PRODUCT_DEFINITION ( 'UNKNOWN', '', #162, #159 ) ;
#146 = MECHANICAL_DESIGN_GEOMETRIC_PRESENTATION_REPRESENTATION (  '', ( #87 ), #35 ) ;
#147 =( NAMED_UNIT ( * ) PLANE_ANGLE_UNIT ( ) SI_UNIT ( $, .RADIAN. ) );
#148 = SURFACE_SIDE_STYLE ('',( #33 ) ) ;
#149 =( NAMED_UNIT ( * ) SI_UNIT ( $, .STERADIAN. ) SOLID_ANGLE_UNIT ( ) );
#150 = FACE_OUTER_BOUND ( 'NONE', #269, .T. ) ;
#151 = PLANE ( 'NONE',  #8 ) ;
#152 = AXIS2_PLACEMENT_3D ( 'NONE', #139, #164, #65 ) ;
#153 = DIMENSIONAL_EXPONENTS ( 1.000000000000000000, 0.000000000000000000, 0.000000000000000000, 0.000000000000000000, 0.000000000000000000, 0.000000000000000000, 0.000000000000000000 ) ;
#154 = PRESENTATION_STYLE_ASSIGNMENT (( #60 ) ) ;
#155 = DIMENSIONAL_EXPONENTS ( 1.000000000000000000, 0.000000000000000000, 0.000000000000000000, 0.000000000000000000, 0.000000000000000000, 0.000000000000000000, 0.000000000000000000 ) ;
#156 = ORIENTED_EDGE ( 'NONE', *, *, #171, .F. ) ;
#157 = MECHANICAL_DESIGN_GEOMETRIC_PRESENTATION_REPRESENTATION (  '', ( #40 ), #100 ) ;
#158 = CARTESIAN_POINT ( 'NONE',  ( 7.654042494670959086E-18, 0.2499999999999998057, 0.06250000000000001388 ) ) ;
#159 = PRODUCT_DEFINITION_CONTEXT ( 'detailed design', #26, 'design' ) ;
#160 = SURFACE_STYLE_USAGE ( .BOTH. , #67 ) ;
#161 = AXIS2_PLACEMENT_3D ( 'NONE', #48, #289, #187 ) ;
#162 = PRODUCT_DEFINITION_FORMATION_WITH_SPECIFIED_SOURCE ( 'ANY', '', #73, .NOT_KNOWN. ) ;
#163 =( NAMED_UNIT ( * ) PLANE_ANGLE_UNIT ( ) SI_UNIT ( $, .RADIAN. ) );
#164 = DIRECTION ( 'NONE',  ( 5.388445916248354013E-16, 1.000000000000000000, -0.000000000000000000 ) ) ;
#165 = DIRECTION ( 'NONE',  ( 5.388445916248354013E-16, 1.000000000000000000, -0.000000000000000000 ) ) ;
#166 = ADVANCED_FACE ( 'NONE', ( #240 ), #7, .T. ) ;
#167 = PRESENTATION_LAYER_ASSIGNMENT (  '', '', ( #87 ) ) ;
#168 = ORIENTED_EDGE ( 'NONE', *, *, #206, .F. ) ;
#169 = FACE_OUTER_BOUND ( 'NONE', #106, .T. ) ;
#170 = VERTEX_POINT ( 'NONE', #17 ) ;
#171 = EDGE_CURVE ( 'NONE', #232, #170, #259, .T. ) ;
#172 = APPLICATION_CONTEXT ( 'automotive_design' ) ;
#173 = FACE_OUTER_BOUND ( 'NONE', #253, .T. ) ;
#174 =( LENGTH_UNIT ( ) NAMED_UNIT ( * ) SI_UNIT ( $, .METRE. ) );
#175 = CARTESIAN_POINT ( 'NONE',  ( 7.654042494670959086E-18, 0.000000000000000000, 0.06250000000000001388 ) ) ;
#176 = DIRECTION ( 'NONE',  ( -0.000000000000000000, -1.000000000000000000, -0.000000000000000000 ) ) ;
#177 = DIRECTION ( 'NONE',  ( 0.000000000000000000, 0.000000000000000000, 1.000000000000000000 ) ) ;
#178 =( NAMED_UNIT ( * ) SI_UNIT ( $, .STERADIAN. ) SOLID_ANGLE_UNIT ( ) );
#179 = FILL_AREA_STYLE_COLOUR ( '', #266 ) ;
#180 = DIRECTION ( 'NONE',  ( 1.000000000000000000, 0.000000000000000000, 0.000000000000000000 ) ) ;
#181 = DIMENSIONAL_EXPONENTS ( 1.000000000000000000, 0.000000000000000000, 0.000000000000000000, 0.000000000000000000, 0.000000000000000000, 0.000000000000000000, 0.000000000000000000 ) ;
#182 = VERTEX_POINT ( 'NONE', #158 ) ;
#183 = MECHANICAL_DESIGN_GEOMETRIC_PRESENTATION_REPRESENTATION (  '', ( #284 ), #218 ) ;
#184 = CARTESIAN_POINT ( 'NONE',  ( 6.735557395310442023E-16, 1.499999999999999778, 0.000000000000000000 ) ) ;
#185 = COLOUR_RGB ( '',0.7921568627450980005, 0.8196078431372548767, 0.9333333333333333481 ) ;
#186 = FACE_OUTER_BOUND ( 'NONE', #98, .T. ) ;
#187 = DIRECTION ( 'NONE',  ( -1.000000000000000000, 0.000000000000000000, 0.000000000000000000 ) ) ;
#188 = CARTESIAN_POINT ( 'NONE',  ( 0.06250000000000001388, 0.2499999999999997502, 7.654042494670939056E-18 ) ) ;
#189 = DIRECTION ( 'NONE',  ( 0.000000000000000000, 0.000000000000000000, -1.000000000000000000 ) ) ;
#190 = LENGTH_MEASURE_WITH_UNIT ( LENGTH_MEASURE( 0.02539999999999999897 ), #241 );
#191 =( GEOMETRIC_REPRESENTATION_CONTEXT ( 3 ) GLOBAL_UNCERTAINTY_ASSIGNED_CONTEXT ( ( #288 ) ) GLOBAL_UNIT_ASSIGNED_CONTEXT ( ( #231, #163, #220 ) ) REPRESENTATION_CONTEXT ( 'NONE', 'WORKASPACE' ) );
#192 =( CONVERSION_BASED_UNIT ( 'INCH', #6 ) LENGTH_UNIT ( ) NAMED_UNIT ( #85 ) );
#193 =( CONVERSION_BASED_UNIT ( 'INCH', #248 ) LENGTH_UNIT ( ) NAMED_UNIT ( #153 ) );
#194 = CARTESIAN_POINT ( 'NONE',  ( 0.000000000000000000, 0.000000000000000000, 0.000000000000000000 ) ) ;
#195 = DIRECTION ( 'NONE',  ( -1.000000000000000000, 5.463695987328525451E-16, 0.000000000000000000 ) ) ;
#196 = AXIS2_PLACEMENT_3D ( 'NONE', #109, #205, #249 ) ;
#197 = CARTESIAN_POINT ( 'NONE',  ( 0.06250000000000001388, 1.499999999999999778, 0.000000000000000000 ) ) ;
#198 = MECHANICAL_DESIGN_GEOMETRIC_PRESENTATION_REPRESENTATION (  '', ( #134 ), #191 ) ;
#199 = DIRECTION ( 'NONE',  ( 1.000000000000000000, -5.388445916248354013E-16, 0.000000000000000000 ) ) ;
#200 = SURFACE_STYLE_FILL_AREA ( #276 ) ;
#201 = EDGE_CURVE ( 'NONE', #229, #182, #27, .T. ) ;
#202 = VECTOR ( 'NONE', #305, 39.37007874015748143 ) ;
#203 = ADVANCED_FACE ( 'NONE', ( #186 ), #214, .T. ) ;
#204 = ORIENTED_EDGE ( 'NONE', *, *, #61, .F. ) ;
#205 = DIRECTION ( 'NONE',  ( 5.388445916248354013E-16, 1.000000000000000000, -0.000000000000000000 ) ) ;
#206 = EDGE_CURVE ( 'NONE', #229, #47, #212, .T. ) ;
#207 = CARTESIAN_POINT ( 'NONE',  ( 0.000000000000000000, 0.000000000000000000, -0.06250000000000001388 ) ) ;
#208 = PRESENTATION_STYLE_ASSIGNMENT (( #160 ) ) ;
#209 = LENGTH_MEASURE_WITH_UNIT ( LENGTH_MEASURE( 0.02539999999999999897 ), #133 );
#210 = ORIENTED_EDGE ( 'NONE', *, *, #61, .T. ) ;
#211 = AXIS2_PLACEMENT_3D ( 'NONE', #246, #222, #30 ) ;
#212 = LINE ( 'NONE', #207, #202 ) ;
#213 = FILL_AREA_STYLE_COLOUR ( '', #238 ) ;
#214 = CYLINDRICAL_SURFACE ( 'NONE', #250, 0.06249999999999967387 ) ;
#215 = CARTESIAN_POINT ( 'NONE',  ( 9.073546685104240443E-33, 0.2499999999999998057, 0.000000000000000000 ) ) ;
#216 = EDGE_CURVE ( 'NONE', #13, #232, #290, .T. ) ;
#217 =( NAMED_UNIT ( * ) PLANE_ANGLE_UNIT ( ) SI_UNIT ( $, .RADIAN. ) );
#218 =( GEOMETRIC_REPRESENTATION_CONTEXT ( 3 ) GLOBAL_UNCERTAINTY_ASSIGNED_CONTEXT ( ( #260 ) ) GLOBAL_UNIT_ASSIGNED_CONTEXT ( ( #192, #147, #178 ) ) REPRESENTATION_CONTEXT ( 'NONE', 'WORKASPACE' ) );
#219 = SURFACE_STYLE_USAGE ( .BOTH. , #119 ) ;
#220 =( NAMED_UNIT ( * ) SI_UNIT ( $, .STERADIAN. ) SOLID_ANGLE_UNIT ( ) );
#221 = APPLICATION_PROTOCOL_DEFINITION ( 'draft international standard', 'automotive_design', 1998, #172 ) ;
#222 = DIRECTION ( 'NONE',  ( 0.000000000000000000, 1.000000000000000000, 0.000000000000000000 ) ) ;
#223 = EDGE_CURVE ( 'NONE', #228, #13, #295, .T. ) ;
#224 =( GEOMETRIC_REPRESENTATION_CONTEXT ( 3 ) GLOBAL_UNCERTAINTY_ASSIGNED_CONTEXT ( ( #89 ) ) GLOBAL_UNIT_ASSIGNED_CONTEXT ( ( #78, #225, #149 ) ) REPRESENTATION_CONTEXT ( 'NONE', 'WORKASPACE' ) );
#225 =( NAMED_UNIT ( * ) PLANE_ANGLE_UNIT ( ) SI_UNIT ( $, .RADIAN. ) );
#226 = DIRECTION ( 'NONE',  ( -0.000000000000000000, -1.000000000000000000, -0.000000000000000000 ) ) ;
#227 = PRESENTATION_LAYER_ASSIGNMENT (  '', '', ( #40 ) ) ;
#228 = VERTEX_POINT ( 'NONE', #257 ) ;
#229 = VERTEX_POINT ( 'NONE', #42 ) ;
#230 = DIMENSIONAL_EXPONENTS ( 1.000000000000000000, 0.000000000000000000, 0.000000000000000000, 0.000000000000000000, 0.000000000000000000, 0.000000000000000000, 0.000000000000000000 ) ;
#231 =( CONVERSION_BASED_UNIT ( 'INCH', #93 ) LENGTH_UNIT ( ) NAMED_UNIT ( #230 ) );
#232 = VERTEX_POINT ( 'NONE', #302 ) ;
#233 = FILL_AREA_STYLE ('',( #90 ) ) ;
#234 = CYLINDRICAL_SURFACE ( 'NONE', #128, 0.06250000000000001388 ) ;
#235 = CARTESIAN_POINT ( 'NONE',  ( -0.06249999999999900080, 1.499999999999999778, 0.000000000000000000 ) ) ;
#236 = CARTESIAN_POINT ( 'NONE',  ( 0.000000000000000000, 0.000000000000000000, -0.06250000000000001388 ) ) ;
#237 = CIRCLE ( 'NONE', #274, 0.06250000000000001388 ) ;
#238 = COLOUR_RGB ( '',1.000000000000000000, 0.000000000000000000, 0.000000000000000000 ) ;
#239 = COLOUR_RGB ( '',1.000000000000000000, 0.000000000000000000, 0.000000000000000000 ) ;
#240 = FACE_OUTER_BOUND ( 'NONE', #263, .T. ) ;
#241 =( LENGTH_UNIT ( ) NAMED_UNIT ( * ) SI_UNIT ( $, .METRE. ) );
#242 = LENGTH_MEASURE_WITH_UNIT ( LENGTH_MEASURE( 0.02539999999999999897 ), #137 );
#243 = FILL_AREA_STYLE_COLOUR ( '', #239 ) ;
#244 = PRESENTATION_STYLE_ASSIGNMENT (( #50 ) ) ;
#245 = CIRCLE ( 'NONE', #291, 0.06250000000000001388 ) ;
#246 = CARTESIAN_POINT ( 'NONE',  ( 0.000000000000000000, 0.2499999999999998057, 0.000000000000000000 ) ) ;
#247 = PLANE ( 'NONE',  #211 ) ;
#248 = LENGTH_MEASURE_WITH_UNIT ( LENGTH_MEASURE( 0.02539999999999999897 ), #174 );
#249 = DIRECTION ( 'NONE',  ( -1.000000000000000000, 0.000000000000000000, 0.000000000000000000 ) ) ;
#250 = AXIS2_PLACEMENT_3D ( 'NONE', #184, #287, #15 ) ;
#251 = AXIS2_PLACEMENT_3D ( 'NONE', #56, #297, #298 ) ;
#252 =( LENGTH_UNIT ( ) NAMED_UNIT ( * ) SI_UNIT ( $, .METRE. ) );
#253 = EDGE_LOOP ( 'NONE', ( #41, #296 ) ) ;
#254 = DIMENSIONAL_EXPONENTS ( 1.000000000000000000, 0.000000000000000000, 0.000000000000000000, 0.000000000000000000, 0.000000000000000000, 0.000000000000000000, 0.000000000000000000 ) ;
#255 = PRODUCT_CONTEXT ( 'NONE', #172, 'mechanical' ) ;
#256 = UNCERTAINTY_MEASURE_WITH_UNIT (LENGTH_MEASURE( 1.000000000000000082E-05 ), #306, 'distance_accuracy_value', 'NONE');
#257 = CARTESIAN_POINT ( 'NONE',  ( -0.06250000000000001388, 0.2499999999999998335, 0.000000000000000000 ) ) ;
#258 =( LENGTH_UNIT ( ) NAMED_UNIT ( * ) SI_UNIT ( $, .METRE. ) );
#259 = CIRCLE ( 'NONE', #16, 0.06249999999999934081 ) ;
#260 = UNCERTAINTY_MEASURE_WITH_UNIT (LENGTH_MEASURE( 1.000000000000000082E-05 ), #192, 'distance_accuracy_value', 'NONE');
#261 = DIRECTION ( 'NONE',  ( 5.388445916248354013E-16, 1.000000000000000000, -0.000000000000000000 ) ) ;
#262 = EDGE_CURVE ( 'NONE', #228, #170, #135, .T. ) ;
#263 = EDGE_LOOP ( 'NONE', ( #138, #265, #304, #156 ) ) ;
#264 = DIRECTION ( 'NONE',  ( -0.000000000000000000, -1.000000000000000000, -0.000000000000000000 ) ) ;
#265 = ORIENTED_EDGE ( 'NONE', *, *, #75, .T. ) ;
#266 = COLOUR_RGB ( '',1.000000000000000000, 0.000000000000000000, 0.000000000000000000 ) ;
#267 = AXIS2_PLACEMENT_3D ( 'NONE', #282, #177, #180 ) ;
#268 =( NAMED_UNIT ( * ) SI_UNIT ( $, .STERADIAN. ) SOLID_ANGLE_UNIT ( ) );
#269 = EDGE_LOOP ( 'NONE', ( #71, #2 ) ) ;
#270 =( NAMED_UNIT ( * ) PLANE_ANGLE_UNIT ( ) SI_UNIT ( $, .RADIAN. ) );
#271 = FACE_OUTER_BOUND ( 'NONE', #130, .T. ) ;
#272 = DIRECTION ( 'NONE',  ( 0.000000000000000000, 0.000000000000000000, -1.000000000000000000 ) ) ;
#273 =( CONVERSION_BASED_UNIT ( 'INCH', #190 ) LENGTH_UNIT ( ) NAMED_UNIT ( #181 ) );
#274 = AXIS2_PLACEMENT_3D ( 'NONE', #36, #127, #195 ) ;
#275 = DIRECTION ( 'NONE',  ( -5.388445916248354013E-16, -1.000000000000000000, 0.000000000000000000 ) ) ;
#276 = FILL_AREA_STYLE ('',( #124 ) ) ;
#277 = CARTESIAN_POINT ( 'NONE',  ( 0.000000000000000000, 0.000000000000000000, 0.000000000000000000 ) ) ;
#278 = ADVANCED_FACE ( 'NONE', ( #117 ), #112, .T. ) ;
#279 = COLOUR_RGB ( '',1.000000000000000000, 0.000000000000000000, 0.000000000000000000 ) ;
#280 = AXIS2_PLACEMENT_3D ( 'NONE', #215, #97, #99 ) ;
#281 = SURFACE_SIDE_STYLE ('',( #200 ) ) ;
#282 = CARTESIAN_POINT ( 'NONE',  ( 0.000000000000000000, 0.000000000000000000, 0.000000000000000000 ) ) ;
#283 = ORIENTED_EDGE ( 'NONE', *, *, #80, .F. ) ;
#284 = STYLED_ITEM ( 'NONE', ( #244 ), #57 ) ;
#285 = PRESENTATION_LAYER_ASSIGNMENT (  '', '', ( #102 ) ) ;
#286 = ORIENTED_EDGE ( 'NONE', *, *, #206, .T. ) ;
#287 = DIRECTION ( 'NONE',  ( 5.388445916248354013E-16, 1.000000000000000000, -0.000000000000000000 ) ) ;
#288 = UNCERTAINTY_MEASURE_WITH_UNIT (LENGTH_MEASURE( 1.000000000000000082E-05 ), #231, 'distance_accuracy_value', 'NONE');
#289 = DIRECTION ( 'NONE',  ( 5.388445916248354013E-16, 1.000000000000000000, -0.000000000000000000 ) ) ;
#290 = LINE ( 'NONE', #292, #59 ) ;
#291 = AXIS2_PLACEMENT_3D ( 'NONE', #10, #83, #103 ) ;
#292 = CARTESIAN_POINT ( 'NONE',  ( 0.06250000000000034694, 1.499999999999999778, 7.654042494670917485E-18 ) ) ;
#293 =( LENGTH_UNIT ( ) NAMED_UNIT ( * ) SI_UNIT ( $, .METRE. ) );
#294 =( NAMED_UNIT ( * ) SI_UNIT ( $, .STERADIAN. ) SOLID_ANGLE_UNIT ( ) );
#295 = CIRCLE ( 'NONE', #152, 0.06250000000000001388 ) ;
#296 = ORIENTED_EDGE ( 'NONE', *, *, #171, .T. ) ;
#297 = DIRECTION ( 'NONE',  ( -0.000000000000000000, -1.000000000000000000, -0.000000000000000000 ) ) ;
#298 = DIRECTION ( 'NONE',  ( 0.000000000000000000, 0.000000000000000000, -1.000000000000000000 ) ) ;
#299 = FILL_AREA_STYLE ('',( #179 ) ) ;
#300 = EDGE_CURVE ( 'NONE', #182, #45, #29, .T. ) ;
#301 = SURFACE_STYLE_FILL_AREA ( #299 ) ;
#302 = CARTESIAN_POINT ( 'NONE',  ( 0.06250000000000001388, 1.499999999999999778, 7.654042494670939056E-18 ) ) ;
#303 = ADVANCED_FACE ( 'NONE', ( #150 ), #51, .T. ) ;
#304 = ORIENTED_EDGE ( 'NONE', *, *, #262, .T. ) ;
#305 = DIRECTION ( 'NONE',  ( -0.000000000000000000, -1.000000000000000000, -0.000000000000000000 ) ) ;
#306 =( CONVERSION_BASED_UNIT ( 'INCH', #209 ) LENGTH_UNIT ( ) NAMED_UNIT ( #155 ) );
#307 = STYLED_ITEM ( 'NONE', ( #58 ), #131 ) ;
#308 = EDGE_LOOP ( 'NONE', ( #39, #204 ) ) ;
#309 = ADVANCED_FACE ( 'NONE', ( #169 ), #142, .F. ) ;
ENDSEC;
END-ISO-10303-21;
