ISO-10303-21;
HEADER;
FILE_DESCRIPTION (( 'STEP AP214' ),
    '1' );
FILE_NAME ('81803.STEP',
    '2023-06-23T03:11:40',
    ( '' ),
    ( '' ),
    'SwSTEP 2.0',
    'SolidWorks 2023',
    '' );
FILE_SCHEMA (( 'AUTOMOTIVE_DESIGN' ));
ENDSEC;

DATA;
#1 = PRESENTATION_STYLE_ASSIGNMENT (( #54 ) ) ;
#2 =( NAMED_UNIT ( * ) SI_UNIT ( $, .STERADIAN. ) SOLID_ANGLE_UNIT ( ) );
#3 = SURFACE_STYLE_FILL_AREA ( #146 ) ;
#4 = CIRCLE ( 'NONE', #168, 0.06250000000000000000 ) ;
#5 = PRESENTATION_LAYER_ASSIGNMENT (  '', '', ( #256 ) ) ;
#6 =( NAMED_UNIT ( * ) PLANE_ANGLE_UNIT ( ) SI_UNIT ( $, .RADIAN. ) );
#7 = SURFACE_SIDE_STYLE ('',( #3 ) ) ;
#8 =( CONVERSION_BASED_UNIT ( 'INCH', #125 ) LENGTH_UNIT ( ) NAMED_UNIT ( #224 ) );
#9 = COLOUR_RGB ( '',1.000000000000000000, 0.000000000000000000, 0.000000000000000000 ) ;
#10 = DIMENSIONAL_EXPONENTS ( 1.000000000000000000, 0.000000000000000000, 0.000000000000000000, 0.000000000000000000, 0.000000000000000000, 0.000000000000000000, 0.000000000000000000 ) ;
#11 = ORIENTED_EDGE ( 'NONE', *, *, #75, .F. ) ;
#12 = MECHANICAL_DESIGN_GEOMETRIC_PRESENTATION_REPRESENTATION (  '', ( #32 ), #73 ) ;
#13 = SURFACE_STYLE_FILL_AREA ( #203 ) ;
#14 = DIRECTION ( 'NONE',  ( -0.000000000000000000, -1.000000000000000000, -0.000000000000000000 ) ) ;
#15 = ORIENTED_EDGE ( 'NONE', *, *, #83, .F. ) ;
#16 = ORIENTED_EDGE ( 'NONE', *, *, #27, .F. ) ;
#17 = CARTESIAN_POINT ( 'NONE',  ( 0.000000000000000000, 0.6250000000000000000, 0.000000000000000000 ) ) ;
#18 = PRODUCT_DEFINITION_CONTEXT ( 'detailed design', #124, 'design' ) ;
#19 = EDGE_CURVE ( 'NONE', #305, #64, #4, .T. ) ;
#20 = FILL_AREA_STYLE_COLOUR ( '', #143 ) ;
#21 = PRESENTATION_STYLE_ASSIGNMENT (( #220 ) ) ;
#22 = ADVANCED_FACE ( 'NONE', ( #115 ), #253, .F. ) ;
#23 = CYLINDRICAL_SURFACE ( 'NONE', #113, 0.06250000000000002776 ) ;
#24 = FACE_OUTER_BOUND ( 'NONE', #214, .T. ) ;
#25 = CIRCLE ( 'NONE', #227, 0.06250000000000001388 ) ;
#26 =( NAMED_UNIT ( * ) PLANE_ANGLE_UNIT ( ) SI_UNIT ( $, .RADIAN. ) );
#27 = EDGE_CURVE ( 'NONE', #64, #305, #298, .T. ) ;
#28 = DIRECTION ( 'NONE',  ( 0.000000000000000000, 0.000000000000000000, -1.000000000000000000 ) ) ;
#29 = LENGTH_MEASURE_WITH_UNIT ( LENGTH_MEASURE( 0.02539999999999999897 ), #258 );
#30 = DIRECTION ( 'NONE',  ( 0.000000000000000000, 0.000000000000000000, 1.000000000000000000 ) ) ;
#31 = VECTOR ( 'NONE', #240, 39.37007874015748143 ) ;
#32 = STYLED_ITEM ( 'NONE', ( #21 ), #287 ) ;
#33 = UNCERTAINTY_MEASURE_WITH_UNIT (LENGTH_MEASURE( 1.000000000000000082E-05 ), #292, 'distance_accuracy_value', 'NONE');
#34 = FACE_OUTER_BOUND ( 'NONE', #171, .T. ) ;
#35 = FILL_AREA_STYLE ('',( #209 ) ) ;
#36 = PRODUCT_DEFINITION ( 'UNKNOWN', '', #254, #18 ) ;
#37 = ORIENTED_EDGE ( 'NONE', *, *, #175, .F. ) ;
#38 = DIMENSIONAL_EXPONENTS ( 1.000000000000000000, 0.000000000000000000, 0.000000000000000000, 0.000000000000000000, 0.000000000000000000, 0.000000000000000000, 0.000000000000000000 ) ;
#39 = MECHANICAL_DESIGN_GEOMETRIC_PRESENTATION_REPRESENTATION (  '', ( #135 ), #285 ) ;
#40 = LENGTH_MEASURE_WITH_UNIT ( LENGTH_MEASURE( 0.02539999999999999897 ), #286 );
#41 = CARTESIAN_POINT ( 'NONE',  ( 0.000000000000000000, 0.000000000000000000, -0.06250000000000001388 ) ) ;
#42 = CARTESIAN_POINT ( 'NONE',  ( 0.000000000000000000, 0.6250000000000000000, 0.000000000000000000 ) ) ;
#43 = PRESENTATION_LAYER_ASSIGNMENT (  '', '', ( #196 ) ) ;
#44 = EDGE_CURVE ( 'NONE', #173, #61, #133, .T. ) ;
#45 = DIRECTION ( 'NONE',  ( -0.000000000000000000, -1.000000000000000000, -0.000000000000000000 ) ) ;
#46 = DIRECTION ( 'NONE',  ( -1.000000000000000000, 0.000000000000000000, 0.000000000000000000 ) ) ;
#47 = CARTESIAN_POINT ( 'NONE',  ( -6.123233995736772199E-17, 2.500000000000000000, 0.000000000000000000 ) ) ;
#48 = PRESENTATION_LAYER_ASSIGNMENT (  '', '', ( #53 ) ) ;
#49 = CARTESIAN_POINT ( 'NONE',  ( 0.000000000000000000, 0.000000000000000000, 0.000000000000000000 ) ) ;
#50 =( NAMED_UNIT ( * ) SI_UNIT ( $, .STERADIAN. ) SOLID_ANGLE_UNIT ( ) );
#51 = FACE_OUTER_BOUND ( 'NONE', #271, .T. ) ;
#52 = AXIS2_PLACEMENT_3D ( 'NONE', #140, #96, #58 ) ;
#53 = STYLED_ITEM ( 'NONE', ( #1 ), #295 ) ;
#54 = SURFACE_STYLE_USAGE ( .BOTH. , #182 ) ;
#55 = APPLICATION_PROTOCOL_DEFINITION ( 'draft international standard', 'automotive_design', 1998, #124 ) ;
#56 = DIRECTION ( 'NONE',  ( -1.000000000000000000, 0.000000000000000000, 0.000000000000000000 ) ) ;
#57 = AXIS2_PLACEMENT_3D ( 'NONE', #77, #160, #69 ) ;
#58 = DIRECTION ( 'NONE',  ( 0.000000000000000000, 0.000000000000000000, -1.000000000000000000 ) ) ;
#59 = ORIENTED_EDGE ( 'NONE', *, *, #279, .F. ) ;
#60 =( CONVERSION_BASED_UNIT ( 'INCH', #40 ) LENGTH_UNIT ( ) NAMED_UNIT ( #172 ) );
#61 = VERTEX_POINT ( 'NONE', #217 ) ;
#62 = MECHANICAL_DESIGN_GEOMETRIC_PRESENTATION_REPRESENTATION (  '', ( #196 ), #204 ) ;
#63 = DIRECTION ( 'NONE',  ( 0.000000000000000000, 1.000000000000000000, 0.000000000000000000 ) ) ;
#64 = VERTEX_POINT ( 'NONE', #151 ) ;
#65 = DIRECTION ( 'NONE',  ( 0.000000000000000000, 0.000000000000000000, -1.000000000000000000 ) ) ;
#66 = DIRECTION ( 'NONE',  ( -3.265724797726278260E-17, 1.000000000000000000, -0.000000000000000000 ) ) ;
#67 = ORIENTED_EDGE ( 'NONE', *, *, #200, .T. ) ;
#68 = EDGE_CURVE ( 'NONE', #173, #244, #178, .T. ) ;
#69 = DIRECTION ( 'NONE',  ( -1.000000000000000000, -3.265724797726278260E-17, 0.000000000000000000 ) ) ;
#70 = LENGTH_MEASURE_WITH_UNIT ( LENGTH_MEASURE( 0.02539999999999999897 ), #180 );
#71 = MANIFOLD_SOLID_BREP ( 'Revolve - Cutting Edge', #138 ) ;
#72 = FILL_AREA_STYLE_COLOUR ( '', #212 ) ;
#73 =( GEOMETRIC_REPRESENTATION_CONTEXT ( 3 ) GLOBAL_UNCERTAINTY_ASSIGNED_CONTEXT ( ( #105 ) ) GLOBAL_UNIT_ASSIGNED_CONTEXT ( ( #195, #216, #50 ) ) REPRESENTATION_CONTEXT ( 'NONE', 'WORKASPACE' ) );
#74 =( CONVERSION_BASED_UNIT ( 'INCH', #29 ) LENGTH_UNIT ( ) NAMED_UNIT ( #38 ) );
#75 = EDGE_CURVE ( 'NONE', #61, #173, #262, .T. ) ;
#76 =( CONVERSION_BASED_UNIT ( 'INCH', #235 ) LENGTH_UNIT ( ) NAMED_UNIT ( #110 ) );
#77 = CARTESIAN_POINT ( 'NONE',  ( 3.332799517026356512E-35, 0.6250000000000000000, 0.000000000000000000 ) ) ;
#78 =( GEOMETRIC_REPRESENTATION_CONTEXT ( 3 ) GLOBAL_UNCERTAINTY_ASSIGNED_CONTEXT ( ( #277 ) ) GLOBAL_UNIT_ASSIGNED_CONTEXT ( ( #8, #283, #309 ) ) REPRESENTATION_CONTEXT ( 'NONE', 'WORKASPACE' ) );
#79 = MECHANICAL_DESIGN_GEOMETRIC_PRESENTATION_REPRESENTATION (  '', ( #256 ), #187 ) ;
#80 = PLANE ( 'NONE',  #234 ) ;
#81 = UNCERTAINTY_MEASURE_WITH_UNIT (LENGTH_MEASURE( 1.000000000000000082E-05 ), #76, 'distance_accuracy_value', 'NONE');
#82 = CARTESIAN_POINT ( 'NONE',  ( 0.000000000000000000, 0.000000000000000000, 0.000000000000000000 ) ) ;
#83 = EDGE_CURVE ( 'NONE', #109, #210, #25, .T. ) ;
#84 = PRESENTATION_STYLE_ASSIGNMENT (( #265 ) ) ;
#85 = ORIENTED_EDGE ( 'NONE', *, *, #279, .T. ) ;
#86 =( GEOMETRIC_REPRESENTATION_CONTEXT ( 3 ) GLOBAL_UNCERTAINTY_ASSIGNED_CONTEXT ( ( #81 ) ) GLOBAL_UNIT_ASSIGNED_CONTEXT ( ( #76, #289, #98 ) ) REPRESENTATION_CONTEXT ( 'NONE', 'WORKASPACE' ) );
#87 = CYLINDRICAL_SURFACE ( 'NONE', #169, 0.06250000000000001388 ) ;
#88 = ORIENTED_EDGE ( 'NONE', *, *, #75, .T. ) ;
#89 = CARTESIAN_POINT ( 'NONE',  ( 0.000000000000000000, 0.6250000000000000000, 0.000000000000000000 ) ) ;
#90 = EDGE_CURVE ( 'NONE', #305, #109, #270, .T. ) ;
#91 = SURFACE_SIDE_STYLE ('',( #192 ) ) ;
#92 = DIRECTION ( 'NONE',  ( -1.000000000000000000, 0.000000000000000000, 0.000000000000000000 ) ) ;
#93 = CARTESIAN_POINT ( 'NONE',  ( 0.000000000000000000, 0.000000000000000000, 0.000000000000000000 ) ) ;
#94 = ORIENTED_EDGE ( 'NONE', *, *, #83, .T. ) ;
#95 = CIRCLE ( 'NONE', #243, 0.06250000000000005551 ) ;
#96 = DIRECTION ( 'NONE',  ( -0.000000000000000000, -1.000000000000000000, -0.000000000000000000 ) ) ;
#97 = SURFACE_STYLE_USAGE ( .BOTH. , #246 ) ;
#98 =( NAMED_UNIT ( * ) SI_UNIT ( $, .STERADIAN. ) SOLID_ANGLE_UNIT ( ) );
#99 = PLANE ( 'NONE',  #250 ) ;
#100 = CARTESIAN_POINT ( 'NONE',  ( 7.654042494670959086E-18, 0.6250000000000000000, 0.06250000000000000000 ) ) ;
#101 = CARTESIAN_POINT ( 'NONE',  ( 0.000000000000000000, 0.000000000000000000, 0.000000000000000000 ) ) ;
#102 = EDGE_CURVE ( 'NONE', #64, #210, #108, .T. ) ;
#103 = LENGTH_MEASURE_WITH_UNIT ( LENGTH_MEASURE( 0.02539999999999999897 ), #231 );
#104 = CARTESIAN_POINT ( 'NONE',  ( -6.123233995736772199E-17, 2.500000000000000000, 0.000000000000000000 ) ) ;
#105 = UNCERTAINTY_MEASURE_WITH_UNIT (LENGTH_MEASURE( 1.000000000000000082E-05 ), #195, 'distance_accuracy_value', 'NONE');
#106 = DIRECTION ( 'NONE',  ( 1.000000000000000000, 0.000000000000000000, 0.000000000000000000 ) ) ;
#107 = AXIS2_PLACEMENT_3D ( 'NONE', #42, #121, #92 ) ;
#108 = LINE ( 'NONE', #239, #275 ) ;
#109 = VERTEX_POINT ( 'NONE', #297 ) ;
#110 = DIMENSIONAL_EXPONENTS ( 1.000000000000000000, 0.000000000000000000, 0.000000000000000000, 0.000000000000000000, 0.000000000000000000, 0.000000000000000000, 0.000000000000000000 ) ;
#111 = EDGE_LOOP ( 'NONE', ( #198, #304, #153, #15 ) ) ;
#112 = CARTESIAN_POINT ( 'NONE',  ( 0.000000000000000000, 0.6250000000000000000, 0.000000000000000000 ) ) ;
#113 = AXIS2_PLACEMENT_3D ( 'NONE', #47, #222, #158 ) ;
#114 = PRESENTATION_STYLE_ASSIGNMENT (( #97 ) ) ;
#115 = FACE_OUTER_BOUND ( 'NONE', #247, .T. ) ;
#116 = DIMENSIONAL_EXPONENTS ( 1.000000000000000000, 0.000000000000000000, 0.000000000000000000, 0.000000000000000000, 0.000000000000000000, 0.000000000000000000, 0.000000000000000000 ) ;
#117 = ORIENTED_EDGE ( 'NONE', *, *, #249, .T. ) ;
#118 = FILL_AREA_STYLE ('',( #282 ) ) ;
#119 = CARTESIAN_POINT ( 'NONE',  ( -0.06250000000000009714, 2.500000000000000000, 0.000000000000000000 ) ) ;
#120 = AXIS2_PLACEMENT_3D ( 'NONE', #104, #264, #56 ) ;
#121 = DIRECTION ( 'NONE',  ( -3.265724797726278260E-17, 1.000000000000000000, -0.000000000000000000 ) ) ;
#122 = LINE ( 'NONE', #119, #181 ) ;
#123 = DIRECTION ( 'NONE',  ( -0.000000000000000000, -1.000000000000000000, -0.000000000000000000 ) ) ;
#124 = APPLICATION_CONTEXT ( 'automotive_design' ) ;
#125 = LENGTH_MEASURE_WITH_UNIT ( LENGTH_MEASURE( 0.02539999999999999897 ), #219 );
#126 = COLOUR_RGB ( '',0.7921568627450980005, 0.8196078431372548767, 0.9333333333333333481 ) ;
#127 =( LENGTH_UNIT ( ) NAMED_UNIT ( * ) SI_UNIT ( $, .METRE. ) );
#128 = SURFACE_STYLE_FILL_AREA ( #35 ) ;
#129 = ADVANCED_FACE ( 'NONE', ( #303 ), #87, .T. ) ;
#130 = CIRCLE ( 'NONE', #308, 0.06250000000000001388 ) ;
#131 = ADVANCED_FACE ( 'NONE', ( #24 ), #226, .T. ) ;
#132 = DIRECTION ( 'NONE',  ( -0.000000000000000000, -1.000000000000000000, -0.000000000000000000 ) ) ;
#133 = CIRCLE ( 'NONE', #201, 0.06250000000000000000 ) ;
#134 = ORIENTED_EDGE ( 'NONE', *, *, #200, .F. ) ;
#135 = STYLED_ITEM ( 'NONE', ( #184 ), #300 ) ;
#136 = DIRECTION ( 'NONE',  ( 1.000000000000000000, 3.265724797726278260E-17, 0.000000000000000000 ) ) ;
#137 = CARTESIAN_POINT ( 'NONE',  ( 0.06249999999999997224, 2.500000000000000000, 7.654042494670960626E-18 ) ) ;
#138 = CLOSED_SHELL ( 'NONE', ( #295, #148, #129, #300 ) ) ;
#139 = FILL_AREA_STYLE ('',( #20 ) ) ;
#140 = CARTESIAN_POINT ( 'NONE',  ( 0.000000000000000000, 0.6250000000000000000, 0.000000000000000000 ) ) ;
#141 = DIRECTION ( 'NONE',  ( 0.000000000000000000, 0.000000000000000000, -1.000000000000000000 ) ) ;
#142 = DIRECTION ( 'NONE',  ( -3.265724797726278260E-17, 1.000000000000000000, -0.000000000000000000 ) ) ;
#143 = COLOUR_RGB ( '',0.7921568627450980005, 0.8196078431372548767, 0.9333333333333333481 ) ;
#144 = DIRECTION ( 'NONE',  ( 0.000000000000000000, -1.000000000000000000, -0.000000000000000000 ) ) ;
#145 = ORIENTED_EDGE ( 'NONE', *, *, #102, .F. ) ;
#146 = FILL_AREA_STYLE ('',( #72 ) ) ;
#147 = MECHANICAL_DESIGN_GEOMETRIC_PRESENTATION_REPRESENTATION (  '', ( #157 ), #78 ) ;
#148 = ADVANCED_FACE ( 'NONE', ( #211 ), #99, .T. ) ;
#149 = AXIS2_PLACEMENT_3D ( 'NONE', #272, #274, #248 ) ;
#150 = ORIENTED_EDGE ( 'NONE', *, *, #68, .T. ) ;
#151 = CARTESIAN_POINT ( 'NONE',  ( 0.000000000000000000, 0.6250000000000000000, -0.06250000000000000000 ) ) ;
#152 = EDGE_LOOP ( 'NONE', ( #16, #276 ) ) ;
#153 = ORIENTED_EDGE ( 'NONE', *, *, #102, .T. ) ;
#154 = DIRECTION ( 'NONE',  ( 0.000000000000000000, 0.000000000000000000, -1.000000000000000000 ) ) ;
#155 = CARTESIAN_POINT ( 'NONE',  ( -0.06250000000000012490, 2.500000000000000000, 0.000000000000000000 ) ) ;
#156 = SURFACE_STYLE_USAGE ( .BOTH. , #91 ) ;
#157 = STYLED_ITEM ( 'NONE', ( #281 ), #71 ) ;
#158 = DIRECTION ( 'NONE',  ( -1.000000000000000000, 0.000000000000000000, 0.000000000000000000 ) ) ;
#159 = CIRCLE ( 'NONE', #120, 0.06250000000000005551 ) ;
#160 = DIRECTION ( 'NONE',  ( -3.265724797726278260E-17, 1.000000000000000000, 0.000000000000000000 ) ) ;
#161 = PRESENTATION_LAYER_ASSIGNMENT (  '', '', ( #32 ) ) ;
#162 = PRODUCT_RELATED_PRODUCT_CATEGORY ( 'part', '', ( #293 ) ) ;
#163 = UNCERTAINTY_MEASURE_WITH_UNIT (LENGTH_MEASURE( 1.000000000000000082E-05 ), #183, 'distance_accuracy_value', 'NONE');
#164 = PRESENTATION_LAYER_ASSIGNMENT (  '', '', ( #135 ) ) ;
#165 = LENGTH_MEASURE_WITH_UNIT ( LENGTH_MEASURE( 0.02539999999999999897 ), #257 );
#166 = CARTESIAN_POINT ( 'NONE',  ( 7.654042494670959086E-18, 0.000000000000000000, 0.06250000000000001388 ) ) ;
#167 = SHAPE_DEFINITION_REPRESENTATION ( #236, #268 ) ;
#168 = AXIS2_PLACEMENT_3D ( 'NONE', #89, #278, #65 ) ;
#169 = AXIS2_PLACEMENT_3D ( 'NONE', #177, #132, #154 ) ;
#170 = DIRECTION ( 'NONE',  ( 0.000000000000000000, 0.000000000000000000, -1.000000000000000000 ) ) ;
#171 = EDGE_LOOP ( 'NONE', ( #296, #302, #59, #145 ) ) ;
#172 = DIMENSIONAL_EXPONENTS ( 1.000000000000000000, 0.000000000000000000, 0.000000000000000000, 0.000000000000000000, 0.000000000000000000, 0.000000000000000000, 0.000000000000000000 ) ;
#173 = VERTEX_POINT ( 'NONE', #306 ) ;
#174 = DIRECTION ( 'NONE',  ( -1.000000000000000000, 0.000000000000000000, 0.000000000000000000 ) ) ;
#175 = EDGE_CURVE ( 'NONE', #273, #244, #159, .T. ) ;
#176 = DIMENSIONAL_EXPONENTS ( 1.000000000000000000, 0.000000000000000000, 0.000000000000000000, 0.000000000000000000, 0.000000000000000000, 0.000000000000000000, 0.000000000000000000 ) ;
#177 = CARTESIAN_POINT ( 'NONE',  ( 0.000000000000000000, 0.000000000000000000, 0.000000000000000000 ) ) ;
#178 = LINE ( 'NONE', #137, #31 ) ;
#179 = ORIENTED_EDGE ( 'NONE', *, *, #44, .T. ) ;
#180 =( LENGTH_UNIT ( ) NAMED_UNIT ( * ) SI_UNIT ( $, .METRE. ) );
#181 = VECTOR ( 'NONE', #142, 39.37007874015748143 ) ;
#182 = SURFACE_SIDE_STYLE ('',( #230 ) ) ;
#183 =( CONVERSION_BASED_UNIT ( 'INCH', #103 ) LENGTH_UNIT ( ) NAMED_UNIT ( #116 ) );
#184 = PRESENTATION_STYLE_ASSIGNMENT (( #232 ) ) ;
#185 = FACE_OUTER_BOUND ( 'NONE', #266, .T. ) ;
#186 = CARTESIAN_POINT ( 'NONE',  ( 0.06250000000000000000, 2.500000000000000000, 0.000000000000000000 ) ) ;
#187 =( GEOMETRIC_REPRESENTATION_CONTEXT ( 3 ) GLOBAL_UNCERTAINTY_ASSIGNED_CONTEXT ( ( #163 ) ) GLOBAL_UNIT_ASSIGNED_CONTEXT ( ( #183, #301, #237 ) ) REPRESENTATION_CONTEXT ( 'NONE', 'WORKASPACE' ) );
#188 = APPLICATION_PROTOCOL_DEFINITION ( 'draft international standard', 'automotive_design', 1998, #189 ) ;
#189 = APPLICATION_CONTEXT ( 'automotive_design' ) ;
#190 = ORIENTED_EDGE ( 'NONE', *, *, #68, .F. ) ;
#191 = ADVANCED_FACE ( 'NONE', ( #185 ), #215, .F. ) ;
#192 = SURFACE_STYLE_FILL_AREA ( #118 ) ;
#193 = DIRECTION ( 'NONE',  ( 0.000000000000000000, -0.000000000000000000, 1.000000000000000000 ) ) ;
#194 = DIRECTION ( 'NONE',  ( -3.265724797726278260E-17, 1.000000000000000000, -0.000000000000000000 ) ) ;
#195 =( CONVERSION_BASED_UNIT ( 'INCH', #70 ) LENGTH_UNIT ( ) NAMED_UNIT ( #176 ) );
#196 = STYLED_ITEM ( 'NONE', ( #114 ), #148 ) ;
#197 = FACE_OUTER_BOUND ( 'NONE', #213, .T. ) ;
#198 = ORIENTED_EDGE ( 'NONE', *, *, #90, .F. ) ;
#199 = CARTESIAN_POINT ( 'NONE',  ( 0.06250000000000000000, 2.500000000000000000, 7.654042494670963708E-18 ) ) ;
#200 = EDGE_CURVE ( 'NONE', #61, #273, #122, .T. ) ;
#201 = AXIS2_PLACEMENT_3D ( 'NONE', #112, #194, #174 ) ;
#202 = SURFACE_STYLE_FILL_AREA ( #139 ) ;
#203 = FILL_AREA_STYLE ('',( #223 ) ) ;
#204 =( GEOMETRIC_REPRESENTATION_CONTEXT ( 3 ) GLOBAL_UNCERTAINTY_ASSIGNED_CONTEXT ( ( #263 ) ) GLOBAL_UNIT_ASSIGNED_CONTEXT ( ( #60, #241, #2 ) ) REPRESENTATION_CONTEXT ( 'NONE', 'WORKASPACE' ) );
#205 = DIRECTION ( 'NONE',  ( 0.000000000000000000, 0.000000000000000000, -1.000000000000000000 ) ) ;
#206 = AXIS2_PLACEMENT_3D ( 'NONE', #186, #291, #136 ) ;
#207 = SURFACE_SIDE_STYLE ('',( #128 ) ) ;
#208 = MECHANICAL_DESIGN_GEOMETRIC_PRESENTATION_REPRESENTATION (  '', ( #53 ), #86 ) ;
#209 = FILL_AREA_STYLE_COLOUR ( '', #9 ) ;
#210 = VERTEX_POINT ( 'NONE', #41 ) ;
#211 = FACE_OUTER_BOUND ( 'NONE', #152, .T. ) ;
#212 = COLOUR_RGB ( '',1.000000000000000000, 0.000000000000000000, 0.000000000000000000 ) ;
#213 = EDGE_LOOP ( 'NONE', ( #190, #179, #67, #245 ) ) ;
#214 = EDGE_LOOP ( 'NONE', ( #88, #150, #37, #134 ) ) ;
#215 = PLANE ( 'NONE',  #57 ) ;
#216 =( NAMED_UNIT ( * ) PLANE_ANGLE_UNIT ( ) SI_UNIT ( $, .RADIAN. ) );
#217 = CARTESIAN_POINT ( 'NONE',  ( -0.06250000000000000000, 0.6250000000000000000, 0.000000000000000000 ) ) ;
#218 = COLOUR_RGB ( '',1.000000000000000000, 0.000000000000000000, 0.000000000000000000 ) ;
#219 =( LENGTH_UNIT ( ) NAMED_UNIT ( * ) SI_UNIT ( $, .METRE. ) );
#220 = SURFACE_STYLE_USAGE ( .BOTH. , #255 ) ;
#221 = FILL_AREA_STYLE_COLOUR ( '', #218 ) ;
#222 = DIRECTION ( 'NONE',  ( -3.265724797726278260E-17, 1.000000000000000000, -0.000000000000000000 ) ) ;
#223 = FILL_AREA_STYLE_COLOUR ( '', #288 ) ;
#224 = DIMENSIONAL_EXPONENTS ( 1.000000000000000000, 0.000000000000000000, 0.000000000000000000, 0.000000000000000000, 0.000000000000000000, 0.000000000000000000, 0.000000000000000000 ) ;
#225 =( NAMED_UNIT ( * ) SI_UNIT ( $, .STERADIAN. ) SOLID_ANGLE_UNIT ( ) );
#226 = CYLINDRICAL_SURFACE ( 'NONE', #149, 0.06250000000000002776 ) ;
#227 = AXIS2_PLACEMENT_3D ( 'NONE', #251, #45, #170 ) ;
#228 = ADVANCED_FACE ( 'NONE', ( #197 ), #23, .T. ) ;
#229 = FILL_AREA_STYLE ('',( #221 ) ) ;
#230 = SURFACE_STYLE_FILL_AREA ( #229 ) ;
#231 =( LENGTH_UNIT ( ) NAMED_UNIT ( * ) SI_UNIT ( $, .METRE. ) );
#232 = SURFACE_STYLE_USAGE ( .BOTH. , #7 ) ;
#233 = VECTOR ( 'NONE', #267, 39.37007874015748143 ) ;
#234 = AXIS2_PLACEMENT_3D ( 'NONE', #49, #144, #205 ) ;
#235 = LENGTH_MEASURE_WITH_UNIT ( LENGTH_MEASURE( 0.02539999999999999897 ), #127 );
#236 = PRODUCT_DEFINITION_SHAPE ( 'NONE', 'NONE',  #36 ) ;
#237 =( NAMED_UNIT ( * ) SI_UNIT ( $, .STERADIAN. ) SOLID_ANGLE_UNIT ( ) );
#238 = ORIENTED_EDGE ( 'NONE', *, *, #44, .F. ) ;
#239 = CARTESIAN_POINT ( 'NONE',  ( 0.000000000000000000, 0.000000000000000000, -0.06250000000000001388 ) ) ;
#240 = DIRECTION ( 'NONE',  ( -3.265724797726278260E-17, 1.000000000000000000, -0.000000000000000000 ) ) ;
#241 =( NAMED_UNIT ( * ) PLANE_ANGLE_UNIT ( ) SI_UNIT ( $, .RADIAN. ) );
#242 = CLOSED_SHELL ( 'NONE', ( #131, #191, #228, #22 ) ) ;
#243 = AXIS2_PLACEMENT_3D ( 'NONE', #252, #66, #46 ) ;
#244 = VERTEX_POINT ( 'NONE', #199 ) ;
#245 = ORIENTED_EDGE ( 'NONE', *, *, #249, .F. ) ;
#246 = SURFACE_SIDE_STYLE ('',( #13 ) ) ;
#247 = EDGE_LOOP ( 'NONE', ( #307, #117 ) ) ;
#248 = DIRECTION ( 'NONE',  ( -1.000000000000000000, 0.000000000000000000, 0.000000000000000000 ) ) ;
#249 = EDGE_CURVE ( 'NONE', #244, #273, #95, .T. ) ;
#250 = AXIS2_PLACEMENT_3D ( 'NONE', #17, #63, #193 ) ;
#251 = CARTESIAN_POINT ( 'NONE',  ( 0.000000000000000000, 0.000000000000000000, 0.000000000000000000 ) ) ;
#252 = CARTESIAN_POINT ( 'NONE',  ( -6.123233995736772199E-17, 2.500000000000000000, 0.000000000000000000 ) ) ;
#253 = PLANE ( 'NONE',  #206 ) ;
#254 = PRODUCT_DEFINITION_FORMATION_WITH_SPECIFIED_SOURCE ( 'ANY', '', #293, .NOT_KNOWN. ) ;
#255 = SURFACE_SIDE_STYLE ('',( #202 ) ) ;
#256 = STYLED_ITEM ( 'NONE', ( #84 ), #129 ) ;
#257 =( LENGTH_UNIT ( ) NAMED_UNIT ( * ) SI_UNIT ( $, .METRE. ) );
#258 =( LENGTH_UNIT ( ) NAMED_UNIT ( * ) SI_UNIT ( $, .METRE. ) );
#259 = DIRECTION ( 'NONE',  ( -0.000000000000000000, -1.000000000000000000, -0.000000000000000000 ) ) ;
#260 = UNCERTAINTY_MEASURE_WITH_UNIT (LENGTH_MEASURE( 1.000000000000000082E-05 ), #74, 'distance_accuracy_value', 'NONE');
#261 = CYLINDRICAL_SURFACE ( 'NONE', #299, 0.06250000000000001388 ) ;
#262 = CIRCLE ( 'NONE', #107, 0.06250000000000000000 ) ;
#263 = UNCERTAINTY_MEASURE_WITH_UNIT (LENGTH_MEASURE( 1.000000000000000082E-05 ), #60, 'distance_accuracy_value', 'NONE');
#264 = DIRECTION ( 'NONE',  ( -3.265724797726278260E-17, 1.000000000000000000, -0.000000000000000000 ) ) ;
#265 = SURFACE_STYLE_USAGE ( .BOTH. , #207 ) ;
#266 = EDGE_LOOP ( 'NONE', ( #11, #238 ) ) ;
#267 = DIRECTION ( 'NONE',  ( -0.000000000000000000, -1.000000000000000000, -0.000000000000000000 ) ) ;
#268 = ADVANCED_BREP_SHAPE_REPRESENTATION ( '81803', ( #71, #287, #280 ), #269 ) ;
#269 =( GEOMETRIC_REPRESENTATION_CONTEXT ( 3 ) GLOBAL_UNCERTAINTY_ASSIGNED_CONTEXT ( ( #260 ) ) GLOBAL_UNIT_ASSIGNED_CONTEXT ( ( #74, #26, #290 ) ) REPRESENTATION_CONTEXT ( 'NONE', 'WORKASPACE' ) );
#270 = LINE ( 'NONE', #166, #233 ) ;
#271 = EDGE_LOOP ( 'NONE', ( #85, #94 ) ) ;
#272 = CARTESIAN_POINT ( 'NONE',  ( -6.123233995736772199E-17, 2.500000000000000000, 0.000000000000000000 ) ) ;
#273 = VERTEX_POINT ( 'NONE', #155 ) ;
#274 = DIRECTION ( 'NONE',  ( -3.265724797726278260E-17, 1.000000000000000000, -0.000000000000000000 ) ) ;
#275 = VECTOR ( 'NONE', #14, 39.37007874015748143 ) ;
#276 = ORIENTED_EDGE ( 'NONE', *, *, #19, .F. ) ;
#277 = UNCERTAINTY_MEASURE_WITH_UNIT (LENGTH_MEASURE( 1.000000000000000082E-05 ), #8, 'distance_accuracy_value', 'NONE');
#278 = DIRECTION ( 'NONE',  ( -0.000000000000000000, -1.000000000000000000, -0.000000000000000000 ) ) ;
#279 = EDGE_CURVE ( 'NONE', #210, #109, #130, .T. ) ;
#280 = AXIS2_PLACEMENT_3D ( 'NONE', #82, #30, #106 ) ;
#281 = PRESENTATION_STYLE_ASSIGNMENT (( #156 ) ) ;
#282 = FILL_AREA_STYLE_COLOUR ( '', #126 ) ;
#283 =( NAMED_UNIT ( * ) PLANE_ANGLE_UNIT ( ) SI_UNIT ( $, .RADIAN. ) );
#284 = PRESENTATION_LAYER_ASSIGNMENT (  '', '', ( #157 ) ) ;
#285 =( GEOMETRIC_REPRESENTATION_CONTEXT ( 3 ) GLOBAL_UNCERTAINTY_ASSIGNED_CONTEXT ( ( #33 ) ) GLOBAL_UNIT_ASSIGNED_CONTEXT ( ( #292, #6, #225 ) ) REPRESENTATION_CONTEXT ( 'NONE', 'WORKASPACE' ) );
#286 =( LENGTH_UNIT ( ) NAMED_UNIT ( * ) SI_UNIT ( $, .METRE. ) );
#287 = MANIFOLD_SOLID_BREP ( 'Revolve - Tool Body (Straight Shanked)', #242 ) ;
#288 = COLOUR_RGB ( '',1.000000000000000000, 0.000000000000000000, 0.000000000000000000 ) ;
#289 =( NAMED_UNIT ( * ) PLANE_ANGLE_UNIT ( ) SI_UNIT ( $, .RADIAN. ) );
#290 =( NAMED_UNIT ( * ) SI_UNIT ( $, .STERADIAN. ) SOLID_ANGLE_UNIT ( ) );
#291 = DIRECTION ( 'NONE',  ( 3.265724797726278260E-17, -1.000000000000000000, 0.000000000000000000 ) ) ;
#292 =( CONVERSION_BASED_UNIT ( 'INCH', #165 ) LENGTH_UNIT ( ) NAMED_UNIT ( #10 ) );
#293 = PRODUCT ( '81803', '81803', '', ( #294 ) ) ;
#294 = PRODUCT_CONTEXT ( 'NONE', #189, 'mechanical' ) ;
#295 = ADVANCED_FACE ( 'NONE', ( #34 ), #261, .T. ) ;
#296 = ORIENTED_EDGE ( 'NONE', *, *, #27, .T. ) ;
#297 = CARTESIAN_POINT ( 'NONE',  ( 7.654042494670960626E-18, 0.000000000000000000, 0.06250000000000002776 ) ) ;
#298 = CIRCLE ( 'NONE', #52, 0.06250000000000000000 ) ;
#299 = AXIS2_PLACEMENT_3D ( 'NONE', #101, #259, #28 ) ;
#300 = ADVANCED_FACE ( 'NONE', ( #51 ), #80, .T. ) ;
#301 =( NAMED_UNIT ( * ) PLANE_ANGLE_UNIT ( ) SI_UNIT ( $, .RADIAN. ) );
#302 = ORIENTED_EDGE ( 'NONE', *, *, #90, .T. ) ;
#303 = FACE_OUTER_BOUND ( 'NONE', #111, .T. ) ;
#304 = ORIENTED_EDGE ( 'NONE', *, *, #19, .T. ) ;
#305 = VERTEX_POINT ( 'NONE', #100 ) ;
#306 = CARTESIAN_POINT ( 'NONE',  ( 0.06250000000000000000, 0.6250000000000000000, 7.654042494670963708E-18 ) ) ;
#307 = ORIENTED_EDGE ( 'NONE', *, *, #175, .T. ) ;
#308 = AXIS2_PLACEMENT_3D ( 'NONE', #93, #123, #141 ) ;
#309 =( NAMED_UNIT ( * ) SI_UNIT ( $, .STERADIAN. ) SOLID_ANGLE_UNIT ( ) );
ENDSEC;
END-ISO-10303-21;
