ISO-10303-21;
HEADER;
FILE_DESCRIPTION (( 'STEP AP214' ),
    '1' );
FILE_NAME ('59592.STEP',
    '2023-07-24T15:49:49',
    ( '' ),
    ( '' ),
    'SwSTEP 2.0',
    'SolidWorks 2023',
    '' );
FILE_SCHEMA (( 'AUTOMOTIVE_DESIGN' ));
ENDSEC;

DATA;
#1 = CARTESIAN_POINT ( 'NONE',  ( 3.000000000000000000, 63.00000000000000000, 3.673940397442058882E-16 ) ) ;
#2 = DIRECTION ( 'NONE',  ( 6.243297407417877041E-17, 1.000000000000000000, -0.000000000000000000 ) ) ;
#3 =( GEOMETRIC_REPRESENTATION_CONTEXT ( 3 ) GLOBAL_UNCERTAINTY_ASSIGNED_CONTEXT ( ( #271 ) ) GLOBAL_UNIT_ASSIGNED_CONTEXT ( ( #57, #81, #168 ) ) REPRESENTATION_CONTEXT ( 'NONE', 'WORKASPACE' ) );
#4 =( NAMED_UNIT ( * ) PLANE_ANGLE_UNIT ( ) SI_UNIT ( $, .RADIAN. ) );
#5 =( NAMED_UNIT ( * ) PLANE_ANGLE_UNIT ( ) SI_UNIT ( $, .RADIAN. ) );
#6 = DIRECTION ( 'NONE',  ( -0.000000000000000000, -1.000000000000000000, -0.000000000000000000 ) ) ;
#7 = PRESENTATION_STYLE_ASSIGNMENT (( #89 ) ) ;
#8 = CARTESIAN_POINT ( 'NONE',  ( 0.000000000000000000, 0.000000000000000000, -3.000000000000000000 ) ) ;
#9 = EDGE_CURVE ( 'NONE', #126, #241, #260, .T. ) ;
#10 = DIRECTION ( 'NONE',  ( 1.000000000000000000, -6.243297407417877041E-17, 0.000000000000000000 ) ) ;
#11 = ORIENTED_EDGE ( 'NONE', *, *, #265, .T. ) ;
#12 = SURFACE_STYLE_FILL_AREA ( #146 ) ;
#13 = ADVANCED_FACE ( 'NONE', ( #200 ), #286, .T. ) ;
#14 = STYLED_ITEM ( 'NONE', ( #190 ), #149 ) ;
#15 = CARTESIAN_POINT ( 'NONE',  ( 3.184081677783117402E-15, 63.00000000000000000, 0.000000000000000000 ) ) ;
#16 = STYLED_ITEM ( 'NONE', ( #221 ), #52 ) ;
#17 = EDGE_LOOP ( 'NONE', ( #82, #18 ) ) ;
#18 = ORIENTED_EDGE ( 'NONE', *, *, #283, .T. ) ;
#19 = FILL_AREA_STYLE_COLOUR ( '', #233 ) ;
#20 = DIRECTION ( 'NONE',  ( -1.000000000000000000, 0.000000000000000000, 0.000000000000000000 ) ) ;
#21 = LINE ( 'NONE', #223, #210 ) ;
#22 = CIRCLE ( 'NONE', #191, 3.000000000000000000 ) ;
#23 = CARTESIAN_POINT ( 'NONE',  ( 0.000000000000000000, 12.00000000000000000, 0.000000000000000000 ) ) ;
#24 = EDGE_CURVE ( 'NONE', #241, #126, #125, .T. ) ;
#25 = CARTESIAN_POINT ( 'NONE',  ( 3.673940397442059868E-16, 0.000000000000000000, 3.000000000000000000 ) ) ;
#26 = DIRECTION ( 'NONE',  ( -0.000000000000000000, -1.000000000000000000, -0.000000000000000000 ) ) ;
#27 = SURFACE_SIDE_STYLE ('',( #72 ) ) ;
#28 = EDGE_CURVE ( 'NONE', #186, #120, #21, .T. ) ;
#29 = DIRECTION ( 'NONE',  ( 6.243297407417877041E-17, 1.000000000000000000, -0.000000000000000000 ) ) ;
#30 = ORIENTED_EDGE ( 'NONE', *, *, #9, .T. ) ;
#31 = SURFACE_STYLE_USAGE ( .BOTH. , #36 ) ;
#32 = PRESENTATION_LAYER_ASSIGNMENT (  '', '', ( #16 ) ) ;
#33 = PRODUCT_DEFINITION_CONTEXT ( 'detailed design', #39, 'design' ) ;
#34 = EDGE_LOOP ( 'NONE', ( #217, #100, #150, #238 ) ) ;
#35 =( GEOMETRIC_REPRESENTATION_CONTEXT ( 3 ) GLOBAL_UNCERTAINTY_ASSIGNED_CONTEXT ( ( #49 ) ) GLOBAL_UNIT_ASSIGNED_CONTEXT ( ( #187, #248, #129 ) ) REPRESENTATION_CONTEXT ( 'NONE', 'WORKASPACE' ) );
#36 = SURFACE_SIDE_STYLE ('',( #94 ) ) ;
#37 = SURFACE_SIDE_STYLE ('',( #12 ) ) ;
#38 = FILL_AREA_STYLE ('',( #239 ) ) ;
#39 = APPLICATION_CONTEXT ( 'automotive_design' ) ;
#40 = VERTEX_POINT ( 'NONE', #266 ) ;
#41 = SURFACE_STYLE_USAGE ( .BOTH. , #37 ) ;
#42 = COLOUR_RGB ( '',1.000000000000000000, 0.000000000000000000, 0.000000000000000000 ) ;
#43 = EDGE_CURVE ( 'NONE', #276, #116, #184, .T. ) ;
#44 = DIRECTION ( 'NONE',  ( 6.243297407417877041E-17, 1.000000000000000000, -0.000000000000000000 ) ) ;
#45 = CYLINDRICAL_SURFACE ( 'NONE', #96, 3.000000000000000000 ) ;
#46 = EDGE_CURVE ( 'NONE', #258, #241, #48, .T. ) ;
#47 = DIRECTION ( 'NONE',  ( -1.000000000000000000, 0.000000000000000000, 0.000000000000000000 ) ) ;
#48 = LINE ( 'NONE', #25, #179 ) ;
#49 = UNCERTAINTY_MEASURE_WITH_UNIT (LENGTH_MEASURE( 1.000000000000000082E-05 ), #187, 'distance_accuracy_value', 'NONE');
#50 = LINE ( 'NONE', #154, #224 ) ;
#51 = FACE_OUTER_BOUND ( 'NONE', #62, .T. ) ;
#52 = ADVANCED_FACE ( 'NONE', ( #148 ), #245, .T. ) ;
#53 = DIRECTION ( 'NONE',  ( -0.000000000000000000, -1.000000000000000000, -0.000000000000000000 ) ) ;
#54 = SURFACE_STYLE_FILL_AREA ( #257 ) ;
#55 = PRESENTATION_LAYER_ASSIGNMENT (  '', '', ( #14 ) ) ;
#56 = DIRECTION ( 'NONE',  ( 0.000000000000000000, 0.000000000000000000, 1.000000000000000000 ) ) ;
#57 =( LENGTH_UNIT ( ) NAMED_UNIT ( * ) SI_UNIT ( .MILLI., .METRE. ) );
#58 = ORIENTED_EDGE ( 'NONE', *, *, #99, .T. ) ;
#59 = CLOSED_SHELL ( 'NONE', ( #255, #52, #95, #149 ) ) ;
#60 = DIRECTION ( 'NONE',  ( 0.000000000000000000, 0.000000000000000000, -1.000000000000000000 ) ) ;
#61 = AXIS2_PLACEMENT_3D ( 'NONE', #15, #29, #196 ) ;
#62 = EDGE_LOOP ( 'NONE', ( #175, #262 ) ) ;
#63 = PRESENTATION_LAYER_ASSIGNMENT (  '', '', ( #228 ) ) ;
#64 = COLOUR_RGB ( '',1.000000000000000000, 0.000000000000000000, 0.000000000000000000 ) ;
#65 = STYLED_ITEM ( 'NONE', ( #204 ), #231 ) ;
#66 = VECTOR ( 'NONE', #246, 1000.000000000000000 ) ;
#67 =( LENGTH_UNIT ( ) NAMED_UNIT ( * ) SI_UNIT ( .MILLI., .METRE. ) );
#68 = UNCERTAINTY_MEASURE_WITH_UNIT (LENGTH_MEASURE( 1.000000000000000082E-05 ), #107, 'distance_accuracy_value', 'NONE');
#69 = DIRECTION ( 'NONE',  ( 6.243297407417877041E-17, 1.000000000000000000, -0.000000000000000000 ) ) ;
#70 = SURFACE_SIDE_STYLE ('',( #181 ) ) ;
#71 = DIRECTION ( 'NONE',  ( 0.000000000000000000, 0.000000000000000000, -1.000000000000000000 ) ) ;
#72 = SURFACE_STYLE_FILL_AREA ( #38 ) ;
#73 = EDGE_CURVE ( 'NONE', #276, #186, #22, .T. ) ;
#74 = CARTESIAN_POINT ( 'NONE',  ( 3.000000000000000000, 11.99999999999999645, 3.673940397442058882E-16 ) ) ;
#75 = AXIS2_PLACEMENT_3D ( 'NONE', #23, #203, #93 ) ;
#76 = DIRECTION ( 'NONE',  ( 0.000000000000000000, 1.000000000000000000, 0.000000000000000000 ) ) ;
#77 = FILL_AREA_STYLE ('',( #216 ) ) ;
#78 = APPLICATION_PROTOCOL_DEFINITION ( 'draft international standard', 'automotive_design', 1998, #39 ) ;
#79 =( NAMED_UNIT ( * ) PLANE_ANGLE_UNIT ( ) SI_UNIT ( $, .RADIAN. ) );
#80 = ORIENTED_EDGE ( 'NONE', *, *, #244, .F. ) ;
#81 =( NAMED_UNIT ( * ) PLANE_ANGLE_UNIT ( ) SI_UNIT ( $, .RADIAN. ) );
#82 = ORIENTED_EDGE ( 'NONE', *, *, #282, .T. ) ;
#83 = CARTESIAN_POINT ( 'NONE',  ( 3.184081677783117402E-15, 63.00000000000000000, 0.000000000000000000 ) ) ;
#84 = CIRCLE ( 'NONE', #75, 3.000000000000000000 ) ;
#85 = FILL_AREA_STYLE ('',( #152 ) ) ;
#86 = CIRCLE ( 'NONE', #122, 3.000000000000000000 ) ;
#87 = CARTESIAN_POINT ( 'NONE',  ( 3.184081677783117402E-15, 63.00000000000000000, 0.000000000000000000 ) ) ;
#88 = MECHANICAL_DESIGN_GEOMETRIC_PRESENTATION_REPRESENTATION (  '', ( #65 ), #35 ) ;
#89 = SURFACE_STYLE_USAGE ( .BOTH. , #249 ) ;
#90 = ORIENTED_EDGE ( 'NONE', *, *, #46, .T. ) ;
#91 = DIRECTION ( 'NONE',  ( -1.000000000000000000, 0.000000000000000000, 0.000000000000000000 ) ) ;
#92 = CLOSED_SHELL ( 'NONE', ( #127, #117, #13, #209 ) ) ;
#93 = DIRECTION ( 'NONE',  ( 0.000000000000000000, 0.000000000000000000, -1.000000000000000000 ) ) ;
#94 = SURFACE_STYLE_FILL_AREA ( #77 ) ;
#95 = ADVANCED_FACE ( 'NONE', ( #205 ), #45, .T. ) ;
#96 = AXIS2_PLACEMENT_3D ( 'NONE', #247, #53, #208 ) ;
#97 = PLANE ( 'NONE',  #220 ) ;
#98 = PRESENTATION_LAYER_ASSIGNMENT (  '', '', ( #270 ) ) ;
#99 = EDGE_CURVE ( 'NONE', #40, #258, #86, .T. ) ;
#100 = ORIENTED_EDGE ( 'NONE', *, *, #73, .T. ) ;
#101 = AXIS2_PLACEMENT_3D ( 'NONE', #102, #177, #198 ) ;
#102 = CARTESIAN_POINT ( 'NONE',  ( 0.000000000000000000, 0.000000000000000000, 0.000000000000000000 ) ) ;
#103 = DIRECTION ( 'NONE',  ( -1.000000000000000000, 0.000000000000000000, 0.000000000000000000 ) ) ;
#104 = CIRCLE ( 'NONE', #243, 2.999999999999996891 ) ;
#105 = FILL_AREA_STYLE_COLOUR ( '', #42 ) ;
#106 = CARTESIAN_POINT ( 'NONE',  ( 0.000000000000000000, 11.99999999999999645, 0.000000000000000000 ) ) ;
#107 =( LENGTH_UNIT ( ) NAMED_UNIT ( * ) SI_UNIT ( .MILLI., .METRE. ) );
#108 = CARTESIAN_POINT ( 'NONE',  ( 3.673940397442059868E-16, 0.000000000000000000, 3.000000000000000000 ) ) ;
#109 =( NAMED_UNIT ( * ) PLANE_ANGLE_UNIT ( ) SI_UNIT ( $, .RADIAN. ) );
#110 = AXIS2_PLACEMENT_3D ( 'NONE', #269, #69, #138 ) ;
#111 =( LENGTH_UNIT ( ) NAMED_UNIT ( * ) SI_UNIT ( .MILLI., .METRE. ) );
#112 = CARTESIAN_POINT ( 'NONE',  ( 0.000000000000000000, 0.000000000000000000, 0.000000000000000000 ) ) ;
#113 = DIRECTION ( 'NONE',  ( 6.243297407417877041E-17, 1.000000000000000000, -0.000000000000000000 ) ) ;
#114 = ORIENTED_EDGE ( 'NONE', *, *, #28, .F. ) ;
#115 = AXIS2_PLACEMENT_3D ( 'NONE', #201, #287, #225 ) ;
#116 = VERTEX_POINT ( 'NONE', #1 ) ;
#117 = ADVANCED_FACE ( 'NONE', ( #51 ), #232, .F. ) ;
#118 = FACE_OUTER_BOUND ( 'NONE', #17, .T. ) ;
#119 = AXIS2_PLACEMENT_3D ( 'NONE', #281, #173, #10 ) ;
#120 = VERTEX_POINT ( 'NONE', #213 ) ;
#121 = ORIENTED_EDGE ( 'NONE', *, *, #24, .F. ) ;
#122 = AXIS2_PLACEMENT_3D ( 'NONE', #139, #162, #250 ) ;
#123 = ORIENTED_EDGE ( 'NONE', *, *, #285, .T. ) ;
#124 = DIRECTION ( 'NONE',  ( 6.243297407417877041E-17, 1.000000000000000000, -0.000000000000000000 ) ) ;
#125 = CIRCLE ( 'NONE', #115, 3.000000000000000000 ) ;
#126 = VERTEX_POINT ( 'NONE', #8 ) ;
#127 = ADVANCED_FACE ( 'NONE', ( #171 ), #279, .T. ) ;
#128 = MECHANICAL_DESIGN_GEOMETRIC_PRESENTATION_REPRESENTATION (  '', ( #270 ), #263 ) ;
#129 =( NAMED_UNIT ( * ) SI_UNIT ( $, .STERADIAN. ) SOLID_ANGLE_UNIT ( ) );
#130 = UNCERTAINTY_MEASURE_WITH_UNIT (LENGTH_MEASURE( 1.000000000000000082E-05 ), #111, 'distance_accuracy_value', 'NONE');
#131 = CARTESIAN_POINT ( 'NONE',  ( 5.846814377620617787E-33, 12.00000000000000000, 0.000000000000000000 ) ) ;
#132 = SURFACE_STYLE_FILL_AREA ( #183 ) ;
#133 = AXIS2_PLACEMENT_3D ( 'NONE', #131, #113, #192 ) ;
#134 =( LENGTH_UNIT ( ) NAMED_UNIT ( * ) SI_UNIT ( .MILLI., .METRE. ) );
#135 = DIRECTION ( 'NONE',  ( 0.000000000000000000, -0.000000000000000000, 1.000000000000000000 ) ) ;
#136 = STYLED_ITEM ( 'NONE', ( #172 ), #141 ) ;
#137 =( NAMED_UNIT ( * ) SI_UNIT ( $, .STERADIAN. ) SOLID_ANGLE_UNIT ( ) );
#138 = DIRECTION ( 'NONE',  ( -1.000000000000000000, 0.000000000000000000, 0.000000000000000000 ) ) ;
#139 = CARTESIAN_POINT ( 'NONE',  ( 0.000000000000000000, 12.00000000000000000, 0.000000000000000000 ) ) ;
#140 = SURFACE_SIDE_STYLE ('',( #54 ) ) ;
#141 = MANIFOLD_SOLID_BREP ( 'Revolve - Cutting Edge', #59 ) ;
#142 = CARTESIAN_POINT ( 'NONE',  ( 0.000000000000000000, 0.000000000000000000, 0.000000000000000000 ) ) ;
#143 = ORIENTED_EDGE ( 'NONE', *, *, #46, .F. ) ;
#144 = PRODUCT ( '59592', '59592', '', ( #234 ) ) ;
#145 = ORIENTED_EDGE ( 'NONE', *, *, #265, .F. ) ;
#146 = FILL_AREA_STYLE ('',( #19 ) ) ;
#147 = AXIS2_PLACEMENT_3D ( 'NONE', #158, #76, #135 ) ;
#148 = FACE_OUTER_BOUND ( 'NONE', #230, .T. ) ;
#149 = ADVANCED_FACE ( 'NONE', ( #189 ), #97, .T. ) ;
#150 = ORIENTED_EDGE ( 'NONE', *, *, #28, .T. ) ;
#151 = CARTESIAN_POINT ( 'NONE',  ( 0.000000000000000000, 0.000000000000000000, 0.000000000000000000 ) ) ;
#152 = FILL_AREA_STYLE_COLOUR ( '', #64 ) ;
#153 = AXIS2_PLACEMENT_3D ( 'NONE', #112, #56, #166 ) ;
#154 = CARTESIAN_POINT ( 'NONE',  ( 0.000000000000000000, 0.000000000000000000, -3.000000000000000000 ) ) ;
#155 = PRESENTATION_STYLE_ASSIGNMENT (( #206 ) ) ;
#156 = DIRECTION ( 'NONE',  ( 6.243297407417877041E-17, 1.000000000000000000, -0.000000000000000000 ) ) ;
#157 = CYLINDRICAL_SURFACE ( 'NONE', #202, 3.000000000000000000 ) ;
#158 = CARTESIAN_POINT ( 'NONE',  ( 0.000000000000000000, 12.00000000000000000, 0.000000000000000000 ) ) ;
#159 = CARTESIAN_POINT ( 'NONE',  ( 3.000000000000001332, 63.00000000000000000, 3.673940397442057896E-16 ) ) ;
#160 = ORIENTED_EDGE ( 'NONE', *, *, #99, .F. ) ;
#161 = FACE_OUTER_BOUND ( 'NONE', #280, .T. ) ;
#162 = DIRECTION ( 'NONE',  ( -0.000000000000000000, -1.000000000000000000, -0.000000000000000000 ) ) ;
#163 = CIRCLE ( 'NONE', #110, 3.000000000000000000 ) ;
#164 = CARTESIAN_POINT ( 'NONE',  ( 3.184081677783117402E-15, 63.00000000000000000, 0.000000000000000000 ) ) ;
#165 = DIRECTION ( 'NONE',  ( 6.243297407417877041E-17, 1.000000000000000000, -0.000000000000000000 ) ) ;
#166 = DIRECTION ( 'NONE',  ( 1.000000000000000000, 0.000000000000000000, 0.000000000000000000 ) ) ;
#167 = ORIENTED_EDGE ( 'NONE', *, *, #43, .T. ) ;
#168 =( NAMED_UNIT ( * ) SI_UNIT ( $, .STERADIAN. ) SOLID_ANGLE_UNIT ( ) );
#169 = ORIENTED_EDGE ( 'NONE', *, *, #282, .F. ) ;
#170 =( GEOMETRIC_REPRESENTATION_CONTEXT ( 3 ) GLOBAL_UNCERTAINTY_ASSIGNED_CONTEXT ( ( #130 ) ) GLOBAL_UNIT_ASSIGNED_CONTEXT ( ( #111, #79, #237 ) ) REPRESENTATION_CONTEXT ( 'NONE', 'WORKASPACE' ) );
#171 = FACE_OUTER_BOUND ( 'NONE', #236, .T. ) ;
#172 = PRESENTATION_STYLE_ASSIGNMENT (( #31 ) ) ;
#173 = DIRECTION ( 'NONE',  ( -6.243297407417877041E-17, -1.000000000000000000, 0.000000000000000000 ) ) ;
#174 = ORIENTED_EDGE ( 'NONE', *, *, #9, .F. ) ;
#175 = ORIENTED_EDGE ( 'NONE', *, *, #285, .F. ) ;
#176 = EDGE_LOOP ( 'NONE', ( #143, #11, #219, #121 ) ) ;
#177 = DIRECTION ( 'NONE',  ( -0.000000000000000000, -1.000000000000000000, -0.000000000000000000 ) ) ;
#178 = UNCERTAINTY_MEASURE_WITH_UNIT (LENGTH_MEASURE( 1.000000000000000082E-05 ), #199, 'distance_accuracy_value', 'NONE');
#179 = VECTOR ( 'NONE', #6, 1000.000000000000000 ) ;
#180 = DIRECTION ( 'NONE',  ( -0.000000000000000000, -1.000000000000000000, -0.000000000000000000 ) ) ;
#181 = SURFACE_STYLE_FILL_AREA ( #85 ) ;
#182 = COLOUR_RGB ( '',1.000000000000000000, 0.000000000000000000, 0.000000000000000000 ) ;
#183 = FILL_AREA_STYLE ('',( #105 ) ) ;
#184 = LINE ( 'NONE', #159, #66 ) ;
#185 = UNCERTAINTY_MEASURE_WITH_UNIT (LENGTH_MEASURE( 1.000000000000000082E-05 ), #134, 'distance_accuracy_value', 'NONE');
#186 = VERTEX_POINT ( 'NONE', #235 ) ;
#187 =( LENGTH_UNIT ( ) NAMED_UNIT ( * ) SI_UNIT ( .MILLI., .METRE. ) );
#188 =( GEOMETRIC_REPRESENTATION_CONTEXT ( 3 ) GLOBAL_UNCERTAINTY_ASSIGNED_CONTEXT ( ( #185 ) ) GLOBAL_UNIT_ASSIGNED_CONTEXT ( ( #134, #5, #214 ) ) REPRESENTATION_CONTEXT ( 'NONE', 'WORKASPACE' ) );
#189 = FACE_OUTER_BOUND ( 'NONE', #240, .T. ) ;
#190 = PRESENTATION_STYLE_ASSIGNMENT (( #212 ) ) ;
#191 = AXIS2_PLACEMENT_3D ( 'NONE', #106, #165, #20 ) ;
#192 = DIRECTION ( 'NONE',  ( -1.000000000000000000, 6.243297407417877041E-17, 0.000000000000000000 ) ) ;
#193 = PRESENTATION_LAYER_ASSIGNMENT (  '', '', ( #136 ) ) ;
#194 = SHAPE_DEFINITION_REPRESENTATION ( #259, #254 ) ;
#195 = DIRECTION ( 'NONE',  ( 0.000000000000000000, -1.000000000000000000, -0.000000000000000000 ) ) ;
#196 = DIRECTION ( 'NONE',  ( -1.000000000000000000, 0.000000000000000000, 0.000000000000000000 ) ) ;
#197 = AXIS2_PLACEMENT_3D ( 'NONE', #83, #124, #103 ) ;
#198 = DIRECTION ( 'NONE',  ( 0.000000000000000000, 0.000000000000000000, -1.000000000000000000 ) ) ;
#199 =( LENGTH_UNIT ( ) NAMED_UNIT ( * ) SI_UNIT ( .MILLI., .METRE. ) );
#200 = FACE_OUTER_BOUND ( 'NONE', #34, .T. ) ;
#201 = CARTESIAN_POINT ( 'NONE',  ( 0.000000000000000000, 0.000000000000000000, 0.000000000000000000 ) ) ;
#202 = AXIS2_PLACEMENT_3D ( 'NONE', #151, #180, #71 ) ;
#203 = DIRECTION ( 'NONE',  ( -0.000000000000000000, -1.000000000000000000, -0.000000000000000000 ) ) ;
#204 = PRESENTATION_STYLE_ASSIGNMENT (( #207 ) ) ;
#205 = FACE_OUTER_BOUND ( 'NONE', #176, .T. ) ;
#206 = SURFACE_STYLE_USAGE ( .BOTH. , #70 ) ;
#207 = SURFACE_STYLE_USAGE ( .BOTH. , #27 ) ;
#208 = DIRECTION ( 'NONE',  ( 0.000000000000000000, 0.000000000000000000, -1.000000000000000000 ) ) ;
#209 = ADVANCED_FACE ( 'NONE', ( #118 ), #284, .F. ) ;
#210 = VECTOR ( 'NONE', #156, 1000.000000000000000 ) ;
#211 = PRODUCT_DEFINITION_FORMATION_WITH_SPECIFIED_SOURCE ( 'ANY', '', #144, .NOT_KNOWN. ) ;
#212 = SURFACE_STYLE_USAGE ( .BOTH. , #140 ) ;
#213 = CARTESIAN_POINT ( 'NONE',  ( -2.999999999999993783, 63.00000000000000000, 0.000000000000000000 ) ) ;
#214 =( NAMED_UNIT ( * ) SI_UNIT ( $, .STERADIAN. ) SOLID_ANGLE_UNIT ( ) );
#215 = CIRCLE ( 'NONE', #275, 2.999999999999996891 ) ;
#216 = FILL_AREA_STYLE_COLOUR ( '', #256 ) ;
#217 = ORIENTED_EDGE ( 'NONE', *, *, #43, .F. ) ;
#218 = MECHANICAL_DESIGN_GEOMETRIC_PRESENTATION_REPRESENTATION (  '', ( #16 ), #242 ) ;
#219 = ORIENTED_EDGE ( 'NONE', *, *, #244, .T. ) ;
#220 = AXIS2_PLACEMENT_3D ( 'NONE', #142, #195, #60 ) ;
#221 = PRESENTATION_STYLE_ASSIGNMENT (( #41 ) ) ;
#222 = PRODUCT_DEFINITION ( 'UNKNOWN', '', #211, #33 ) ;
#223 = CARTESIAN_POINT ( 'NONE',  ( -2.999999999999995115, 63.00000000000000000, 0.000000000000000000 ) ) ;
#224 = VECTOR ( 'NONE', #26, 1000.000000000000000 ) ;
#225 = DIRECTION ( 'NONE',  ( 0.000000000000000000, 0.000000000000000000, -1.000000000000000000 ) ) ;
#226 = CARTESIAN_POINT ( 'NONE',  ( 3.673940397442059868E-16, 12.00000000000000000, 3.000000000000000000 ) ) ;
#227 =( NAMED_UNIT ( * ) PLANE_ANGLE_UNIT ( ) SI_UNIT ( $, .RADIAN. ) );
#228 = STYLED_ITEM ( 'NONE', ( #155 ), #95 ) ;
#229 = MECHANICAL_DESIGN_GEOMETRIC_PRESENTATION_REPRESENTATION (  '', ( #136 ), #170 ) ;
#230 = EDGE_LOOP ( 'NONE', ( #160, #145 ) ) ;
#231 = MANIFOLD_SOLID_BREP ( 'Revolve - Tool Body (Straight Shanked)', #92 ) ;
#232 = PLANE ( 'NONE',  #133 ) ;
#233 = COLOUR_RGB ( '',1.000000000000000000, 0.000000000000000000, 0.000000000000000000 ) ;
#234 = PRODUCT_CONTEXT ( 'NONE', #268, 'mechanical' ) ;
#235 = CARTESIAN_POINT ( 'NONE',  ( -3.000000000000000000, 11.99999999999999645, 0.000000000000000000 ) ) ;
#236 = EDGE_LOOP ( 'NONE', ( #123, #167, #169, #114 ) ) ;
#237 =( NAMED_UNIT ( * ) SI_UNIT ( $, .STERADIAN. ) SOLID_ANGLE_UNIT ( ) );
#238 = ORIENTED_EDGE ( 'NONE', *, *, #283, .F. ) ;
#239 = FILL_AREA_STYLE_COLOUR ( '', #288 ) ;
#240 = EDGE_LOOP ( 'NONE', ( #30, #264 ) ) ;
#241 = VERTEX_POINT ( 'NONE', #108 ) ;
#242 =( GEOMETRIC_REPRESENTATION_CONTEXT ( 3 ) GLOBAL_UNCERTAINTY_ASSIGNED_CONTEXT ( ( #178 ) ) GLOBAL_UNIT_ASSIGNED_CONTEXT ( ( #199, #227, #267 ) ) REPRESENTATION_CONTEXT ( 'NONE', 'WORKASPACE' ) );
#243 = AXIS2_PLACEMENT_3D ( 'NONE', #164, #44, #91 ) ;
#244 = EDGE_CURVE ( 'NONE', #40, #126, #50, .T. ) ;
#245 = PLANE ( 'NONE',  #147 ) ;
#246 = DIRECTION ( 'NONE',  ( 6.243297407417877041E-17, 1.000000000000000000, -0.000000000000000000 ) ) ;
#247 = CARTESIAN_POINT ( 'NONE',  ( 0.000000000000000000, 0.000000000000000000, 0.000000000000000000 ) ) ;
#248 =( NAMED_UNIT ( * ) PLANE_ANGLE_UNIT ( ) SI_UNIT ( $, .RADIAN. ) );
#249 = SURFACE_SIDE_STYLE ('',( #132 ) ) ;
#250 = DIRECTION ( 'NONE',  ( 0.000000000000000000, 0.000000000000000000, -1.000000000000000000 ) ) ;
#251 = MECHANICAL_DESIGN_GEOMETRIC_PRESENTATION_REPRESENTATION (  '', ( #14 ), #3 ) ;
#252 = UNCERTAINTY_MEASURE_WITH_UNIT (LENGTH_MEASURE( 1.000000000000000082E-05 ), #67, 'distance_accuracy_value', 'NONE');
#253 = FILL_AREA_STYLE_COLOUR ( '', #182 ) ;
#254 = ADVANCED_BREP_SHAPE_REPRESENTATION ( '59592', ( #141, #231, #153 ), #188 ) ;
#255 = ADVANCED_FACE ( 'NONE', ( #161 ), #157, .T. ) ;
#256 = COLOUR_RGB ( '',0.7921568627450980005, 0.8196078431372548767, 0.9333333333333333481 ) ;
#257 = FILL_AREA_STYLE ('',( #253 ) ) ;
#258 = VERTEX_POINT ( 'NONE', #226 ) ;
#259 = PRODUCT_DEFINITION_SHAPE ( 'NONE', 'NONE',  #222 ) ;
#260 = CIRCLE ( 'NONE', #101, 3.000000000000000000 ) ;
#261 = PRODUCT_RELATED_PRODUCT_CATEGORY ( 'part', '', ( #144 ) ) ;
#262 = ORIENTED_EDGE ( 'NONE', *, *, #73, .F. ) ;
#263 =( GEOMETRIC_REPRESENTATION_CONTEXT ( 3 ) GLOBAL_UNCERTAINTY_ASSIGNED_CONTEXT ( ( #252 ) ) GLOBAL_UNIT_ASSIGNED_CONTEXT ( ( #67, #109, #137 ) ) REPRESENTATION_CONTEXT ( 'NONE', 'WORKASPACE' ) );
#264 = ORIENTED_EDGE ( 'NONE', *, *, #24, .T. ) ;
#265 = EDGE_CURVE ( 'NONE', #258, #40, #84, .T. ) ;
#266 = CARTESIAN_POINT ( 'NONE',  ( 0.000000000000000000, 12.00000000000000000, -3.000000000000000000 ) ) ;
#267 =( NAMED_UNIT ( * ) SI_UNIT ( $, .STERADIAN. ) SOLID_ANGLE_UNIT ( ) );
#268 = APPLICATION_CONTEXT ( 'automotive_design' ) ;
#269 = CARTESIAN_POINT ( 'NONE',  ( 0.000000000000000000, 11.99999999999999645, 0.000000000000000000 ) ) ;
#270 = STYLED_ITEM ( 'NONE', ( #7 ), #255 ) ;
#271 = UNCERTAINTY_MEASURE_WITH_UNIT (LENGTH_MEASURE( 1.000000000000000082E-05 ), #57, 'distance_accuracy_value', 'NONE');
#272 = PRESENTATION_LAYER_ASSIGNMENT (  '', '', ( #65 ) ) ;
#273 =( GEOMETRIC_REPRESENTATION_CONTEXT ( 3 ) GLOBAL_UNCERTAINTY_ASSIGNED_CONTEXT ( ( #68 ) ) GLOBAL_UNIT_ASSIGNED_CONTEXT ( ( #107, #4, #274 ) ) REPRESENTATION_CONTEXT ( 'NONE', 'WORKASPACE' ) );
#274 =( NAMED_UNIT ( * ) SI_UNIT ( $, .STERADIAN. ) SOLID_ANGLE_UNIT ( ) );
#275 = AXIS2_PLACEMENT_3D ( 'NONE', #87, #2, #47 ) ;
#276 = VERTEX_POINT ( 'NONE', #74 ) ;
#277 = MECHANICAL_DESIGN_GEOMETRIC_PRESENTATION_REPRESENTATION (  '', ( #228 ), #273 ) ;
#278 = APPLICATION_PROTOCOL_DEFINITION ( 'draft international standard', 'automotive_design', 1998, #268 ) ;
#279 = CYLINDRICAL_SURFACE ( 'NONE', #61, 2.999999999999998224 ) ;
#280 = EDGE_LOOP ( 'NONE', ( #58, #90, #174, #80 ) ) ;
#281 = CARTESIAN_POINT ( 'NONE',  ( 3.000000000000000000, 63.00000000000000000, 0.000000000000000000 ) ) ;
#282 = EDGE_CURVE ( 'NONE', #120, #116, #104, .T. ) ;
#283 = EDGE_CURVE ( 'NONE', #116, #120, #215, .T. ) ;
#284 = PLANE ( 'NONE',  #119 ) ;
#285 = EDGE_CURVE ( 'NONE', #186, #276, #163, .T. ) ;
#286 = CYLINDRICAL_SURFACE ( 'NONE', #197, 2.999999999999998224 ) ;
#287 = DIRECTION ( 'NONE',  ( -0.000000000000000000, -1.000000000000000000, -0.000000000000000000 ) ) ;
#288 = COLOUR_RGB ( '',0.7921568627450980005, 0.8196078431372548767, 0.9333333333333333481 ) ;
ENDSEC;
END-ISO-10303-21;
