ISO-10303-21;
HEADER;
FILE_DESCRIPTION (( 'STEP AP214' ),
    '1' );
FILE_NAME ('Micro_EMS-500-4.STEP',
    '2021-09-01T18:01:47',
    ( '' ),
    ( '' ),
    'SwSTEP 2.0',
    'SolidWorks 2020',
    '' );
FILE_SCHEMA (( 'AUTOMOTIVE_DESIGN' ));
ENDSEC;

DATA;
#1 = DIRECTION ( 'NONE',  ( -1.000000000000000000, 0.0000000000000000000, 0.0000000000000000000 ) ) ;
#2 = CONICAL_SURFACE ( 'NONE', #130, 0.2497499999999999998, 0.1745329251994339192 ) ;
#3 = DIRECTION ( 'NONE',  ( -1.000000000000000000, 0.0000000000000000000, 1.224646799147353700E-16 ) ) ;
#4 = EDGE_LOOP ( 'NONE', ( #163, #196, #86, #148 ) ) ;
#5 = DIRECTION ( 'NONE',  ( -0.7071067811865402453, 0.0000000000000000000, -0.7071067811865546782 ) ) ;
#6 = DIRECTION ( 'NONE',  ( 1.000000000000000000, 0.0000000000000000000, 0.0000000000000000000 ) ) ;
#7 = PRESENTATION_LAYER_ASSIGNMENT (  '', '', ( #197 ) ) ;
#8 = CARTESIAN_POINT ( 'NONE',  ( 3.745650057197990990E-33, 0.0000000000000000000, 3.058555380870515566E-17 ) ) ;
#9 = ORIENTED_EDGE ( 'NONE', *, *, #30, .F. ) ;
#10 = FACE_OUTER_BOUND ( 'NONE', #56, .T. ) ;
#11 = DIRECTION ( 'NONE',  ( -1.000000000000000000, 0.0000000000000000000, 0.0000000000000000000 ) ) ;
#12 = VECTOR ( 'NONE', #186, 39.37007874015748143 ) ;
#13 = CARTESIAN_POINT ( 'NONE',  ( 1.224646799147353454E-16, 0.0000000000000000000, 1.000000000000000000 ) ) ;
#14 = DIRECTION ( 'NONE',  ( -0.0000000000000000000, -0.0000000000000000000, -1.000000000000000000 ) ) ;
#15 = EDGE_CURVE ( 'NONE', #129, #273, #224, .T. ) ;
#16 = AXIS2_PLACEMENT_3D ( 'NONE', #152, #74, #183 ) ;
#17 = DIRECTION ( 'NONE',  ( 1.000000000000000000, 0.0000000000000000000, -0.0000000000000000000 ) ) ;
#18 = PRESENTATION_LAYER_ASSIGNMENT (  '', '', ( #89 ) ) ;
#19 = SURFACE_STYLE_USAGE ( .BOTH. , #104 ) ;
#20 = ADVANCED_FACE ( 'NONE', ( #290 ), #237, .F. ) ;
#21 = FILL_AREA_STYLE_COLOUR ( '', #87 ) ;
#22 = ADVANCED_FACE ( 'NONE', ( #271 ), #161, .T. ) ;
#23 = ORIENTED_EDGE ( 'NONE', *, *, #15, .F. ) ;
#24 = CARTESIAN_POINT ( 'NONE',  ( -0.2350000000000011524, 0.0000000000000000000, 3.000000000000000444 ) ) ;
#25 = VERTEX_POINT ( 'NONE', #283 ) ;
#26 = DIRECTION ( 'NONE',  ( 1.224646799147353454E-16, 0.0000000000000000000, 1.000000000000000000 ) ) ;
#27 = AXIS2_PLACEMENT_3D ( 'NONE', #13, #213, #11 ) ;
#28 = EDGE_CURVE ( 'NONE', #216, #279, #209, .T. ) ;
#29 = LINE ( 'NONE', #156, #252 ) ;
#30 = EDGE_CURVE ( 'NONE', #219, #216, #29, .T. ) ;
#31 = DIRECTION ( 'NONE',  ( 1.000000000000000000, 0.0000000000000000000, 0.0000000000000000000 ) ) ;
#32 = DIRECTION ( 'NONE',  ( -1.000000000000000000, 0.0000000000000000000, 1.224646799147353700E-16 ) ) ;
#33 = FACE_OUTER_BOUND ( 'NONE', #143, .T. ) ;
#34 = ORIENTED_EDGE ( 'NONE', *, *, #194, .T. ) ;
#35 = CARTESIAN_POINT ( 'NONE',  ( 3.745650057197990990E-33, 0.0000000000000000000, 3.058555380870515566E-17 ) ) ;
#36 = UNCERTAINTY_MEASURE_WITH_UNIT (LENGTH_MEASURE( 1.000000000000000082E-05 ), #170, 'distance_accuracy_value', 'NONE');
#37 = MECHANICAL_DESIGN_GEOMETRIC_PRESENTATION_REPRESENTATION (  '', ( #197 ), #178 ) ;
#38 = PRODUCT_DEFINITION_FORMATION_WITH_SPECIFIED_SOURCE ( 'ANY', '', #63, .NOT_KNOWN. ) ;
#39 = DIRECTION ( 'NONE',  ( 1.000000000000000000, 0.0000000000000000000, -0.0000000000000000000 ) ) ;
#40 = ORIENTED_EDGE ( 'NONE', *, *, #207, .T. ) ;
#41 = ORIENTED_EDGE ( 'NONE', *, *, #149, .T. ) ;
#42 = PRESENTATION_STYLE_ASSIGNMENT (( #19 ) ) ;
#43 = ORIENTED_EDGE ( 'NONE', *, *, #261, .T. ) ;
#44 = VERTEX_POINT ( 'NONE', #91 ) ;
#45 = AXIS2_PLACEMENT_3D ( 'NONE', #81, #269, #159 ) ;
#46 = DIRECTION ( 'NONE',  ( -0.0000000000000000000, -0.0000000000000000000, -1.000000000000000000 ) ) ;
#47 = CARTESIAN_POINT ( 'NONE',  ( 0.0000000000000000000, 0.0000000000000000000, 3.000000000000000444 ) ) ;
#48 = DIMENSIONAL_EXPONENTS ( 1.000000000000000000, 0.0000000000000000000, 0.0000000000000000000, 0.0000000000000000000, 0.0000000000000000000, 0.0000000000000000000, 0.0000000000000000000 ) ;
#49 = CIRCLE ( 'NONE', #295, 0.2500000000000000000 ) ;
#50 = DIRECTION ( 'NONE',  ( -1.000000000000000000, 0.0000000000000000000, 0.0000000000000000000 ) ) ;
#51 = DIRECTION ( 'NONE',  ( 1.224646799147353454E-16, 0.0000000000000000000, 1.000000000000000000 ) ) ;
#52 = CARTESIAN_POINT ( 'NONE',  ( 0.2497500000000001386, 0.0000000000000000000, 1.000000000000000000 ) ) ;
#53 = SURFACE_STYLE_USAGE ( .BOTH. , #162 ) ;
#54 = CIRCLE ( 'NONE', #90, 0.2350000000000011524 ) ;
#55 = DIRECTION ( 'NONE',  ( 0.0000000000000000000, 0.0000000000000000000, 1.000000000000000000 ) ) ;
#56 = EDGE_LOOP ( 'NONE', ( #248, #124, #84, #9 ) ) ;
#57 = ORIENTED_EDGE ( 'NONE', *, *, #240, .T. ) ;
#58 =( LENGTH_UNIT ( ) NAMED_UNIT ( * ) SI_UNIT ( $, .METRE. ) );
#59 = DIRECTION ( 'NONE',  ( 0.0000000000000000000, 0.0000000000000000000, -1.000000000000000000 ) ) ;
#60 =( GEOMETRIC_REPRESENTATION_CONTEXT ( 3 ) GLOBAL_UNCERTAINTY_ASSIGNED_CONTEXT ( ( #238 ) ) GLOBAL_UNIT_ASSIGNED_CONTEXT ( ( #101, #64, #145 ) ) REPRESENTATION_CONTEXT ( 'NONE', 'WORKASPACE' ) );
#61 = VERTEX_POINT ( 'NONE', #256 ) ;
#62 = LENGTH_MEASURE_WITH_UNIT ( LENGTH_MEASURE( 0.02539999999999999897 ), #296 );
#63 = PRODUCT ( 'Micro_EMS-500-4', 'Micro_EMS-500-4', '', ( #199 ) ) ;
#64 =( NAMED_UNIT ( * ) PLANE_ANGLE_UNIT ( ) SI_UNIT ( $, .RADIAN. ) );
#65 = EDGE_LOOP ( 'NONE', ( #40, #276 ) ) ;
#66 = VECTOR ( 'NONE', #166, 39.37007874015748143 ) ;
#67 = VECTOR ( 'NONE', #259, 39.37007874015748854 ) ;
#68 = DIRECTION ( 'NONE',  ( -1.224646799147353454E-16, -0.0000000000000000000, -1.000000000000000000 ) ) ;
#69 = LINE ( 'NONE', #232, #299 ) ;
#70 = EDGE_CURVE ( 'NONE', #61, #246, #223, .T. ) ;
#71 = ORIENTED_EDGE ( 'NONE', *, *, #70, .F. ) ;
#72 = CARTESIAN_POINT ( 'NONE',  ( 1.226383128429217700E-16, 0.0000000000000000000, 1.001417820454904462 ) ) ;
#73 = FACE_OUTER_BOUND ( 'NONE', #173, .T. ) ;
#74 = DIRECTION ( 'NONE',  ( 0.0000000000000000000, 0.0000000000000000000, 1.000000000000000000 ) ) ;
#75 =( NAMED_UNIT ( * ) PLANE_ANGLE_UNIT ( ) SI_UNIT ( $, .RADIAN. ) );
#76 = ADVANCED_FACE ( 'NONE', ( #154 ), #107, .T. ) ;
#77 = ORIENTED_EDGE ( 'NONE', *, *, #207, .F. ) ;
#78 = CARTESIAN_POINT ( 'NONE',  ( 0.0000000000000000000, 0.0000000000000000000, 0.0000000000000000000 ) ) ;
#79 = DIRECTION ( 'NONE',  ( -1.000000000000000000, 0.0000000000000000000, 0.0000000000000000000 ) ) ;
#80 = ORIENTED_EDGE ( 'NONE', *, *, #214, .F. ) ;
#81 = CARTESIAN_POINT ( 'NONE',  ( 0.0000000000000000000, 0.0000000000000000000, 2.985000000000001208 ) ) ;
#82 = ORIENTED_EDGE ( 'NONE', *, *, #270, .F. ) ;
#83 = LINE ( 'NONE', #266, #66 ) ;
#84 = ORIENTED_EDGE ( 'NONE', *, *, #240, .F. ) ;
#85 = DIRECTION ( 'NONE',  ( -1.000000000000000000, 0.0000000000000000000, 1.224646799147353700E-16 ) ) ;
#86 = ORIENTED_EDGE ( 'NONE', *, *, #30, .T. ) ;
#87 = COLOUR_RGB ( '',0.7921568627450980005, 0.8196078431372548767, 0.9333333333333333481 ) ;
#88 =( NAMED_UNIT ( * ) SI_UNIT ( $, .STERADIAN. ) SOLID_ANGLE_UNIT ( ) );
#89 = STYLED_ITEM ( 'NONE', ( #42 ), #253 ) ;
#90 = AXIS2_PLACEMENT_3D ( 'NONE', #119, #55, #260 ) ;
#91 = CARTESIAN_POINT ( 'NONE',  ( 0.2350000000000011524, 2.969768487932338510E-17, 3.000000000000000444 ) ) ;
#92 = DIRECTION ( 'NONE',  ( -1.224646799147353454E-16, -0.0000000000000000000, -1.000000000000000000 ) ) ;
#93 = FACE_OUTER_BOUND ( 'NONE', #198, .T. ) ;
#94 = CARTESIAN_POINT ( 'NONE',  ( 0.2497499999999999998, 3.058555380870514950E-17, 0.0000000000000000000 ) ) ;
#95 = CARTESIAN_POINT ( 'NONE',  ( -0.2497499999999999998, 0.0000000000000000000, 6.117110761741031132E-17 ) ) ;
#96 = AXIS2_PLACEMENT_3D ( 'NONE', #78, #164, #17 ) ;
#97 = CYLINDRICAL_SURFACE ( 'NONE', #278, 0.2500000000000000000 ) ;
#98 = DIRECTION ( 'NONE',  ( -1.000000000000000000, 0.0000000000000000000, 0.0000000000000000000 ) ) ;
#99 = AXIS2_PLACEMENT_3D ( 'NONE', #111, #208, #31 ) ;
#100 = CARTESIAN_POINT ( 'NONE',  ( 1.224646799147353454E-16, 0.0000000000000000000, 1.000000000000000000 ) ) ;
#101 =( CONVERSION_BASED_UNIT ( 'INCH', #123 ) LENGTH_UNIT ( ) NAMED_UNIT ( #180 ) );
#102 = ORIENTED_EDGE ( 'NONE', *, *, #275, .F. ) ;
#103 = DIRECTION ( 'NONE',  ( 0.0000000000000000000, 0.0000000000000000000, 1.000000000000000000 ) ) ;
#104 = SURFACE_SIDE_STYLE ('',( #247 ) ) ;
#105 = EDGE_LOOP ( 'NONE', ( #57, #43, #245, #203 ) ) ;
#106 = ORIENTED_EDGE ( 'NONE', *, *, #169, .F. ) ;
#107 = CYLINDRICAL_SURFACE ( 'NONE', #230, 0.2497499999999999998 ) ;
#108 = VECTOR ( 'NONE', #218, 39.37007874015748143 ) ;
#109 = AXIS2_PLACEMENT_3D ( 'NONE', #118, #59, #79 ) ;
#110 = APPLICATION_CONTEXT ( 'automotive_design' ) ;
#111 = CARTESIAN_POINT ( 'NONE',  ( 1.226383128429217700E-16, 0.0000000000000000000, 1.001417820454904462 ) ) ;
#112 = FACE_OUTER_BOUND ( 'NONE', #105, .T. ) ;
#113 = DIRECTION ( 'NONE',  ( -1.000000000000000000, 0.0000000000000000000, 0.0000000000000000000 ) ) ;
#114 = CIRCLE ( 'NONE', #172, 0.2500000000000000000 ) ;
#115 = CARTESIAN_POINT ( 'NONE',  ( 0.2350000000000011524, 2.877919977996294002E-17, 3.000000000000000444 ) ) ;
#116 = MECHANICAL_DESIGN_GEOMETRIC_PRESENTATION_REPRESENTATION (  '', ( #89 ), #289 ) ;
#117 = DIRECTION ( 'NONE',  ( -1.224646799147353454E-16, -0.0000000000000000000, -1.000000000000000000 ) ) ;
#118 = CARTESIAN_POINT ( 'NONE',  ( 0.0000000000000000000, 0.0000000000000000000, 3.000000000000000444 ) ) ;
#119 = CARTESIAN_POINT ( 'NONE',  ( 0.0000000000000000000, 0.0000000000000000000, 3.000000000000000444 ) ) ;
#120 = AXIS2_PLACEMENT_3D ( 'NONE', #8, #134, #3 ) ;
#121 = ORIENTED_EDGE ( 'NONE', *, *, #176, .T. ) ;
#122 = DIRECTION ( 'NONE',  ( 0.0000000000000000000, 0.0000000000000000000, 1.000000000000000000 ) ) ;
#123 = LENGTH_MEASURE_WITH_UNIT ( LENGTH_MEASURE( 0.02539999999999999897 ), #291 );
#124 = ORIENTED_EDGE ( 'NONE', *, *, #184, .T. ) ;
#125 = ADVANCED_FACE ( 'NONE', ( #73 ), #2, .T. ) ;
#126 =( NAMED_UNIT ( * ) PLANE_ANGLE_UNIT ( ) SI_UNIT ( $, .RADIAN. ) );
#127 = AXIS2_PLACEMENT_3D ( 'NONE', #258, #234, #50 ) ;
#128 = ORIENTED_EDGE ( 'NONE', *, *, #194, .F. ) ;
#129 = VERTEX_POINT ( 'NONE', #94 ) ;
#130 = AXIS2_PLACEMENT_3D ( 'NONE', #157, #51, #205 ) ;
#131 = CARTESIAN_POINT ( 'NONE',  ( 0.0000000000000000000, 0.0000000000000000000, 2.985000000000001208 ) ) ;
#132 = LINE ( 'NONE', #52, #12 ) ;
#133 = AXIS2_PLACEMENT_3D ( 'NONE', #35, #265, #85 ) ;
#134 = DIRECTION ( 'NONE',  ( -1.224646799147353454E-16, -0.0000000000000000000, -1.000000000000000000 ) ) ;
#135 = DIRECTION ( 'NONE',  ( 1.000000000000000000, 0.0000000000000000000, 0.0000000000000000000 ) ) ;
#136 = DIRECTION ( 'NONE',  ( -0.1736481776669312194, 2.126576849575783625E-17, 0.9848077530122080203 ) ) ;
#137 = VECTOR ( 'NONE', #136, 39.37007874015747433 ) ;
#138 = AXIS2_PLACEMENT_3D ( 'NONE', #244, #122, #39 ) ;
#139 = CARTESIAN_POINT ( 'NONE',  ( -0.2499999999999998612, 0.0000000000000000000, 1.001417820454904462 ) ) ;
#140 =( NAMED_UNIT ( * ) SI_UNIT ( $, .STERADIAN. ) SOLID_ANGLE_UNIT ( ) );
#141 = FACE_OUTER_BOUND ( 'NONE', #292, .T. ) ;
#142 = AXIS2_PLACEMENT_3D ( 'NONE', #100, #26, #6 ) ;
#143 = EDGE_LOOP ( 'NONE', ( #150, #187, #77, #80 ) ) ;
#144 = PRODUCT_DEFINITION ( 'UNKNOWN', '', #38, #285 ) ;
#145 =( NAMED_UNIT ( * ) SI_UNIT ( $, .STERADIAN. ) SOLID_ANGLE_UNIT ( ) );
#146 = APPLICATION_PROTOCOL_DEFINITION ( 'draft international standard', 'automotive_design', 1998, #110 ) ;
#147 = CIRCLE ( 'NONE', #27, 0.2497499999999999998 ) ;
#148 = ORIENTED_EDGE ( 'NONE', *, *, #181, .F. ) ;
#149 = EDGE_CURVE ( 'NONE', #219, #44, #272, .T. ) ;
#150 = ORIENTED_EDGE ( 'NONE', *, *, #270, .T. ) ;
#151 = CIRCLE ( 'NONE', #99, 0.2500000000000000000 ) ;
#152 = CARTESIAN_POINT ( 'NONE',  ( 0.0000000000000000000, 0.0000000000000000000, 3.000000000000000444 ) ) ;
#153 = PRODUCT_RELATED_PRODUCT_CATEGORY ( 'part', '', ( #63 ) ) ;
#154 = FACE_OUTER_BOUND ( 'NONE', #263, .T. ) ;
#155 = ORIENTED_EDGE ( 'NONE', *, *, #204, .T. ) ;
#156 = CARTESIAN_POINT ( 'NONE',  ( -0.2350000000000011524, 0.0000000000000000000, 3.000000000000000444 ) ) ;
#157 = CARTESIAN_POINT ( 'NONE',  ( 1.224646799147353454E-16, 0.0000000000000000000, 1.000000000000000000 ) ) ;
#158 = DIRECTION ( 'NONE',  ( 0.0000000000000000000, 0.0000000000000000000, -1.000000000000000000 ) ) ;
#159 = DIRECTION ( 'NONE',  ( 1.000000000000000000, 0.0000000000000000000, 0.0000000000000000000 ) ) ;
#160 = UNCERTAINTY_MEASURE_WITH_UNIT (LENGTH_MEASURE( 1.000000000000000082E-05 ), #195, 'distance_accuracy_value', 'NONE');
#161 = CONICAL_SURFACE ( 'NONE', #142, 0.2497499999999999998, 0.1745329251994339192 ) ;
#162 = SURFACE_SIDE_STYLE ('',( #239 ) ) ;
#163 = ORIENTED_EDGE ( 'NONE', *, *, #184, .F. ) ;
#164 = DIRECTION ( 'NONE',  ( 0.0000000000000000000, 0.0000000000000000000, 1.000000000000000000 ) ) ;
#165 = LINE ( 'NONE', #167, #108 ) ;
#166 = DIRECTION ( 'NONE',  ( -1.224646799147353454E-16, -0.0000000000000000000, -1.000000000000000000 ) ) ;
#167 = CARTESIAN_POINT ( 'NONE',  ( 0.2500000000000000000, 3.061616997868382402E-17, 3.000000000000000444 ) ) ;
#168 = CIRCLE ( 'NONE', #45, 0.2500000000000000000 ) ;
#169 = EDGE_CURVE ( 'NONE', #61, #206, #132, .T. ) ;
#170 =( CONVERSION_BASED_UNIT ( 'INCH', #62 ) LENGTH_UNIT ( ) NAMED_UNIT ( #48 ) );
#171 = CLOSED_SHELL ( 'NONE', ( #235, #22, #294, #220, #226, #298, #200, #125, #76, #20 ) ) ;
#172 = AXIS2_PLACEMENT_3D ( 'NONE', #72, #229, #135 ) ;
#173 = EDGE_LOOP ( 'NONE', ( #193, #71, #297, #34 ) ) ;
#174 = CARTESIAN_POINT ( 'NONE',  ( 0.0000000000000000000, 0.0000000000000000000, 0.0000000000000000000 ) ) ;
#175 = ORIENTED_EDGE ( 'NONE', *, *, #214, .T. ) ;
#176 = EDGE_CURVE ( 'NONE', #279, #206, #114, .T. ) ;
#177 = CYLINDRICAL_SURFACE ( 'NONE', #268, 0.2500000000000000000 ) ;
#178 =( GEOMETRIC_REPRESENTATION_CONTEXT ( 3 ) GLOBAL_UNCERTAINTY_ASSIGNED_CONTEXT ( ( #160 ) ) GLOBAL_UNIT_ASSIGNED_CONTEXT ( ( #195, #75, #140 ) ) REPRESENTATION_CONTEXT ( 'NONE', 'WORKASPACE' ) );
#179 = DIRECTION ( 'NONE',  ( 1.000000000000000000, 0.0000000000000000000, 0.0000000000000000000 ) ) ;
#180 = DIMENSIONAL_EXPONENTS ( 1.000000000000000000, 0.0000000000000000000, 0.0000000000000000000, 0.0000000000000000000, 0.0000000000000000000, 0.0000000000000000000, 0.0000000000000000000 ) ;
#181 = EDGE_CURVE ( 'NONE', #25, #216, #49, .T. ) ;
#182 = ORIENTED_EDGE ( 'NONE', *, *, #70, .T. ) ;
#183 = DIRECTION ( 'NONE',  ( 1.000000000000000000, 0.0000000000000000000, 0.0000000000000000000 ) ) ;
#184 = EDGE_CURVE ( 'NONE', #44, #25, #254, .T. ) ;
#185 = DIRECTION ( 'NONE',  ( -0.0000000000000000000, -0.0000000000000000000, -1.000000000000000000 ) ) ;
#186 = DIRECTION ( 'NONE',  ( 0.1736481776669314137, 0.0000000000000000000, 0.9848077530122077983 ) ) ;
#187 = ORIENTED_EDGE ( 'NONE', *, *, #275, .T. ) ;
#188 = APPLICATION_CONTEXT ( 'automotive_design' ) ;
#189 = CARTESIAN_POINT ( 'NONE',  ( -0.2497499999999998888, 3.060086189369449292E-17, 1.000000000000000000 ) ) ;
#190 = COLOUR_RGB ( '',0.7921568627450980005, 0.8196078431372548767, 0.9333333333333333481 ) ;
#191 = PLANE ( 'NONE',  #138 ) ;
#192 = PRODUCT_DEFINITION_SHAPE ( 'NONE', 'NONE',  #144 ) ;
#193 = ORIENTED_EDGE ( 'NONE', *, *, #204, .F. ) ;
#194 = EDGE_CURVE ( 'NONE', #206, #279, #151, .T. ) ;
#195 =( CONVERSION_BASED_UNIT ( 'INCH', #286 ) LENGTH_UNIT ( ) NAMED_UNIT ( #233 ) );
#196 = ORIENTED_EDGE ( 'NONE', *, *, #149, .F. ) ;
#197 = STYLED_ITEM ( 'NONE', ( #262 ), #228 ) ;
#198 = EDGE_LOOP ( 'NONE', ( #222, #267, #274, #128 ) ) ;
#199 = PRODUCT_CONTEXT ( 'NONE', #188, 'mechanical' ) ;
#200 = ADVANCED_FACE ( 'NONE', ( #227 ), #217, .T. ) ;
#201 = APPLICATION_PROTOCOL_DEFINITION ( 'draft international standard', 'automotive_design', 1998, #188 ) ;
#202 = SHAPE_DEFINITION_REPRESENTATION ( #192, #253 ) ;
#203 = ORIENTED_EDGE ( 'NONE', *, *, #28, .F. ) ;
#204 = EDGE_CURVE ( 'NONE', #246, #279, #281, .T. ) ;
#205 = DIRECTION ( 'NONE',  ( 1.000000000000000000, 0.0000000000000000000, 0.0000000000000000000 ) ) ;
#206 = VERTEX_POINT ( 'NONE', #236 ) ;
#207 = EDGE_CURVE ( 'NONE', #273, #129, #257, .T. ) ;
#208 = DIRECTION ( 'NONE',  ( -1.224646799147353454E-16, -0.0000000000000000000, -1.000000000000000000 ) ) ;
#209 = LINE ( 'NONE', #277, #225 ) ;
#210 = CARTESIAN_POINT ( 'NONE',  ( -0.2497499999999998888, 3.058555380870514950E-17, 1.000000000000000000 ) ) ;
#211 = CONICAL_SURFACE ( 'NONE', #109, 0.2350000000000011524, 0.7853981633974380649 ) ;
#212 = DIRECTION ( 'NONE',  ( 0.0000000000000000000, 0.0000000000000000000, -1.000000000000000000 ) ) ;
#213 = DIRECTION ( 'NONE',  ( -1.224646799147353454E-16, -0.0000000000000000000, -1.000000000000000000 ) ) ;
#214 = EDGE_CURVE ( 'NONE', #246, #273, #69, .T. ) ;
#215 = CYLINDRICAL_SURFACE ( 'NONE', #243, 0.2497499999999999998 ) ;
#216 = VERTEX_POINT ( 'NONE', #255 ) ;
#217 = CONICAL_SURFACE ( 'NONE', #288, 0.2350000000000011524, 0.7853981633974380649 ) ;
#218 = DIRECTION ( 'NONE',  ( -0.0000000000000000000, -0.0000000000000000000, -1.000000000000000000 ) ) ;
#219 = VERTEX_POINT ( 'NONE', #24 ) ;
#220 = ADVANCED_FACE ( 'NONE', ( #112 ), #177, .T. ) ;
#221 = CARTESIAN_POINT ( 'NONE',  ( 0.0000000000000000000, 0.0000000000000000000, 0.0000000000000000000 ) ) ;
#222 = ORIENTED_EDGE ( 'NONE', *, *, #261, .F. ) ;
#223 = CIRCLE ( 'NONE', #127, 0.2497499999999999998 ) ;
#224 = CIRCLE ( 'NONE', #133, 0.2497499999999999998 ) ;
#225 = VECTOR ( 'NONE', #185, 39.37007874015748143 ) ;
#226 = ADVANCED_FACE ( 'NONE', ( #93 ), #97, .T. ) ;
#227 = FACE_OUTER_BOUND ( 'NONE', #4, .T. ) ;
#228 = MANIFOLD_SOLID_BREP ( 'Cut-Revolve1', #171 ) ;
#229 = DIRECTION ( 'NONE',  ( -1.224646799147353454E-16, -0.0000000000000000000, -1.000000000000000000 ) ) ;
#230 = AXIS2_PLACEMENT_3D ( 'NONE', #282, #68, #32 ) ;
#231 = AXIS2_PLACEMENT_3D ( 'NONE', #174, #103, #250 ) ;
#232 = CARTESIAN_POINT ( 'NONE',  ( -0.2497499999999999998, 0.0000000000000000000, 3.058555380870515566E-17 ) ) ;
#233 = DIMENSIONAL_EXPONENTS ( 1.000000000000000000, 0.0000000000000000000, 0.0000000000000000000, 0.0000000000000000000, 0.0000000000000000000, 0.0000000000000000000, 0.0000000000000000000 ) ;
#234 = DIRECTION ( 'NONE',  ( -1.224646799147353454E-16, -0.0000000000000000000, -1.000000000000000000 ) ) ;
#235 = ADVANCED_FACE ( 'NONE', ( #33 ), #215, .T. ) ;
#236 = CARTESIAN_POINT ( 'NONE',  ( 0.2500000000000001110, 3.061616997868383634E-17, 1.001417820454904462 ) ) ;
#237 = PLANE ( 'NONE',  #96 ) ;
#238 = UNCERTAINTY_MEASURE_WITH_UNIT (LENGTH_MEASURE( 1.000000000000000082E-05 ), #101, 'distance_accuracy_value', 'NONE');
#239 = SURFACE_STYLE_FILL_AREA ( #264 ) ;
#240 = EDGE_CURVE ( 'NONE', #216, #25, #168, .T. ) ;
#241 = EDGE_LOOP ( 'NONE', ( #82, #155, #121, #106 ) ) ;
#242 = FILL_AREA_STYLE_COLOUR ( '', #190 ) ;
#243 = AXIS2_PLACEMENT_3D ( 'NONE', #221, #117, #293 ) ;
#244 = CARTESIAN_POINT ( 'NONE',  ( 0.0000000000000000000, 0.0000000000000000000, 3.000000000000000444 ) ) ;
#245 = ORIENTED_EDGE ( 'NONE', *, *, #176, .F. ) ;
#246 = VERTEX_POINT ( 'NONE', #189 ) ;
#247 = SURFACE_STYLE_FILL_AREA ( #249 ) ;
#248 = ORIENTED_EDGE ( 'NONE', *, *, #251, .F. ) ;
#249 = FILL_AREA_STYLE ('',( #21 ) ) ;
#250 = DIRECTION ( 'NONE',  ( 1.000000000000000000, 0.0000000000000000000, 0.0000000000000000000 ) ) ;
#251 = EDGE_CURVE ( 'NONE', #44, #219, #54, .T. ) ;
#252 = VECTOR ( 'NONE', #5, 39.37007874015748854 ) ;
#253 = ADVANCED_BREP_SHAPE_REPRESENTATION ( 'Micro_EMS-500-4', ( #228, #231 ), #60 ) ;
#254 = LINE ( 'NONE', #115, #67 ) ;
#255 = CARTESIAN_POINT ( 'NONE',  ( -0.2500000000000000000, 0.0000000000000000000, 2.985000000000001208 ) ) ;
#256 = CARTESIAN_POINT ( 'NONE',  ( 0.2497500000000001386, 0.0000000000000000000, 1.000000000000000000 ) ) ;
#257 = CIRCLE ( 'NONE', #120, 0.2497499999999999998 ) ;
#258 = CARTESIAN_POINT ( 'NONE',  ( 1.224646799147353454E-16, 0.0000000000000000000, 1.000000000000000000 ) ) ;
#259 = DIRECTION ( 'NONE',  ( 0.7071067811865402453, 8.659560562354845344E-17, -0.7071067811865546782 ) ) ;
#260 = DIRECTION ( 'NONE',  ( 1.000000000000000000, 0.0000000000000000000, 0.0000000000000000000 ) ) ;
#261 = EDGE_CURVE ( 'NONE', #25, #206, #165, .T. ) ;
#262 = PRESENTATION_STYLE_ASSIGNMENT (( #53 ) ) ;
#263 = EDGE_LOOP ( 'NONE', ( #102, #182, #175, #23 ) ) ;
#264 = FILL_AREA_STYLE ('',( #242 ) ) ;
#265 = DIRECTION ( 'NONE',  ( -1.224646799147353454E-16, -0.0000000000000000000, -1.000000000000000000 ) ) ;
#266 = CARTESIAN_POINT ( 'NONE',  ( 0.2497499999999999998, 3.058555380870514950E-17, -3.058555380870515566E-17 ) ) ;
#267 = ORIENTED_EDGE ( 'NONE', *, *, #181, .T. ) ;
#268 = AXIS2_PLACEMENT_3D ( 'NONE', #47, #46, #1 ) ;
#269 = DIRECTION ( 'NONE',  ( 0.0000000000000000000, 0.0000000000000000000, -1.000000000000000000 ) ) ;
#270 = EDGE_CURVE ( 'NONE', #246, #61, #147, .T. ) ;
#271 = FACE_OUTER_BOUND ( 'NONE', #241, .T. ) ;
#272 = CIRCLE ( 'NONE', #16, 0.2350000000000011524 ) ;
#273 = VERTEX_POINT ( 'NONE', #95 ) ;
#274 = ORIENTED_EDGE ( 'NONE', *, *, #28, .T. ) ;
#275 = EDGE_CURVE ( 'NONE', #61, #129, #83, .T. ) ;
#276 = ORIENTED_EDGE ( 'NONE', *, *, #15, .T. ) ;
#277 = CARTESIAN_POINT ( 'NONE',  ( -0.2500000000000000000, 0.0000000000000000000, 3.000000000000000444 ) ) ;
#278 = AXIS2_PLACEMENT_3D ( 'NONE', #284, #14, #98 ) ;
#279 = VERTEX_POINT ( 'NONE', #139 ) ;
#280 = CARTESIAN_POINT ( 'NONE',  ( 0.0000000000000000000, 0.0000000000000000000, 3.000000000000000444 ) ) ;
#281 = LINE ( 'NONE', #210, #137 ) ;
#282 = CARTESIAN_POINT ( 'NONE',  ( 0.0000000000000000000, 0.0000000000000000000, 0.0000000000000000000 ) ) ;
#283 = CARTESIAN_POINT ( 'NONE',  ( 0.2500000000000000000, 3.061616997868382402E-17, 2.985000000000001208 ) ) ;
#284 = CARTESIAN_POINT ( 'NONE',  ( 0.0000000000000000000, 0.0000000000000000000, 3.000000000000000444 ) ) ;
#285 = PRODUCT_DEFINITION_CONTEXT ( 'detailed design', #110, 'design' ) ;
#286 = LENGTH_MEASURE_WITH_UNIT ( LENGTH_MEASURE( 0.02539999999999999897 ), #58 );
#287 = ORIENTED_EDGE ( 'NONE', *, *, #251, .T. ) ;
#288 = AXIS2_PLACEMENT_3D ( 'NONE', #280, #212, #113 ) ;
#289 =( GEOMETRIC_REPRESENTATION_CONTEXT ( 3 ) GLOBAL_UNCERTAINTY_ASSIGNED_CONTEXT ( ( #36 ) ) GLOBAL_UNIT_ASSIGNED_CONTEXT ( ( #170, #126, #88 ) ) REPRESENTATION_CONTEXT ( 'NONE', 'WORKASPACE' ) );
#290 = FACE_OUTER_BOUND ( 'NONE', #65, .T. ) ;
#291 =( LENGTH_UNIT ( ) NAMED_UNIT ( * ) SI_UNIT ( $, .METRE. ) );
#292 = EDGE_LOOP ( 'NONE', ( #41, #287 ) ) ;
#293 = DIRECTION ( 'NONE',  ( -1.000000000000000000, 0.0000000000000000000, 1.224646799147353700E-16 ) ) ;
#294 = ADVANCED_FACE ( 'NONE', ( #10 ), #211, .T. ) ;
#295 = AXIS2_PLACEMENT_3D ( 'NONE', #131, #158, #179 ) ;
#296 =( LENGTH_UNIT ( ) NAMED_UNIT ( * ) SI_UNIT ( $, .METRE. ) );
#297 = ORIENTED_EDGE ( 'NONE', *, *, #169, .T. ) ;
#298 = ADVANCED_FACE ( 'NONE', ( #141 ), #191, .T. ) ;
#299 = VECTOR ( 'NONE', #92, 39.37007874015748143 ) ;
ENDSEC;
END-ISO-10303-21;
