ISO-10303-21;
HEADER;
FILE_DESCRIPTION (( 'STEP AP214' ),
    '1' );
FILE_NAME ('59250.STEP',
    '2023-06-22T22:07:48',
    ( '' ),
    ( '' ),
    'SwSTEP 2.0',
    'SolidWorks 2023',
    '' );
FILE_SCHEMA (( 'AUTOMOTIVE_DESIGN' ));
ENDSEC;

DATA;
#1 = CIRCLE ( 'NONE', #8, 0.1250000000000000278 ) ;
#2 = PRODUCT ( '59250', '59250', '', ( #169 ) ) ;
#3 = FILL_AREA_STYLE_COLOUR ( '', #132 ) ;
#4 = EDGE_CURVE ( 'NONE', #171, #72, #62, .T. ) ;
#5 =( NAMED_UNIT ( * ) SI_UNIT ( $, .STERADIAN. ) SOLID_ANGLE_UNIT ( ) );
#6 =( NAMED_UNIT ( * ) SI_UNIT ( $, .STERADIAN. ) SOLID_ANGLE_UNIT ( ) );
#7 = FILL_AREA_STYLE_COLOUR ( '', #117 ) ;
#8 = AXIS2_PLACEMENT_3D ( 'NONE', #10, #296, #109 ) ;
#9 = EDGE_CURVE ( 'NONE', #235, #72, #103, .T. ) ;
#10 = CARTESIAN_POINT ( 'NONE',  ( 6.065921084684207584E-32, 0.3750000000000002220, 0.000000000000000000 ) ) ;
#11 =( CONVERSION_BASED_UNIT ( 'INCH', #288 ) LENGTH_UNIT ( ) NAMED_UNIT ( #79 ) );
#12 = AXIS2_PLACEMENT_3D ( 'NONE', #78, #124, #150 ) ;
#13 = SURFACE_STYLE_USAGE ( .BOTH. , #277 ) ;
#14 = PRESENTATION_LAYER_ASSIGNMENT (  '', '', ( #212 ) ) ;
#15 = CARTESIAN_POINT ( 'NONE',  ( 0.000000000000000000, 0.000000000000000000, -0.1250000000000000278 ) ) ;
#16 = AXIS2_PLACEMENT_3D ( 'NONE', #30, #223, #224 ) ;
#17 = DIRECTION ( 'NONE',  ( -0.000000000000000000, -1.000000000000000000, -0.000000000000000000 ) ) ;
#18 = ORIENTED_EDGE ( 'NONE', *, *, #302, .T. ) ;
#19 = EDGE_LOOP ( 'NONE', ( #18, #118 ) ) ;
#20 = EDGE_CURVE ( 'NONE', #152, #65, #35, .T. ) ;
#21 = EDGE_LOOP ( 'NONE', ( #308, #231, #193, #196 ) ) ;
#22 = DIRECTION ( 'NONE',  ( 3.014515197901178074E-16, 1.000000000000000000, -0.000000000000000000 ) ) ;
#23 = DIRECTION ( 'NONE',  ( -0.000000000000000000, -1.000000000000000000, -0.000000000000000000 ) ) ;
#24 = MECHANICAL_DESIGN_GEOMETRIC_PRESENTATION_REPRESENTATION (  '', ( #225 ), #85 ) ;
#25 = FILL_AREA_STYLE_COLOUR ( '', #123 ) ;
#26 = COLOUR_RGB ( '',1.000000000000000000, 0.000000000000000000, 0.000000000000000000 ) ;
#27 = CARTESIAN_POINT ( 'NONE',  ( 0.1250000000000000278, 2.000000000000000000, 0.000000000000000000 ) ) ;
#28 =( LENGTH_UNIT ( ) NAMED_UNIT ( * ) SI_UNIT ( $, .METRE. ) );
#29 = APPLICATION_PROTOCOL_DEFINITION ( 'draft international standard', 'automotive_design', 1998, #74 ) ;
#30 = CARTESIAN_POINT ( 'NONE',  ( 0.000000000000000000, 0.000000000000000000, 0.000000000000000000 ) ) ;
#31 = CYLINDRICAL_SURFACE ( 'NONE', #305, 0.1249999999999997918 ) ;
#32 = SURFACE_STYLE_USAGE ( .BOTH. , #59 ) ;
#33 = EDGE_CURVE ( 'NONE', #43, #171, #280, .T. ) ;
#34 = LENGTH_MEASURE_WITH_UNIT ( LENGTH_MEASURE( 0.02539999999999999897 ), #301 );
#35 = LINE ( 'NONE', #148, #105 ) ;
#36 = ORIENTED_EDGE ( 'NONE', *, *, #302, .F. ) ;
#37 = PRESENTATION_STYLE_ASSIGNMENT (( #13 ) ) ;
#38 = DIRECTION ( 'NONE',  ( 1.000000000000000000, 0.000000000000000000, 0.000000000000000000 ) ) ;
#39 = DIRECTION ( 'NONE',  ( -0.000000000000000000, -1.000000000000000000, -0.000000000000000000 ) ) ;
#40 = ADVANCED_FACE ( 'NONE', ( #161 ), #31, .T. ) ;
#41 = AXIS2_PLACEMENT_3D ( 'NONE', #48, #287, #177 ) ;
#42 = EDGE_LOOP ( 'NONE', ( #115, #304 ) ) ;
#43 = VERTEX_POINT ( 'NONE', #83 ) ;
#44 = PRODUCT_RELATED_PRODUCT_CATEGORY ( 'part', '', ( #2 ) ) ;
#45 =( NAMED_UNIT ( * ) PLANE_ANGLE_UNIT ( ) SI_UNIT ( $, .RADIAN. ) );
#46 = DIRECTION ( 'NONE',  ( -0.000000000000000000, -1.000000000000000000, -0.000000000000000000 ) ) ;
#47 = DIMENSIONAL_EXPONENTS ( 1.000000000000000000, 0.000000000000000000, 0.000000000000000000, 0.000000000000000000, 0.000000000000000000, 0.000000000000000000, 0.000000000000000000 ) ;
#48 = CARTESIAN_POINT ( 'NONE',  ( 5.679563673985738961E-33, 0.3750000000000002220, 0.000000000000000000 ) ) ;
#49 = EDGE_CURVE ( 'NONE', #240, #65, #178, .T. ) ;
#50 = CARTESIAN_POINT ( 'NONE',  ( 4.898587196589413815E-16, 2.000000000000000000, 0.000000000000000000 ) ) ;
#51 = FACE_OUTER_BOUND ( 'NONE', #281, .T. ) ;
#52 = DIMENSIONAL_EXPONENTS ( 1.000000000000000000, 0.000000000000000000, 0.000000000000000000, 0.000000000000000000, 0.000000000000000000, 0.000000000000000000, 0.000000000000000000 ) ;
#53 =( GEOMETRIC_REPRESENTATION_CONTEXT ( 3 ) GLOBAL_UNCERTAINTY_ASSIGNED_CONTEXT ( ( #130 ) ) GLOBAL_UNIT_ASSIGNED_CONTEXT ( ( #11, #300, #189 ) ) REPRESENTATION_CONTEXT ( 'NONE', 'WORKASPACE' ) );
#54 = UNCERTAINTY_MEASURE_WITH_UNIT (LENGTH_MEASURE( 1.000000000000000082E-05 ), #98, 'distance_accuracy_value', 'NONE');
#55 = CARTESIAN_POINT ( 'NONE',  ( 0.000000000000000000, 0.000000000000000000, 0.000000000000000000 ) ) ;
#56 = PRODUCT_DEFINITION_CONTEXT ( 'detailed design', #57, 'design' ) ;
#57 = APPLICATION_CONTEXT ( 'automotive_design' ) ;
#58 = COLOUR_RGB ( '',0.7921568627450980005, 0.8196078431372548767, 0.9333333333333333481 ) ;
#59 = SURFACE_SIDE_STYLE ('',( #114 ) ) ;
#60 = DIRECTION ( 'NONE',  ( -1.000000000000000000, 0.000000000000000000, 0.000000000000000000 ) ) ;
#61 = DIRECTION ( 'NONE',  ( -1.000000000000000000, 0.000000000000000000, 0.000000000000000000 ) ) ;
#62 = LINE ( 'NONE', #284, #205 ) ;
#63 = PRESENTATION_STYLE_ASSIGNMENT (( #290 ) ) ;
#64 = STYLED_ITEM ( 'NONE', ( #163 ), #309 ) ;
#65 = VERTEX_POINT ( 'NONE', #236 ) ;
#66 = ADVANCED_FACE ( 'NONE', ( #276 ), #255, .F. ) ;
#67 = CARTESIAN_POINT ( 'NONE',  ( 0.000000000000000000, 0.000000000000000000, 0.000000000000000000 ) ) ;
#68 = DIRECTION ( 'NONE',  ( 3.014515197901178074E-16, 1.000000000000000000, -0.000000000000000000 ) ) ;
#69 = ORIENTED_EDGE ( 'NONE', *, *, #136, .F. ) ;
#70 = CIRCLE ( 'NONE', #184, 0.1250000000000000278 ) ;
#71 = CARTESIAN_POINT ( 'NONE',  ( -0.1249999999999990424, 2.000000000000000000, 0.000000000000000000 ) ) ;
#72 = VERTEX_POINT ( 'NONE', #15 ) ;
#73 = AXIS2_PLACEMENT_3D ( 'NONE', #55, #227, #106 ) ;
#74 = APPLICATION_CONTEXT ( 'automotive_design' ) ;
#75 = SURFACE_STYLE_FILL_AREA ( #203 ) ;
#76 = MECHANICAL_DESIGN_GEOMETRIC_PRESENTATION_REPRESENTATION (  '', ( #269 ), #53 ) ;
#77 = FILL_AREA_STYLE ('',( #3 ) ) ;
#78 = CARTESIAN_POINT ( 'NONE',  ( 0.000000000000000000, 0.3750000000000002220, 0.000000000000000000 ) ) ;
#79 = DIMENSIONAL_EXPONENTS ( 1.000000000000000000, 0.000000000000000000, 0.000000000000000000, 0.000000000000000000, 0.000000000000000000, 0.000000000000000000, 0.000000000000000000 ) ;
#80 = PLANE ( 'NONE',  #16 ) ;
#81 = LINE ( 'NONE', #157, #176 ) ;
#82 = UNCERTAINTY_MEASURE_WITH_UNIT (LENGTH_MEASURE( 1.000000000000000082E-05 ), #116, 'distance_accuracy_value', 'NONE');
#83 = CARTESIAN_POINT ( 'NONE',  ( 1.530808498934191817E-17, 0.3750000000000002220, 0.1250000000000000278 ) ) ;
#84 = LENGTH_MEASURE_WITH_UNIT ( LENGTH_MEASURE( 0.02539999999999999897 ), #180 );
#85 =( GEOMETRIC_REPRESENTATION_CONTEXT ( 3 ) GLOBAL_UNCERTAINTY_ASSIGNED_CONTEXT ( ( #82 ) ) GLOBAL_UNIT_ASSIGNED_CONTEXT ( ( #116, #99, #6 ) ) REPRESENTATION_CONTEXT ( 'NONE', 'WORKASPACE' ) );
#86 = FILL_AREA_STYLE_COLOUR ( '', #26 ) ;
#87 = CARTESIAN_POINT ( 'NONE',  ( 4.898587196589413815E-16, 2.000000000000000000, 0.000000000000000000 ) ) ;
#88 = CARTESIAN_POINT ( 'NONE',  ( 0.000000000000000000, 0.000000000000000000, 0.000000000000000000 ) ) ;
#89 =( LENGTH_UNIT ( ) NAMED_UNIT ( * ) SI_UNIT ( $, .METRE. ) );
#90 = ORIENTED_EDGE ( 'NONE', *, *, #202, .T. ) ;
#91 = ADVANCED_FACE ( 'NONE', ( #111 ), #267, .T. ) ;
#92 = DIRECTION ( 'NONE',  ( 1.000000000000000000, -3.014515197901178074E-16, 0.000000000000000000 ) ) ;
#93 =( GEOMETRIC_REPRESENTATION_CONTEXT ( 3 ) GLOBAL_UNCERTAINTY_ASSIGNED_CONTEXT ( ( #54 ) ) GLOBAL_UNIT_ASSIGNED_CONTEXT ( ( #98, #45, #160 ) ) REPRESENTATION_CONTEXT ( 'NONE', 'WORKASPACE' ) );
#94 = ORIENTED_EDGE ( 'NONE', *, *, #226, .T. ) ;
#95 = ORIENTED_EDGE ( 'NONE', *, *, #9, .F. ) ;
#96 = ORIENTED_EDGE ( 'NONE', *, *, #197, .T. ) ;
#97 = CARTESIAN_POINT ( 'NONE',  ( -0.1250000000000000278, 0.3750000000000002776, 0.000000000000000000 ) ) ;
#98 =( CONVERSION_BASED_UNIT ( 'INCH', #303 ) LENGTH_UNIT ( ) NAMED_UNIT ( #138 ) );
#99 =( NAMED_UNIT ( * ) PLANE_ANGLE_UNIT ( ) SI_UNIT ( $, .RADIAN. ) );
#100 = AXIS2_PLACEMENT_3D ( 'NONE', #265, #23, #127 ) ;
#101 = LINE ( 'NONE', #209, #282 ) ;
#102 = DIRECTION ( 'NONE',  ( 3.014515197901178074E-16, 1.000000000000000000, -0.000000000000000000 ) ) ;
#103 = CIRCLE ( 'NONE', #246, 0.1250000000000000278 ) ;
#104 = CIRCLE ( 'NONE', #141, 0.1250000000000000278 ) ;
#105 = VECTOR ( 'NONE', #215, 39.37007874015748143 ) ;
#106 = DIRECTION ( 'NONE',  ( 0.000000000000000000, 0.000000000000000000, -1.000000000000000000 ) ) ;
#107 = SHAPE_DEFINITION_REPRESENTATION ( #268, #139 ) ;
#108 = FILL_AREA_STYLE ('',( #283 ) ) ;
#109 = DIRECTION ( 'NONE',  ( -1.000000000000000000, 5.463695987328525451E-16, 0.000000000000000000 ) ) ;
#110 = ORIENTED_EDGE ( 'NONE', *, *, #226, .F. ) ;
#111 = FACE_OUTER_BOUND ( 'NONE', #238, .T. ) ;
#112 = ORIENTED_EDGE ( 'NONE', *, *, #197, .F. ) ;
#113 =( NAMED_UNIT ( * ) PLANE_ANGLE_UNIT ( ) SI_UNIT ( $, .RADIAN. ) );
#114 = SURFACE_STYLE_FILL_AREA ( #237 ) ;
#115 = ORIENTED_EDGE ( 'NONE', *, *, #293, .F. ) ;
#116 =( CONVERSION_BASED_UNIT ( 'INCH', #168 ) LENGTH_UNIT ( ) NAMED_UNIT ( #52 ) );
#117 = COLOUR_RGB ( '',0.7921568627450980005, 0.8196078431372548767, 0.9333333333333333481 ) ;
#118 = ORIENTED_EDGE ( 'NONE', *, *, #9, .T. ) ;
#119 =( LENGTH_UNIT ( ) NAMED_UNIT ( * ) SI_UNIT ( $, .METRE. ) );
#120 = ORIENTED_EDGE ( 'NONE', *, *, #4, .F. ) ;
#121 = FILL_AREA_STYLE_COLOUR ( '', #58 ) ;
#122 = CARTESIAN_POINT ( 'NONE',  ( 0.000000000000000000, 0.3750000000000002220, 0.000000000000000000 ) ) ;
#123 = COLOUR_RGB ( '',1.000000000000000000, 0.000000000000000000, 0.000000000000000000 ) ;
#124 = DIRECTION ( 'NONE',  ( -0.000000000000000000, -1.000000000000000000, -0.000000000000000000 ) ) ;
#125 = DIRECTION ( 'NONE',  ( 0.000000000000000000, -0.000000000000000000, 1.000000000000000000 ) ) ;
#126 = DIMENSIONAL_EXPONENTS ( 1.000000000000000000, 0.000000000000000000, 0.000000000000000000, 0.000000000000000000, 0.000000000000000000, 0.000000000000000000, 0.000000000000000000 ) ;
#127 = DIRECTION ( 'NONE',  ( 0.000000000000000000, 0.000000000000000000, -1.000000000000000000 ) ) ;
#128 = CARTESIAN_POINT ( 'NONE',  ( 0.1250000000000000278, 0.3750000000000001665, 1.530808498934190276E-17 ) ) ;
#129 = CYLINDRICAL_SURFACE ( 'NONE', #100, 0.1250000000000000278 ) ;
#130 = UNCERTAINTY_MEASURE_WITH_UNIT (LENGTH_MEASURE( 1.000000000000000082E-05 ), #11, 'distance_accuracy_value', 'NONE');
#131 = AXIS2_PLACEMENT_3D ( 'NONE', #27, #234, #92 ) ;
#132 = COLOUR_RGB ( '',1.000000000000000000, 0.000000000000000000, 0.000000000000000000 ) ;
#133 =( CONVERSION_BASED_UNIT ( 'INCH', #143 ) LENGTH_UNIT ( ) NAMED_UNIT ( #47 ) );
#134 = DIMENSIONAL_EXPONENTS ( 1.000000000000000000, 0.000000000000000000, 0.000000000000000000, 0.000000000000000000, 0.000000000000000000, 0.000000000000000000, 0.000000000000000000 ) ;
#135 = FACE_OUTER_BOUND ( 'NONE', #19, .T. ) ;
#136 = EDGE_CURVE ( 'NONE', #43, #235, #101, .T. ) ;
#137 =( NAMED_UNIT ( * ) SI_UNIT ( $, .STERADIAN. ) SOLID_ANGLE_UNIT ( ) );
#138 = DIMENSIONAL_EXPONENTS ( 1.000000000000000000, 0.000000000000000000, 0.000000000000000000, 0.000000000000000000, 0.000000000000000000, 0.000000000000000000, 0.000000000000000000 ) ;
#139 = ADVANCED_BREP_SHAPE_REPRESENTATION ( '59250', ( #258, #164, #207 ), #190 ) ;
#140 =( NAMED_UNIT ( * ) SI_UNIT ( $, .STERADIAN. ) SOLID_ANGLE_UNIT ( ) );
#141 = AXIS2_PLACEMENT_3D ( 'NONE', #195, #68, #172 ) ;
#142 =( GEOMETRIC_REPRESENTATION_CONTEXT ( 3 ) GLOBAL_UNCERTAINTY_ASSIGNED_CONTEXT ( ( #244 ) ) GLOBAL_UNIT_ASSIGNED_CONTEXT ( ( #147, #252, #137 ) ) REPRESENTATION_CONTEXT ( 'NONE', 'WORKASPACE' ) );
#143 = LENGTH_MEASURE_WITH_UNIT ( LENGTH_MEASURE( 0.02539999999999999897 ), #230 );
#144 = ADVANCED_FACE ( 'NONE', ( #249 ), #183, .F. ) ;
#145 = DIRECTION ( 'NONE',  ( 0.000000000000000000, 0.000000000000000000, -1.000000000000000000 ) ) ;
#146 = MECHANICAL_DESIGN_GEOMETRIC_PRESENTATION_REPRESENTATION (  '', ( #212 ), #306 ) ;
#147 =( CONVERSION_BASED_UNIT ( 'INCH', #34 ) LENGTH_UNIT ( ) NAMED_UNIT ( #134 ) );
#148 = CARTESIAN_POINT ( 'NONE',  ( 0.1250000000000002776, 2.000000000000000000, 1.530808498934189044E-17 ) ) ;
#149 = DIRECTION ( 'NONE',  ( 3.014515197901178074E-16, 1.000000000000000000, -0.000000000000000000 ) ) ;
#150 = DIRECTION ( 'NONE',  ( 0.000000000000000000, 0.000000000000000000, -1.000000000000000000 ) ) ;
#151 = EDGE_LOOP ( 'NONE', ( #174, #90, #260, #112 ) ) ;
#152 = VERTEX_POINT ( 'NONE', #128 ) ;
#153 = FACE_OUTER_BOUND ( 'NONE', #151, .T. ) ;
#154 = CLOSED_SHELL ( 'NONE', ( #40, #144, #253, #66 ) ) ;
#155 = STYLED_ITEM ( 'NONE', ( #37 ), #175 ) ;
#156 = SURFACE_STYLE_FILL_AREA ( #181 ) ;
#157 = CARTESIAN_POINT ( 'NONE',  ( -0.1249999999999992922, 2.000000000000000000, 0.000000000000000000 ) ) ;
#158 = COLOUR_RGB ( '',1.000000000000000000, 0.000000000000000000, 0.000000000000000000 ) ;
#159 =( NAMED_UNIT ( * ) PLANE_ANGLE_UNIT ( ) SI_UNIT ( $, .RADIAN. ) );
#160 =( NAMED_UNIT ( * ) SI_UNIT ( $, .STERADIAN. ) SOLID_ANGLE_UNIT ( ) );
#161 = FACE_OUTER_BOUND ( 'NONE', #21, .T. ) ;
#162 =( NAMED_UNIT ( * ) SI_UNIT ( $, .STERADIAN. ) SOLID_ANGLE_UNIT ( ) );
#163 = PRESENTATION_STYLE_ASSIGNMENT (( #32 ) ) ;
#164 = MANIFOLD_SOLID_BREP ( 'Revolve - Tool Body (Straight Shanked)', #154 ) ;
#165 = SURFACE_STYLE_USAGE ( .BOTH. , #241 ) ;
#166 = DIRECTION ( 'NONE',  ( 0.000000000000000000, 0.000000000000000000, -1.000000000000000000 ) ) ;
#167 = MECHANICAL_DESIGN_GEOMETRIC_PRESENTATION_REPRESENTATION (  '', ( #155 ), #299 ) ;
#168 = LENGTH_MEASURE_WITH_UNIT ( LENGTH_MEASURE( 0.02539999999999999897 ), #89 );
#169 = PRODUCT_CONTEXT ( 'NONE', #74, 'mechanical' ) ;
#170 = SURFACE_SIDE_STYLE ('',( #214 ) ) ;
#171 = VERTEX_POINT ( 'NONE', #272 ) ;
#172 = DIRECTION ( 'NONE',  ( -1.000000000000000000, 5.463695987328525451E-16, 0.000000000000000000 ) ) ;
#173 = EDGE_LOOP ( 'NONE', ( #69, #199, #262, #95 ) ) ;
#174 = ORIENTED_EDGE ( 'NONE', *, *, #20, .F. ) ;
#175 = ADVANCED_FACE ( 'NONE', ( #135 ), #80, .T. ) ;
#176 = VECTOR ( 'NONE', #102, 39.37007874015748143 ) ;
#177 = DIRECTION ( 'NONE',  ( -1.000000000000000000, 3.014515197901178074E-16, 0.000000000000000000 ) ) ;
#178 = CIRCLE ( 'NONE', #275, 0.1249999999999995420 ) ;
#179 = AXIS2_PLACEMENT_3D ( 'NONE', #67, #257, #145 ) ;
#180 =( LENGTH_UNIT ( ) NAMED_UNIT ( * ) SI_UNIT ( $, .METRE. ) );
#181 = FILL_AREA_STYLE ('',( #7 ) ) ;
#182 = SURFACE_STYLE_FILL_AREA ( #77 ) ;
#183 = PLANE ( 'NONE',  #41 ) ;
#184 = AXIS2_PLACEMENT_3D ( 'NONE', #263, #39, #239 ) ;
#185 =( CONVERSION_BASED_UNIT ( 'INCH', #211 ) LENGTH_UNIT ( ) NAMED_UNIT ( #286 ) );
#186 =( LENGTH_UNIT ( ) NAMED_UNIT ( * ) SI_UNIT ( $, .METRE. ) );
#187 = UNCERTAINTY_MEASURE_WITH_UNIT (LENGTH_MEASURE( 1.000000000000000082E-05 ), #185, 'distance_accuracy_value', 'NONE');
#188 = DIRECTION ( 'NONE',  ( 3.014515197901178074E-16, 1.000000000000000000, -0.000000000000000000 ) ) ;
#189 =( NAMED_UNIT ( * ) SI_UNIT ( $, .STERADIAN. ) SOLID_ANGLE_UNIT ( ) );
#190 =( GEOMETRIC_REPRESENTATION_CONTEXT ( 3 ) GLOBAL_UNCERTAINTY_ASSIGNED_CONTEXT ( ( #187 ) ) GLOBAL_UNIT_ASSIGNED_CONTEXT ( ( #185, #159, #140 ) ) REPRESENTATION_CONTEXT ( 'NONE', 'WORKASPACE' ) );
#191 = PRESENTATION_STYLE_ASSIGNMENT (( #261 ) ) ;
#192 =( CONVERSION_BASED_UNIT ( 'INCH', #84 ) LENGTH_UNIT ( ) NAMED_UNIT ( #126 ) );
#193 = ORIENTED_EDGE ( 'NONE', *, *, #49, .F. ) ;
#194 = AXIS2_PLACEMENT_3D ( 'NONE', #87, #149, #307 ) ;
#195 = CARTESIAN_POINT ( 'NONE',  ( 6.065921084684207584E-32, 0.3750000000000002220, 0.000000000000000000 ) ) ;
#196 = ORIENTED_EDGE ( 'NONE', *, *, #245, .F. ) ;
#197 = EDGE_CURVE ( 'NONE', #65, #240, #210, .T. ) ;
#198 =( NAMED_UNIT ( * ) PLANE_ANGLE_UNIT ( ) SI_UNIT ( $, .RADIAN. ) );
#199 = ORIENTED_EDGE ( 'NONE', *, *, #33, .T. ) ;
#200 = CLOSED_SHELL ( 'NONE', ( #250, #91, #309, #175 ) ) ;
#201 = PRESENTATION_LAYER_ASSIGNMENT (  '', '', ( #225 ) ) ;
#202 = EDGE_CURVE ( 'NONE', #152, #264, #104, .T. ) ;
#203 = FILL_AREA_STYLE ('',( #121 ) ) ;
#204 = CYLINDRICAL_SURFACE ( 'NONE', #206, 0.1249999999999997918 ) ;
#205 = VECTOR ( 'NONE', #17, 39.37007874015748143 ) ;
#206 = AXIS2_PLACEMENT_3D ( 'NONE', #50, #22, #289 ) ;
#207 = AXIS2_PLACEMENT_3D ( 'NONE', #259, #233, #38 ) ;
#208 = SURFACE_SIDE_STYLE ('',( #156 ) ) ;
#209 = CARTESIAN_POINT ( 'NONE',  ( 1.530808498934191817E-17, 0.000000000000000000, 0.1250000000000000278 ) ) ;
#210 = CIRCLE ( 'NONE', #194, 0.1249999999999995420 ) ;
#211 = LENGTH_MEASURE_WITH_UNIT ( LENGTH_MEASURE( 0.02539999999999999897 ), #186 );
#212 = STYLED_ITEM ( 'NONE', ( #218 ), #250 ) ;
#213 = DIRECTION ( 'NONE',  ( 0.000000000000000000, 1.000000000000000000, 0.000000000000000000 ) ) ;
#214 = SURFACE_STYLE_FILL_AREA ( #108 ) ;
#215 = DIRECTION ( 'NONE',  ( 3.014515197901178074E-16, 1.000000000000000000, -0.000000000000000000 ) ) ;
#216 = EDGE_LOOP ( 'NONE', ( #220, #96 ) ) ;
#217 = MECHANICAL_DESIGN_GEOMETRIC_PRESENTATION_REPRESENTATION (  '', ( #64 ), #142 ) ;
#218 = PRESENTATION_STYLE_ASSIGNMENT (( #266 ) ) ;
#219 = ORIENTED_EDGE ( 'NONE', *, *, #136, .T. ) ;
#220 = ORIENTED_EDGE ( 'NONE', *, *, #49, .T. ) ;
#221 = PRODUCT_DEFINITION ( 'UNKNOWN', '', #270, #56 ) ;
#222 = PRESENTATION_LAYER_ASSIGNMENT (  '', '', ( #155 ) ) ;
#223 = DIRECTION ( 'NONE',  ( 0.000000000000000000, -1.000000000000000000, -0.000000000000000000 ) ) ;
#224 = DIRECTION ( 'NONE',  ( 0.000000000000000000, 0.000000000000000000, -1.000000000000000000 ) ) ;
#225 = STYLED_ITEM ( 'NONE', ( #63 ), #164 ) ;
#226 = EDGE_CURVE ( 'NONE', #171, #43, #70, .T. ) ;
#227 = DIRECTION ( 'NONE',  ( -0.000000000000000000, -1.000000000000000000, -0.000000000000000000 ) ) ;
#228 = STYLED_ITEM ( 'NONE', ( #232 ), #258 ) ;
#229 = CARTESIAN_POINT ( 'NONE',  ( 4.898587196589413815E-16, 2.000000000000000000, 0.000000000000000000 ) ) ;
#230 =( LENGTH_UNIT ( ) NAMED_UNIT ( * ) SI_UNIT ( $, .METRE. ) );
#231 = ORIENTED_EDGE ( 'NONE', *, *, #20, .T. ) ;
#232 = PRESENTATION_STYLE_ASSIGNMENT (( #165 ) ) ;
#233 = DIRECTION ( 'NONE',  ( 0.000000000000000000, 0.000000000000000000, 1.000000000000000000 ) ) ;
#234 = DIRECTION ( 'NONE',  ( -3.014515197901178074E-16, -1.000000000000000000, 0.000000000000000000 ) ) ;
#235 = VERTEX_POINT ( 'NONE', #251 ) ;
#236 = CARTESIAN_POINT ( 'NONE',  ( 0.1250000000000000278, 2.000000000000000000, 1.530808498934190276E-17 ) ) ;
#237 = FILL_AREA_STYLE ('',( #86 ) ) ;
#238 = EDGE_LOOP ( 'NONE', ( #110, #243 ) ) ;
#239 = DIRECTION ( 'NONE',  ( 0.000000000000000000, 0.000000000000000000, -1.000000000000000000 ) ) ;
#240 = VERTEX_POINT ( 'NONE', #71 ) ;
#241 = SURFACE_SIDE_STYLE ('',( #75 ) ) ;
#242 = PRESENTATION_LAYER_ASSIGNMENT (  '', '', ( #269 ) ) ;
#243 = ORIENTED_EDGE ( 'NONE', *, *, #33, .F. ) ;
#244 = UNCERTAINTY_MEASURE_WITH_UNIT (LENGTH_MEASURE( 1.000000000000000082E-05 ), #147, 'distance_accuracy_value', 'NONE');
#245 = EDGE_CURVE ( 'NONE', #264, #240, #81, .T. ) ;
#246 = AXIS2_PLACEMENT_3D ( 'NONE', #88, #278, #166 ) ;
#247 = PRESENTATION_LAYER_ASSIGNMENT (  '', '', ( #64 ) ) ;
#248 = UNCERTAINTY_MEASURE_WITH_UNIT (LENGTH_MEASURE( 1.000000000000000082E-05 ), #192, 'distance_accuracy_value', 'NONE');
#249 = FACE_OUTER_BOUND ( 'NONE', #42, .T. ) ;
#250 = ADVANCED_FACE ( 'NONE', ( #51 ), #129, .T. ) ;
#251 = CARTESIAN_POINT ( 'NONE',  ( 1.530808498934191817E-17, 0.000000000000000000, 0.1250000000000000278 ) ) ;
#252 =( NAMED_UNIT ( * ) PLANE_ANGLE_UNIT ( ) SI_UNIT ( $, .RADIAN. ) );
#253 = ADVANCED_FACE ( 'NONE', ( #153 ), #204, .T. ) ;
#254 = AXIS2_PLACEMENT_3D ( 'NONE', #122, #213, #125 ) ;
#255 = PLANE ( 'NONE',  #131 ) ;
#256 = APPLICATION_PROTOCOL_DEFINITION ( 'draft international standard', 'automotive_design', 1998, #57 ) ;
#257 = DIRECTION ( 'NONE',  ( -0.000000000000000000, -1.000000000000000000, -0.000000000000000000 ) ) ;
#258 = MANIFOLD_SOLID_BREP ( 'Revolve - Cutting Edge', #200 ) ;
#259 = CARTESIAN_POINT ( 'NONE',  ( 0.000000000000000000, 0.000000000000000000, 0.000000000000000000 ) ) ;
#260 = ORIENTED_EDGE ( 'NONE', *, *, #245, .T. ) ;
#261 = SURFACE_STYLE_USAGE ( .BOTH. , #170 ) ;
#262 = ORIENTED_EDGE ( 'NONE', *, *, #4, .T. ) ;
#263 = CARTESIAN_POINT ( 'NONE',  ( 0.000000000000000000, 0.3750000000000002220, 0.000000000000000000 ) ) ;
#264 = VERTEX_POINT ( 'NONE', #97 ) ;
#265 = CARTESIAN_POINT ( 'NONE',  ( 0.000000000000000000, 0.000000000000000000, 0.000000000000000000 ) ) ;
#266 = SURFACE_STYLE_USAGE ( .BOTH. , #271 ) ;
#267 = PLANE ( 'NONE',  #254 ) ;
#268 = PRODUCT_DEFINITION_SHAPE ( 'NONE', 'NONE',  #221 ) ;
#269 = STYLED_ITEM ( 'NONE', ( #191 ), #91 ) ;
#270 = PRODUCT_DEFINITION_FORMATION_WITH_SPECIFIED_SOURCE ( 'ANY', '', #2, .NOT_KNOWN. ) ;
#271 = SURFACE_SIDE_STYLE ('',( #295 ) ) ;
#272 = CARTESIAN_POINT ( 'NONE',  ( 0.000000000000000000, 0.3750000000000002220, -0.1250000000000000278 ) ) ;
#273 = MECHANICAL_DESIGN_GEOMETRIC_PRESENTATION_REPRESENTATION (  '', ( #228 ), #93 ) ;
#274 = UNCERTAINTY_MEASURE_WITH_UNIT (LENGTH_MEASURE( 1.000000000000000082E-05 ), #133, 'distance_accuracy_value', 'NONE');
#275 = AXIS2_PLACEMENT_3D ( 'NONE', #229, #188, #61 ) ;
#276 = FACE_OUTER_BOUND ( 'NONE', #216, .T. ) ;
#277 = SURFACE_SIDE_STYLE ('',( #182 ) ) ;
#278 = DIRECTION ( 'NONE',  ( -0.000000000000000000, -1.000000000000000000, -0.000000000000000000 ) ) ;
#279 = DIRECTION ( 'NONE',  ( 3.014515197901178074E-16, 1.000000000000000000, -0.000000000000000000 ) ) ;
#280 = CIRCLE ( 'NONE', #12, 0.1250000000000000278 ) ;
#281 = EDGE_LOOP ( 'NONE', ( #94, #219, #36, #120 ) ) ;
#282 = VECTOR ( 'NONE', #46, 39.37007874015748143 ) ;
#283 = FILL_AREA_STYLE_COLOUR ( '', #158 ) ;
#284 = CARTESIAN_POINT ( 'NONE',  ( 0.000000000000000000, 0.000000000000000000, -0.1250000000000000278 ) ) ;
#285 = PRESENTATION_LAYER_ASSIGNMENT (  '', '', ( #228 ) ) ;
#286 = DIMENSIONAL_EXPONENTS ( 1.000000000000000000, 0.000000000000000000, 0.000000000000000000, 0.000000000000000000, 0.000000000000000000, 0.000000000000000000, 0.000000000000000000 ) ;
#287 = DIRECTION ( 'NONE',  ( 3.014515197901178074E-16, 1.000000000000000000, -0.000000000000000000 ) ) ;
#288 = LENGTH_MEASURE_WITH_UNIT ( LENGTH_MEASURE( 0.02539999999999999897 ), #119 );
#289 = DIRECTION ( 'NONE',  ( -1.000000000000000000, 0.000000000000000000, 0.000000000000000000 ) ) ;
#290 = SURFACE_STYLE_USAGE ( .BOTH. , #208 ) ;
#291 = FILL_AREA_STYLE ('',( #25 ) ) ;
#292 = CYLINDRICAL_SURFACE ( 'NONE', #73, 0.1250000000000000278 ) ;
#293 = EDGE_CURVE ( 'NONE', #264, #152, #1, .T. ) ;
#294 = CIRCLE ( 'NONE', #179, 0.1250000000000000278 ) ;
#295 = SURFACE_STYLE_FILL_AREA ( #291 ) ;
#296 = DIRECTION ( 'NONE',  ( 3.014515197901178074E-16, 1.000000000000000000, -0.000000000000000000 ) ) ;
#297 = CARTESIAN_POINT ( 'NONE',  ( 4.898587196589413815E-16, 2.000000000000000000, 0.000000000000000000 ) ) ;
#298 = FACE_OUTER_BOUND ( 'NONE', #173, .T. ) ;
#299 =( GEOMETRIC_REPRESENTATION_CONTEXT ( 3 ) GLOBAL_UNCERTAINTY_ASSIGNED_CONTEXT ( ( #274 ) ) GLOBAL_UNIT_ASSIGNED_CONTEXT ( ( #133, #113, #162 ) ) REPRESENTATION_CONTEXT ( 'NONE', 'WORKASPACE' ) );
#300 =( NAMED_UNIT ( * ) PLANE_ANGLE_UNIT ( ) SI_UNIT ( $, .RADIAN. ) );
#301 =( LENGTH_UNIT ( ) NAMED_UNIT ( * ) SI_UNIT ( $, .METRE. ) );
#302 = EDGE_CURVE ( 'NONE', #72, #235, #294, .T. ) ;
#303 = LENGTH_MEASURE_WITH_UNIT ( LENGTH_MEASURE( 0.02539999999999999897 ), #28 );
#304 = ORIENTED_EDGE ( 'NONE', *, *, #202, .F. ) ;
#305 = AXIS2_PLACEMENT_3D ( 'NONE', #297, #279, #60 ) ;
#306 =( GEOMETRIC_REPRESENTATION_CONTEXT ( 3 ) GLOBAL_UNCERTAINTY_ASSIGNED_CONTEXT ( ( #248 ) ) GLOBAL_UNIT_ASSIGNED_CONTEXT ( ( #192, #198, #5 ) ) REPRESENTATION_CONTEXT ( 'NONE', 'WORKASPACE' ) );
#307 = DIRECTION ( 'NONE',  ( -1.000000000000000000, 0.000000000000000000, 0.000000000000000000 ) ) ;
#308 = ORIENTED_EDGE ( 'NONE', *, *, #293, .T. ) ;
#309 = ADVANCED_FACE ( 'NONE', ( #298 ), #292, .T. ) ;
ENDSEC;
END-ISO-10303-21;
