ISO-10303-21;
HEADER;
FILE_DESCRIPTION (( 'STEP AP214' ),
    '1' );
FILE_NAME ('06483.STEP',
    '2023-07-05T16:03:38',
    ( '' ),
    ( '' ),
    'SwSTEP 2.0',
    'SolidWorks 2023',
    '' );
FILE_SCHEMA (( 'AUTOMOTIVE_DESIGN' ));
ENDSEC;

DATA;
#1 = EDGE_CURVE ( 'NONE', #117, #90, #35, .T. ) ;
#2 = VECTOR ( 'NONE', #165, 39.37007874015748854 ) ;
#3 = FILL_AREA_STYLE_COLOUR ( '', #157 ) ;
#4 = SURFACE_STYLE_USAGE ( .BOTH. , #66 ) ;
#5 = PRESENTATION_STYLE_ASSIGNMENT (( #4 ) ) ;
#6 = CARTESIAN_POINT ( 'NONE',  ( 1.224646799147353700E-16, 2.000000000000000000, 0.000000000000000000 ) ) ;
#7 = DIRECTION ( 'NONE',  ( -1.366841003161769405E-16, 1.000000000000000000, -0.000000000000000000 ) ) ;
#8 = ORIENTED_EDGE ( 'NONE', *, *, #207, .T. ) ;
#9 = MECHANICAL_DESIGN_GEOMETRIC_PRESENTATION_REPRESENTATION (  '', ( #125 ), #248 ) ;
#10 = DIMENSIONAL_EXPONENTS ( 1.000000000000000000, 0.000000000000000000, 0.000000000000000000, 0.000000000000000000, 0.000000000000000000, 0.000000000000000000, 0.000000000000000000 ) ;
#11 = DIRECTION ( 'NONE',  ( -1.366841003161769405E-16, 1.000000000000000000, 0.000000000000000000 ) ) ;
#12 =( CONVERSION_BASED_UNIT ( 'INCH', #170 ) LENGTH_UNIT ( ) NAMED_UNIT ( #70 ) );
#13 = UNCERTAINTY_MEASURE_WITH_UNIT (LENGTH_MEASURE( 1.000000000000000082E-05 ), #75, 'distance_accuracy_value', 'NONE');
#14 = EDGE_CURVE ( 'NONE', #256, #188, #69, .T. ) ;
#15 = CARTESIAN_POINT ( 'NONE',  ( -0.09374999999999975020, 2.000000000000000000, 0.000000000000000000 ) ) ;
#16 = SURFACE_SIDE_STYLE ('',( #155 ) ) ;
#17 = EDGE_CURVE ( 'NONE', #171, #117, #189, .T. ) ;
#18 = DIRECTION ( 'NONE',  ( -1.366841003161769405E-16, 1.000000000000000000, -0.000000000000000000 ) ) ;
#19 = PRESENTATION_STYLE_ASSIGNMENT (( #208 ) ) ;
#20 = PRODUCT_DEFINITION_SHAPE ( 'NONE', 'NONE',  #76 ) ;
#21 = CARTESIAN_POINT ( 'NONE',  ( 0.000000000000000000, 0.000000000000000000, 0.000000000000000000 ) ) ;
#22 = FILL_AREA_STYLE ('',( #3 ) ) ;
#23 = AXIS2_PLACEMENT_3D ( 'NONE', #132, #11, #96 ) ;
#24 = FACE_OUTER_BOUND ( 'NONE', #257, .T. ) ;
#25 = DIMENSIONAL_EXPONENTS ( 1.000000000000000000, 0.000000000000000000, 0.000000000000000000, 0.000000000000000000, 0.000000000000000000, 0.000000000000000000, 0.000000000000000000 ) ;
#26 = FILL_AREA_STYLE_COLOUR ( '', #226 ) ;
#27 = EDGE_LOOP ( 'NONE', ( #94, #133, #73, #111 ) ) ;
#28 = AXIS2_PLACEMENT_3D ( 'NONE', #164, #102, #180 ) ;
#29 = DIRECTION ( 'NONE',  ( 0.000000000000000000, 1.000000000000000000, 0.000000000000000000 ) ) ;
#30 = UNCERTAINTY_MEASURE_WITH_UNIT (LENGTH_MEASURE( 1.000000000000000082E-05 ), #187, 'distance_accuracy_value', 'NONE');
#31 = MECHANICAL_DESIGN_GEOMETRIC_PRESENTATION_REPRESENTATION (  '', ( #156 ), #258 ) ;
#32 = EDGE_CURVE ( 'NONE', #90, #99, #229, .T. ) ;
#33 = CARTESIAN_POINT ( 'NONE',  ( 0.000000000000000000, 0.000000000000000000, 0.000000000000000000 ) ) ;
#34 = LENGTH_MEASURE_WITH_UNIT ( LENGTH_MEASURE( 0.02539999999999999897 ), #58 );
#35 = LINE ( 'NONE', #123, #243 ) ;
#36 = MANIFOLD_SOLID_BREP ( 'Revolve - Cutting Edge', #169 ) ;
#37 = AXIS2_PLACEMENT_3D ( 'NONE', #80, #18, #139 ) ;
#38 = CARTESIAN_POINT ( 'NONE',  ( 0.000000000000000000, 39.37007874015748143, 0.000000000000000000 ) ) ;
#39 = CARTESIAN_POINT ( 'NONE',  ( -0.09374999999999920897, 0.05412658773652722494, 0.000000000000000000 ) ) ;
#40 = PRODUCT_RELATED_PRODUCT_CATEGORY ( 'part', '', ( #166 ) ) ;
#41 = PRESENTATION_LAYER_ASSIGNMENT (  '', '', ( #230 ) ) ;
#42 = LINE ( 'NONE', #21, #2 ) ;
#43 = DIRECTION ( 'NONE',  ( 0.000000000000000000, 0.000000000000000000, 1.000000000000000000 ) ) ;
#44 =( LENGTH_UNIT ( ) NAMED_UNIT ( * ) SI_UNIT ( $, .METRE. ) );
#45 = VECTOR ( 'NONE', #143, 39.37007874015748854 ) ;
#46 = EDGE_CURVE ( 'NONE', #188, #256, #126, .T. ) ;
#47 = CARTESIAN_POINT ( 'NONE',  ( 1.224646799147353700E-16, 2.000000000000000000, 0.000000000000000000 ) ) ;
#48 = DIMENSIONAL_EXPONENTS ( 1.000000000000000000, 0.000000000000000000, 0.000000000000000000, 0.000000000000000000, 0.000000000000000000, 0.000000000000000000, 0.000000000000000000 ) ;
#49 = FILL_AREA_STYLE ('',( #26 ) ) ;
#50 = EDGE_LOOP ( 'NONE', ( #113, #150 ) ) ;
#51 = FACE_OUTER_BOUND ( 'NONE', #50, .T. ) ;
#52 = ORIENTED_EDGE ( 'NONE', *, *, #98, .F. ) ;
#53 = CLOSED_SHELL ( 'NONE', ( #211, #233, #222, #161 ) ) ;
#54 = AXIS2_PLACEMENT_3D ( 'NONE', #253, #219, #175 ) ;
#55 = ORIENTED_EDGE ( 'NONE', *, *, #154, .F. ) ;
#56 = PRODUCT_CONTEXT ( 'NONE', #197, 'mechanical' ) ;
#57 = PRESENTATION_LAYER_ASSIGNMENT (  '', '', ( #128 ) ) ;
#58 =( LENGTH_UNIT ( ) NAMED_UNIT ( * ) SI_UNIT ( $, .METRE. ) );
#59 = DIRECTION ( 'NONE',  ( 1.000000000000000000, 0.000000000000000000, 0.000000000000000000 ) ) ;
#60 = SURFACE_SIDE_STYLE ('',( #158 ) ) ;
#61 = DIRECTION ( 'NONE',  ( -0.000000000000000000, -1.000000000000000000, -0.000000000000000000 ) ) ;
#62 = VECTOR ( 'NONE', #127, 39.37007874015748143 ) ;
#63 = SURFACE_STYLE_USAGE ( .BOTH. , #60 ) ;
#64 = DIRECTION ( 'NONE',  ( 0.000000000000000000, 0.000000000000000000, -1.000000000000000000 ) ) ;
#65 = LINE ( 'NONE', #145, #62 ) ;
#66 = SURFACE_SIDE_STYLE ('',( #108 ) ) ;
#67 = DIRECTION ( 'NONE',  ( 1.366841003161769405E-16, -1.000000000000000000, 0.000000000000000000 ) ) ;
#68 = CARTESIAN_POINT ( 'NONE',  ( 0.09374999999999998612, 2.000000000000000000, 0.000000000000000000 ) ) ;
#69 = CIRCLE ( 'NONE', #28, 0.09375000000000001388 ) ;
#70 = DIMENSIONAL_EXPONENTS ( 1.000000000000000000, 0.000000000000000000, 0.000000000000000000, 0.000000000000000000, 0.000000000000000000, 0.000000000000000000, 0.000000000000000000 ) ;
#71 =( NAMED_UNIT ( * ) SI_UNIT ( $, .STERADIAN. ) SOLID_ANGLE_UNIT ( ) );
#72 = PLANE ( 'NONE',  #109 ) ;
#73 = ORIENTED_EDGE ( 'NONE', *, *, #154, .T. ) ;
#74 = AXIS2_PLACEMENT_3D ( 'NONE', #47, #7, #146 ) ;
#75 =( CONVERSION_BASED_UNIT ( 'INCH', #260 ) LENGTH_UNIT ( ) NAMED_UNIT ( #10 ) );
#76 = PRODUCT_DEFINITION ( 'UNKNOWN', '', #259, #100 ) ;
#77 = LENGTH_MEASURE_WITH_UNIT ( LENGTH_MEASURE( 0.02539999999999999897 ), #264 );
#78 = PRESENTATION_LAYER_ASSIGNMENT (  '', '', ( #156 ) ) ;
#79 =( GEOMETRIC_REPRESENTATION_CONTEXT ( 3 ) GLOBAL_UNCERTAINTY_ASSIGNED_CONTEXT ( ( #30 ) ) GLOBAL_UNIT_ASSIGNED_CONTEXT ( ( #187, #241, #71 ) ) REPRESENTATION_CONTEXT ( 'NONE', 'WORKASPACE' ) );
#80 = CARTESIAN_POINT ( 'NONE',  ( 3.884346365991374479E-16, 0.05412658773652723881, 0.000000000000000000 ) ) ;
#81 = SHAPE_DEFINITION_REPRESENTATION ( #20, #142 ) ;
#82 = CARTESIAN_POINT ( 'NONE',  ( 1.224646799147353700E-16, 2.000000000000000000, 0.000000000000000000 ) ) ;
#83 = DIRECTION ( 'NONE',  ( -1.000000000000000000, 0.000000000000000000, 0.000000000000000000 ) ) ;
#84 = DIRECTION ( 'NONE',  ( 0.000000000000000000, 1.000000000000000000, 0.000000000000000000 ) ) ;
#85 = CIRCLE ( 'NONE', #37, 0.09374999999999959754 ) ;
#86 =( CONVERSION_BASED_UNIT ( 'INCH', #88 ) LENGTH_UNIT ( ) NAMED_UNIT ( #167 ) );
#87 = PLANE ( 'NONE',  #196 ) ;
#88 = LENGTH_MEASURE_WITH_UNIT ( LENGTH_MEASURE( 0.02539999999999999897 ), #44 );
#89 = AXIS2_PLACEMENT_3D ( 'NONE', #82, #122, #83 ) ;
#90 = VERTEX_POINT ( 'NONE', #247 ) ;
#91 = EDGE_CURVE ( 'NONE', #117, #171, #85, .T. ) ;
#92 = CARTESIAN_POINT ( 'NONE',  ( 1.148106374200643863E-17, 0.05412658773652713473, -0.09375000000000001388 ) ) ;
#93 = EDGE_LOOP ( 'NONE', ( #174, #162 ) ) ;
#94 = ORIENTED_EDGE ( 'NONE', *, *, #1, .F. ) ;
#95 = UNCERTAINTY_MEASURE_WITH_UNIT (LENGTH_MEASURE( 1.000000000000000082E-05 ), #179, 'distance_accuracy_value', 'NONE');
#96 = DIRECTION ( 'NONE',  ( -1.000000000000000000, -1.366841003161769405E-16, 0.000000000000000000 ) ) ;
#97 = CIRCLE ( 'NONE', #54, 0.09374999999999987510 ) ;
#98 = EDGE_CURVE ( 'NONE', #137, #256, #104, .T. ) ;
#99 = VERTEX_POINT ( 'NONE', #15 ) ;
#100 = PRODUCT_DEFINITION_CONTEXT ( 'detailed design', #215, 'design' ) ;
#101 = SURFACE_STYLE_USAGE ( .BOTH. , #16 ) ;
#102 = DIRECTION ( 'NONE',  ( -0.000000000000000000, -1.000000000000000000, -0.000000000000000000 ) ) ;
#103 = AXIS2_PLACEMENT_3D ( 'NONE', #206, #61, #64 ) ;
#104 = LINE ( 'NONE', #159, #45 ) ;
#105 = AXIS2_PLACEMENT_3D ( 'NONE', #110, #84, #43 ) ;
#106 = DIRECTION ( 'NONE',  ( 0.000000000000000000, 0.000000000000000000, 1.000000000000000000 ) ) ;
#107 = DIRECTION ( 'NONE',  ( -1.366841003161769405E-16, 1.000000000000000000, -0.000000000000000000 ) ) ;
#108 = SURFACE_STYLE_FILL_AREA ( #250 ) ;
#109 = AXIS2_PLACEMENT_3D ( 'NONE', #116, #29, #237 ) ;
#110 = CARTESIAN_POINT ( 'NONE',  ( 0.000000000000000000, 39.37007874015748143, 0.000000000000000000 ) ) ;
#111 = ORIENTED_EDGE ( 'NONE', *, *, #32, .F. ) ;
#112 =( LENGTH_UNIT ( ) NAMED_UNIT ( * ) SI_UNIT ( $, .METRE. ) );
#113 = ORIENTED_EDGE ( 'NONE', *, *, #17, .F. ) ;
#114 =( GEOMETRIC_REPRESENTATION_CONTEXT ( 3 ) GLOBAL_UNCERTAINTY_ASSIGNED_CONTEXT ( ( #198 ) ) GLOBAL_UNIT_ASSIGNED_CONTEXT ( ( #12, #149, #173 ) ) REPRESENTATION_CONTEXT ( 'NONE', 'WORKASPACE' ) );
#115 = LENGTH_MEASURE_WITH_UNIT ( LENGTH_MEASURE( 0.02539999999999999897 ), #147 );
#116 = CARTESIAN_POINT ( 'NONE',  ( 0.000000000000000000, 0.05412658773652713473, 0.000000000000000000 ) ) ;
#117 = VERTEX_POINT ( 'NONE', #224 ) ;
#118 =( LENGTH_UNIT ( ) NAMED_UNIT ( * ) SI_UNIT ( $, .METRE. ) );
#119 = AXIS2_PLACEMENT_3D ( 'NONE', #120, #245, #223 ) ;
#120 = CARTESIAN_POINT ( 'NONE',  ( 3.884346365991374479E-16, 0.05412658773652723881, 0.000000000000000000 ) ) ;
#121 =( CONVERSION_BASED_UNIT ( 'INCH', #34 ) LENGTH_UNIT ( ) NAMED_UNIT ( #25 ) );
#122 = DIRECTION ( 'NONE',  ( -1.366841003161769405E-16, 1.000000000000000000, -0.000000000000000000 ) ) ;
#123 = CARTESIAN_POINT ( 'NONE',  ( 0.09374999999999984734, 2.000000000000000000, 1.148106374200640473E-17 ) ) ;
#124 = SURFACE_SIDE_STYLE ('',( #228 ) ) ;
#125 = STYLED_ITEM ( 'NONE', ( #178 ), #36 ) ;
#126 = CIRCLE ( 'NONE', #103, 0.09375000000000001388 ) ;
#127 = DIRECTION ( 'NONE',  ( -1.366841003161769405E-16, 1.000000000000000000, -0.000000000000000000 ) ) ;
#128 = STYLED_ITEM ( 'NONE', ( #192 ), #254 ) ;
#129 = SURFACE_STYLE_USAGE ( .BOTH. , #255 ) ;
#130 = SURFACE_STYLE_FILL_AREA ( #49 ) ;
#131 = EDGE_LOOP ( 'NONE', ( #194, #153 ) ) ;
#132 = CARTESIAN_POINT ( 'NONE',  ( 3.884346365991374479E-16, 0.05412658773652712779, 0.000000000000000000 ) ) ;
#133 = ORIENTED_EDGE ( 'NONE', *, *, #91, .T. ) ;
#134 = AXIS2_PLACEMENT_3D ( 'NONE', #262, #205, #59 ) ;
#135 = ORIENTED_EDGE ( 'NONE', *, *, #98, .T. ) ;
#136 = APPLICATION_PROTOCOL_DEFINITION ( 'draft international standard', 'automotive_design', 1998, #215 ) ;
#137 = VERTEX_POINT ( 'NONE', #33 ) ;
#138 = DIRECTION ( 'NONE',  ( -1.366841003161769405E-16, 1.000000000000000000, -0.000000000000000000 ) ) ;
#139 = DIRECTION ( 'NONE',  ( -1.000000000000000000, -1.821231995776183368E-16, 0.000000000000000000 ) ) ;
#140 = MECHANICAL_DESIGN_GEOMETRIC_PRESENTATION_REPRESENTATION (  '', ( #184 ), #213 ) ;
#141 = ADVANCED_FACE ( 'NONE', ( #200 ), #263, .T. ) ;
#142 = ADVANCED_BREP_SHAPE_REPRESENTATION ( '06483', ( #36, #212, #134 ), #144 ) ;
#143 = DIRECTION ( 'NONE',  ( 1.060575238724908024E-16, 0.4999999999999979461, -0.8660254037844397068 ) ) ;
#144 =( GEOMETRIC_REPRESENTATION_CONTEXT ( 3 ) GLOBAL_UNCERTAINTY_ASSIGNED_CONTEXT ( ( #13 ) ) GLOBAL_UNIT_ASSIGNED_CONTEXT ( ( #75, #195, #160 ) ) REPRESENTATION_CONTEXT ( 'NONE', 'WORKASPACE' ) );
#145 = CARTESIAN_POINT ( 'NONE',  ( -0.09374999999999961142, 2.000000000000000000, 0.000000000000000000 ) ) ;
#146 = DIRECTION ( 'NONE',  ( -1.000000000000000000, 0.000000000000000000, 0.000000000000000000 ) ) ;
#147 =( LENGTH_UNIT ( ) NAMED_UNIT ( * ) SI_UNIT ( $, .METRE. ) );
#148 = ORIENTED_EDGE ( 'NONE', *, *, #220, .F. ) ;
#149 =( NAMED_UNIT ( * ) PLANE_ANGLE_UNIT ( ) SI_UNIT ( $, .RADIAN. ) );
#150 = ORIENTED_EDGE ( 'NONE', *, *, #91, .F. ) ;
#151 = AXIS2_PLACEMENT_3D ( 'NONE', #6, #107, #168 ) ;
#152 = PLANE ( 'NONE',  #23 ) ;
#153 = ORIENTED_EDGE ( 'NONE', *, *, #14, .F. ) ;
#154 = EDGE_CURVE ( 'NONE', #171, #99, #65, .T. ) ;
#155 = SURFACE_STYLE_FILL_AREA ( #244 ) ;
#156 = STYLED_ITEM ( 'NONE', ( #177 ), #141 ) ;
#157 = COLOUR_RGB ( '',0.7921568627450980005, 0.8196078431372548767, 0.9333333333333333481 ) ;
#158 = SURFACE_STYLE_FILL_AREA ( #249 ) ;
#159 = CARTESIAN_POINT ( 'NONE',  ( 0.000000000000000000, 0.000000000000000000, 0.000000000000000000 ) ) ;
#160 =( NAMED_UNIT ( * ) SI_UNIT ( $, .STERADIAN. ) SOLID_ANGLE_UNIT ( ) );
#161 = ADVANCED_FACE ( 'NONE', ( #234 ), #87, .F. ) ;
#162 = ORIENTED_EDGE ( 'NONE', *, *, #32, .T. ) ;
#163 = PRESENTATION_LAYER_ASSIGNMENT (  '', '', ( #125 ) ) ;
#164 = CARTESIAN_POINT ( 'NONE',  ( 0.000000000000000000, 0.05412658773652713473, 0.000000000000000000 ) ) ;
#165 = DIRECTION ( 'NONE',  ( 0.000000000000000000, 0.4999999999999979461, 0.8660254037844397068 ) ) ;
#166 = PRODUCT ( '06483', '06483', '', ( #56 ) ) ;
#167 = DIMENSIONAL_EXPONENTS ( 1.000000000000000000, 0.000000000000000000, 0.000000000000000000, 0.000000000000000000, 0.000000000000000000, 0.000000000000000000, 0.000000000000000000 ) ;
#168 = DIRECTION ( 'NONE',  ( -1.000000000000000000, 0.000000000000000000, 0.000000000000000000 ) ) ;
#169 = CLOSED_SHELL ( 'NONE', ( #199, #254, #141 ) ) ;
#170 = LENGTH_MEASURE_WITH_UNIT ( LENGTH_MEASURE( 0.02539999999999999897 ), #112 );
#171 = VERTEX_POINT ( 'NONE', #39 ) ;
#172 = ORIENTED_EDGE ( 'NONE', *, *, #17, .T. ) ;
#173 =( NAMED_UNIT ( * ) SI_UNIT ( $, .STERADIAN. ) SOLID_ANGLE_UNIT ( ) );
#174 = ORIENTED_EDGE ( 'NONE', *, *, #220, .T. ) ;
#175 = DIRECTION ( 'NONE',  ( -1.000000000000000000, 0.000000000000000000, 0.000000000000000000 ) ) ;
#176 = ORIENTED_EDGE ( 'NONE', *, *, #207, .F. ) ;
#177 = PRESENTATION_STYLE_ASSIGNMENT (( #101 ) ) ;
#178 = PRESENTATION_STYLE_ASSIGNMENT (( #63 ) ) ;
#179 =( CONVERSION_BASED_UNIT ( 'INCH', #77 ) LENGTH_UNIT ( ) NAMED_UNIT ( #221 ) );
#180 = DIRECTION ( 'NONE',  ( 0.000000000000000000, 0.000000000000000000, -1.000000000000000000 ) ) ;
#181 = AXIS2_PLACEMENT_3D ( 'NONE', #38, #214, #106 ) ;
#182 =( NAMED_UNIT ( * ) SI_UNIT ( $, .STERADIAN. ) SOLID_ANGLE_UNIT ( ) );
#183 =( NAMED_UNIT ( * ) SI_UNIT ( $, .STERADIAN. ) SOLID_ANGLE_UNIT ( ) );
#184 = STYLED_ITEM ( 'NONE', ( #5 ), #199 ) ;
#185 = MECHANICAL_DESIGN_GEOMETRIC_PRESENTATION_REPRESENTATION (  '', ( #230 ), #79 ) ;
#186 = FACE_OUTER_BOUND ( 'NONE', #242, .T. ) ;
#187 =( CONVERSION_BASED_UNIT ( 'INCH', #115 ) LENGTH_UNIT ( ) NAMED_UNIT ( #48 ) );
#188 = VERTEX_POINT ( 'NONE', #231 ) ;
#189 = CIRCLE ( 'NONE', #119, 0.09374999999999959754 ) ;
#190 = MECHANICAL_DESIGN_GEOMETRIC_PRESENTATION_REPRESENTATION (  '', ( #128 ), #114 ) ;
#191 = ORIENTED_EDGE ( 'NONE', *, *, #1, .T. ) ;
#192 = PRESENTATION_STYLE_ASSIGNMENT (( #129 ) ) ;
#193 = FACE_OUTER_BOUND ( 'NONE', #27, .T. ) ;
#194 = ORIENTED_EDGE ( 'NONE', *, *, #46, .F. ) ;
#195 =( NAMED_UNIT ( * ) PLANE_ANGLE_UNIT ( ) SI_UNIT ( $, .RADIAN. ) );
#196 = AXIS2_PLACEMENT_3D ( 'NONE', #68, #67, #232 ) ;
#197 = APPLICATION_CONTEXT ( 'automotive_design' ) ;
#198 = UNCERTAINTY_MEASURE_WITH_UNIT (LENGTH_MEASURE( 1.000000000000000082E-05 ), #12, 'distance_accuracy_value', 'NONE');
#199 = ADVANCED_FACE ( 'NONE', ( #24 ), #235, .T. ) ;
#200 = FACE_OUTER_BOUND ( 'NONE', #216, .T. ) ;
#201 = FILL_AREA_STYLE_COLOUR ( '', #202 ) ;
#202 = COLOUR_RGB ( '',0.7921568627450980005, 0.8196078431372548767, 0.9333333333333333481 ) ;
#203 = APPLICATION_PROTOCOL_DEFINITION ( 'draft international standard', 'automotive_design', 1998, #197 ) ;
#204 = FILL_AREA_STYLE_COLOUR ( '', #240 ) ;
#205 = DIRECTION ( 'NONE',  ( 0.000000000000000000, 0.000000000000000000, 1.000000000000000000 ) ) ;
#206 = CARTESIAN_POINT ( 'NONE',  ( 0.000000000000000000, 0.05412658773652713473, 0.000000000000000000 ) ) ;
#207 = EDGE_CURVE ( 'NONE', #137, #188, #42, .T. ) ;
#208 = SURFACE_STYLE_USAGE ( .BOTH. , #124 ) ;
#209 =( NAMED_UNIT ( * ) PLANE_ANGLE_UNIT ( ) SI_UNIT ( $, .RADIAN. ) );
#210 =( NAMED_UNIT ( * ) PLANE_ANGLE_UNIT ( ) SI_UNIT ( $, .RADIAN. ) );
#211 = ADVANCED_FACE ( 'NONE', ( #186 ), #251, .T. ) ;
#212 = MANIFOLD_SOLID_BREP ( 'Revolve - Tool Body (Pointed)', #53 ) ;
#213 =( GEOMETRIC_REPRESENTATION_CONTEXT ( 3 ) GLOBAL_UNCERTAINTY_ASSIGNED_CONTEXT ( ( #261 ) ) GLOBAL_UNIT_ASSIGNED_CONTEXT ( ( #86, #210, #182 ) ) REPRESENTATION_CONTEXT ( 'NONE', 'WORKASPACE' ) );
#214 = DIRECTION ( 'NONE',  ( 0.000000000000000000, 1.000000000000000000, 0.000000000000000000 ) ) ;
#215 = APPLICATION_CONTEXT ( 'automotive_design' ) ;
#216 = EDGE_LOOP ( 'NONE', ( #52, #8, #246 ) ) ;
#217 = COLOUR_RGB ( '',1.000000000000000000, 0.000000000000000000, 0.000000000000000000 ) ;
#218 = UNCERTAINTY_MEASURE_WITH_UNIT (LENGTH_MEASURE( 1.000000000000000082E-05 ), #121, 'distance_accuracy_value', 'NONE');
#219 = DIRECTION ( 'NONE',  ( -1.366841003161769405E-16, 1.000000000000000000, -0.000000000000000000 ) ) ;
#220 = EDGE_CURVE ( 'NONE', #99, #90, #97, .T. ) ;
#221 = DIMENSIONAL_EXPONENTS ( 1.000000000000000000, 0.000000000000000000, 0.000000000000000000, 0.000000000000000000, 0.000000000000000000, 0.000000000000000000, 0.000000000000000000 ) ;
#222 = ADVANCED_FACE ( 'NONE', ( #193 ), #238, .T. ) ;
#223 = DIRECTION ( 'NONE',  ( -1.000000000000000000, -1.821231995776183368E-16, 0.000000000000000000 ) ) ;
#224 = CARTESIAN_POINT ( 'NONE',  ( 0.09374999999999998612, 0.05412658773652725963, 1.148106374200641089E-17 ) ) ;
#225 = PRESENTATION_LAYER_ASSIGNMENT (  '', '', ( #184 ) ) ;
#226 = COLOUR_RGB ( '',1.000000000000000000, 0.000000000000000000, 0.000000000000000000 ) ;
#227 =( NAMED_UNIT ( * ) PLANE_ANGLE_UNIT ( ) SI_UNIT ( $, .RADIAN. ) );
#228 = SURFACE_STYLE_FILL_AREA ( #22 ) ;
#229 = CIRCLE ( 'NONE', #89, 0.09374999999999987510 ) ;
#230 = STYLED_ITEM ( 'NONE', ( #19 ), #212 ) ;
#231 = CARTESIAN_POINT ( 'NONE',  ( 0.000000000000000000, 0.05412658773652713473, 0.09375000000000001388 ) ) ;
#232 = DIRECTION ( 'NONE',  ( 1.000000000000000000, 1.366841003161769405E-16, 0.000000000000000000 ) ) ;
#233 = ADVANCED_FACE ( 'NONE', ( #51 ), #152, .F. ) ;
#234 = FACE_OUTER_BOUND ( 'NONE', #93, .T. ) ;
#235 = CONICAL_SURFACE ( 'NONE', #105, 68.19097667594041923, 1.047197551196600074 ) ;
#236 = FACE_OUTER_BOUND ( 'NONE', #131, .T. ) ;
#237 = DIRECTION ( 'NONE',  ( 0.000000000000000000, -0.000000000000000000, 1.000000000000000000 ) ) ;
#238 = CYLINDRICAL_SURFACE ( 'NONE', #74, 0.09374999999999973632 ) ;
#239 = ORIENTED_EDGE ( 'NONE', *, *, #14, .T. ) ;
#240 = COLOUR_RGB ( '',1.000000000000000000, 0.000000000000000000, 0.000000000000000000 ) ;
#241 =( NAMED_UNIT ( * ) PLANE_ANGLE_UNIT ( ) SI_UNIT ( $, .RADIAN. ) );
#242 = EDGE_LOOP ( 'NONE', ( #172, #191, #148, #55 ) ) ;
#243 = VECTOR ( 'NONE', #138, 39.37007874015748143 ) ;
#244 = FILL_AREA_STYLE ('',( #204 ) ) ;
#245 = DIRECTION ( 'NONE',  ( -1.366841003161769405E-16, 1.000000000000000000, -0.000000000000000000 ) ) ;
#246 = ORIENTED_EDGE ( 'NONE', *, *, #46, .T. ) ;
#247 = CARTESIAN_POINT ( 'NONE',  ( 0.09374999999999998612, 2.000000000000000000, 1.148106374200641089E-17 ) ) ;
#248 =( GEOMETRIC_REPRESENTATION_CONTEXT ( 3 ) GLOBAL_UNCERTAINTY_ASSIGNED_CONTEXT ( ( #95 ) ) GLOBAL_UNIT_ASSIGNED_CONTEXT ( ( #179, #227, #265 ) ) REPRESENTATION_CONTEXT ( 'NONE', 'WORKASPACE' ) );
#249 = FILL_AREA_STYLE ('',( #201 ) ) ;
#250 = FILL_AREA_STYLE ('',( #252 ) ) ;
#251 = CYLINDRICAL_SURFACE ( 'NONE', #151, 0.09374999999999973632 ) ;
#252 = FILL_AREA_STYLE_COLOUR ( '', #217 ) ;
#253 = CARTESIAN_POINT ( 'NONE',  ( 1.224646799147353700E-16, 2.000000000000000000, 0.000000000000000000 ) ) ;
#254 = ADVANCED_FACE ( 'NONE', ( #236 ), #72, .T. ) ;
#255 = SURFACE_SIDE_STYLE ('',( #130 ) ) ;
#256 = VERTEX_POINT ( 'NONE', #92 ) ;
#257 = EDGE_LOOP ( 'NONE', ( #176, #135, #239 ) ) ;
#258 =( GEOMETRIC_REPRESENTATION_CONTEXT ( 3 ) GLOBAL_UNCERTAINTY_ASSIGNED_CONTEXT ( ( #218 ) ) GLOBAL_UNIT_ASSIGNED_CONTEXT ( ( #121, #209, #183 ) ) REPRESENTATION_CONTEXT ( 'NONE', 'WORKASPACE' ) );
#259 = PRODUCT_DEFINITION_FORMATION_WITH_SPECIFIED_SOURCE ( 'ANY', '', #166, .NOT_KNOWN. ) ;
#260 = LENGTH_MEASURE_WITH_UNIT ( LENGTH_MEASURE( 0.02539999999999999897 ), #118 );
#261 = UNCERTAINTY_MEASURE_WITH_UNIT (LENGTH_MEASURE( 1.000000000000000082E-05 ), #86, 'distance_accuracy_value', 'NONE');
#262 = CARTESIAN_POINT ( 'NONE',  ( 0.000000000000000000, 0.000000000000000000, 0.000000000000000000 ) ) ;
#263 = CONICAL_SURFACE ( 'NONE', #181, 68.19097667594041923, 1.047197551196600074 ) ;
#264 =( LENGTH_UNIT ( ) NAMED_UNIT ( * ) SI_UNIT ( $, .METRE. ) );
#265 =( NAMED_UNIT ( * ) SI_UNIT ( $, .STERADIAN. ) SOLID_ANGLE_UNIT ( ) );
ENDSEC;
END-ISO-10303-21;
